ISO-10303-21;
HEADER;
FILE_DESCRIPTION (( 'STEP AP214' ),
    '1' );
FILE_NAME ('82399.STEP',
    '2023-06-23T05:49:05',
    ( '' ),
    ( '' ),
    'SwSTEP 2.0',
    'SolidWorks 2023',
    '' );
FILE_SCHEMA (( 'AUTOMOTIVE_DESIGN' ));
ENDSEC;

DATA;
#1 =( NAMED_UNIT ( * ) SI_UNIT ( $, .STERADIAN. ) SOLID_ANGLE_UNIT ( ) );
#2 = CIRCLE ( 'NONE', #87, 0.3124999999999997224 ) ;
#3 =( GEOMETRIC_REPRESENTATION_CONTEXT ( 3 ) GLOBAL_UNCERTAINTY_ASSIGNED_CONTEXT ( ( #73 ) ) GLOBAL_UNIT_ASSIGNED_CONTEXT ( ( #38, #60, #293 ) ) REPRESENTATION_CONTEXT ( 'NONE', 'WORKASPACE' ) );
#4 = EDGE_CURVE ( 'NONE', #179, #27, #287, .T. ) ;
#5 = PRODUCT_DEFINITION_SHAPE ( 'NONE', 'NONE',  #248 ) ;
#6 = ORIENTED_EDGE ( 'NONE', *, *, #281, .T. ) ;
#7 = CARTESIAN_POINT ( 'NONE',  ( 0.000000000000000000, 0.000000000000000000, -0.3125000000000000000 ) ) ;
#8 = VERTEX_POINT ( 'NONE', #69 ) ;
#9 = PRESENTATION_STYLE_ASSIGNMENT (( #125 ) ) ;
#10 = PRESENTATION_LAYER_ASSIGNMENT (  '', '', ( #150 ) ) ;
#11 = LINE ( 'NONE', #137, #83 ) ;
#12 = CARTESIAN_POINT ( 'NONE',  ( 0.000000000000000000, 0.000000000000000000, -0.3125000000000000000 ) ) ;
#13 = CARTESIAN_POINT ( 'NONE',  ( 0.000000000000000000, 0.000000000000000000, 0.000000000000000000 ) ) ;
#14 = LENGTH_MEASURE_WITH_UNIT ( LENGTH_MEASURE( 0.02539999999999999897 ), #64 );
#15 =( GEOMETRIC_REPRESENTATION_CONTEXT ( 3 ) GLOBAL_UNCERTAINTY_ASSIGNED_CONTEXT ( ( #183 ) ) GLOBAL_UNIT_ASSIGNED_CONTEXT ( ( #247, #142, #51 ) ) REPRESENTATION_CONTEXT ( 'NONE', 'WORKASPACE' ) );
#16 =( LENGTH_UNIT ( ) NAMED_UNIT ( * ) SI_UNIT ( $, .METRE. ) );
#17 = EDGE_CURVE ( 'NONE', #8, #204, #58, .T. ) ;
#18 =( LENGTH_UNIT ( ) NAMED_UNIT ( * ) SI_UNIT ( $, .METRE. ) );
#19 = ORIENTED_EDGE ( 'NONE', *, *, #98, .F. ) ;
#20 = EDGE_LOOP ( 'NONE', ( #153, #144 ) ) ;
#21 = EDGE_CURVE ( 'NONE', #29, #66, #30, .T. ) ;
#22 = FACE_OUTER_BOUND ( 'NONE', #268, .T. ) ;
#23 = ADVANCED_FACE ( 'NONE', ( #155 ), #35, .F. ) ;
#24 = AXIS2_PLACEMENT_3D ( 'NONE', #307, #94, #272 ) ;
#25 = CARTESIAN_POINT ( 'NONE',  ( 0.3125000000000000000, 2.000000000000000000, 3.827021247335477694E-17 ) ) ;
#26 = LINE ( 'NONE', #7, #104 ) ;
#27 = VERTEX_POINT ( 'NONE', #126 ) ;
#28 = SURFACE_SIDE_STYLE ('',( #140 ) ) ;
#29 = VERTEX_POINT ( 'NONE', #196 ) ;
#30 = CIRCLE ( 'NONE', #76, 0.3125000000000000000 ) ;
#31 = PRESENTATION_LAYER_ASSIGNMENT (  '', '', ( #162 ) ) ;
#32 = DIRECTION ( 'NONE',  ( 1.224646799147353700E-16, 1.000000000000000000, -0.000000000000000000 ) ) ;
#33 = CARTESIAN_POINT ( 'NONE',  ( -0.3124999999999996114, 4.000000000000000000, 0.000000000000000000 ) ) ;
#34 = EDGE_LOOP ( 'NONE', ( #216, #237 ) ) ;
#35 = PLANE ( 'NONE',  #276 ) ;
#36 = EDGE_CURVE ( 'NONE', #27, #179, #259, .T. ) ;
#37 = DIMENSIONAL_EXPONENTS ( 1.000000000000000000, 0.000000000000000000, 0.000000000000000000, 0.000000000000000000, 0.000000000000000000, 0.000000000000000000, 0.000000000000000000 ) ;
#38 =( CONVERSION_BASED_UNIT ( 'INCH', #267 ) LENGTH_UNIT ( ) NAMED_UNIT ( #67 ) );
#39 = FILL_AREA_STYLE_COLOUR ( '', #193 ) ;
#40 = PRESENTATION_STYLE_ASSIGNMENT (( #184 ) ) ;
#41 = CARTESIAN_POINT ( 'NONE',  ( 0.000000000000000000, 0.000000000000000000, 0.000000000000000000 ) ) ;
#42 = DIRECTION ( 'NONE',  ( 0.000000000000000000, 0.000000000000000000, -1.000000000000000000 ) ) ;
#43 =( NAMED_UNIT ( * ) SI_UNIT ( $, .STERADIAN. ) SOLID_ANGLE_UNIT ( ) );
#44 = AXIS2_PLACEMENT_3D ( 'NONE', #13, #106, #251 ) ;
#45 =( NAMED_UNIT ( * ) PLANE_ANGLE_UNIT ( ) SI_UNIT ( $, .RADIAN. ) );
#46 = APPLICATION_PROTOCOL_DEFINITION ( 'draft international standard', 'automotive_design', 1998, #154 ) ;
#47 = COLOUR_RGB ( '',1.000000000000000000, 0.000000000000000000, 0.000000000000000000 ) ;
#48 =( CONVERSION_BASED_UNIT ( 'INCH', #180 ) LENGTH_UNIT ( ) NAMED_UNIT ( #297 ) );
#49 = CIRCLE ( 'NONE', #224, 0.3125000000000000000 ) ;
#50 = PRODUCT ( '82399', '82399', '', ( #220 ) ) ;
#51 =( NAMED_UNIT ( * ) SI_UNIT ( $, .STERADIAN. ) SOLID_ANGLE_UNIT ( ) );
#52 = DIRECTION ( 'NONE',  ( -1.224646799147353700E-16, -1.000000000000000000, 0.000000000000000000 ) ) ;
#53 = ORIENTED_EDGE ( 'NONE', *, *, #17, .F. ) ;
#54 = DIRECTION ( 'NONE',  ( 0.000000000000000000, 0.000000000000000000, -1.000000000000000000 ) ) ;
#55 = EDGE_LOOP ( 'NONE', ( #122, #304, #214, #230 ) ) ;
#56 = UNCERTAINTY_MEASURE_WITH_UNIT (LENGTH_MEASURE( 1.000000000000000082E-05 ), #85, 'distance_accuracy_value', 'NONE');
#57 = CYLINDRICAL_SURFACE ( 'NONE', #202, 0.3124999999999998890 ) ;
#58 = CIRCLE ( 'NONE', #100, 0.3124999999999997224 ) ;
#59 = PRESENTATION_LAYER_ASSIGNMENT (  '', '', ( #273 ) ) ;
#60 =( NAMED_UNIT ( * ) PLANE_ANGLE_UNIT ( ) SI_UNIT ( $, .RADIAN. ) );
#61 = PRODUCT_DEFINITION_FORMATION_WITH_SPECIFIED_SOURCE ( 'ANY', '', #50, .NOT_KNOWN. ) ;
#62 = DIMENSIONAL_EXPONENTS ( 1.000000000000000000, 0.000000000000000000, 0.000000000000000000, 0.000000000000000000, 0.000000000000000000, 0.000000000000000000, 0.000000000000000000 ) ;
#63 = DIRECTION ( 'NONE',  ( -0.000000000000000000, -1.000000000000000000, -0.000000000000000000 ) ) ;
#64 =( LENGTH_UNIT ( ) NAMED_UNIT ( * ) SI_UNIT ( $, .METRE. ) );
#65 = FACE_OUTER_BOUND ( 'NONE', #34, .T. ) ;
#66 = VERTEX_POINT ( 'NONE', #12 ) ;
#67 = DIMENSIONAL_EXPONENTS ( 1.000000000000000000, 0.000000000000000000, 0.000000000000000000, 0.000000000000000000, 0.000000000000000000, 0.000000000000000000, 0.000000000000000000 ) ;
#68 =( NAMED_UNIT ( * ) SI_UNIT ( $, .STERADIAN. ) SOLID_ANGLE_UNIT ( ) );
#69 = CARTESIAN_POINT ( 'NONE',  ( -0.3124999999999994449, 4.000000000000000000, 0.000000000000000000 ) ) ;
#70 = DIRECTION ( 'NONE',  ( -0.000000000000000000, -1.000000000000000000, -0.000000000000000000 ) ) ;
#71 = PLANE ( 'NONE',  #245 ) ;
#72 = EDGE_CURVE ( 'NONE', #66, #29, #131, .T. ) ;
#73 = UNCERTAINTY_MEASURE_WITH_UNIT (LENGTH_MEASURE( 1.000000000000000082E-05 ), #38, 'distance_accuracy_value', 'NONE');
#74 = ADVANCED_FACE ( 'NONE', ( #306 ), #209, .F. ) ;
#75 = FACE_OUTER_BOUND ( 'NONE', #55, .T. ) ;
#76 = AXIS2_PLACEMENT_3D ( 'NONE', #300, #63, #182 ) ;
#77 = CARTESIAN_POINT ( 'NONE',  ( 2.449293598294707400E-16, 4.000000000000000000, 0.000000000000000000 ) ) ;
#78 = MANIFOLD_SOLID_BREP ( 'Revolve - Cutting Edge', #249 ) ;
#79 = PRESENTATION_STYLE_ASSIGNMENT (( #198 ) ) ;
#80 = DIRECTION ( 'NONE',  ( 1.224646799147353700E-16, 1.000000000000000000, -0.000000000000000000 ) ) ;
#81 = EDGE_LOOP ( 'NONE', ( #19, #206 ) ) ;
#82 = SURFACE_STYLE_FILL_AREA ( #149 ) ;
#83 = VECTOR ( 'NONE', #117, 39.37007874015748143 ) ;
#84 = ORIENTED_EDGE ( 'NONE', *, *, #4, .F. ) ;
#85 =( CONVERSION_BASED_UNIT ( 'INCH', #14 ) LENGTH_UNIT ( ) NAMED_UNIT ( #37 ) );
#86 = DIRECTION ( 'NONE',  ( 1.000000000000000000, -1.224646799147353700E-16, 0.000000000000000000 ) ) ;
#87 = AXIS2_PLACEMENT_3D ( 'NONE', #190, #298, #169 ) ;
#88 = CIRCLE ( 'NONE', #277, 0.3125000000000000000 ) ;
#89 = EDGE_LOOP ( 'NONE', ( #152, #84 ) ) ;
#90 = DIRECTION ( 'NONE',  ( 1.224646799147353700E-16, 1.000000000000000000, -0.000000000000000000 ) ) ;
#91 =( LENGTH_UNIT ( ) NAMED_UNIT ( * ) SI_UNIT ( $, .METRE. ) );
#92 = CARTESIAN_POINT ( 'NONE',  ( 0.000000000000000000, 2.000000000000000000, 0.000000000000000000 ) ) ;
#93 = FACE_OUTER_BOUND ( 'NONE', #89, .T. ) ;
#94 = DIRECTION ( 'NONE',  ( 0.000000000000000000, -1.000000000000000000, -0.000000000000000000 ) ) ;
#95 = EDGE_CURVE ( 'NONE', #179, #29, #11, .T. ) ;
#96 = CARTESIAN_POINT ( 'NONE',  ( 0.000000000000000000, 2.000000000000000000, 0.000000000000000000 ) ) ;
#97 = DIRECTION ( 'NONE',  ( 1.224646799147353700E-16, 1.000000000000000000, -0.000000000000000000 ) ) ;
#98 = EDGE_CURVE ( 'NONE', #282, #265, #88, .T. ) ;
#99 = FILL_AREA_STYLE ('',( #284 ) ) ;
#100 = AXIS2_PLACEMENT_3D ( 'NONE', #108, #194, #262 ) ;
#101 =( GEOMETRIC_REPRESENTATION_CONTEXT ( 3 ) GLOBAL_UNCERTAINTY_ASSIGNED_CONTEXT ( ( #186 ) ) GLOBAL_UNIT_ASSIGNED_CONTEXT ( ( #115, #45, #68 ) ) REPRESENTATION_CONTEXT ( 'NONE', 'WORKASPACE' ) );
#102 = SURFACE_STYLE_USAGE ( .BOTH. , #138 ) ;
#103 = DIRECTION ( 'NONE',  ( -1.000000000000000000, 0.000000000000000000, 0.000000000000000000 ) ) ;
#104 = VECTOR ( 'NONE', #207, 39.37007874015748143 ) ;
#105 = PRESENTATION_STYLE_ASSIGNMENT (( #170 ) ) ;
#106 = DIRECTION ( 'NONE',  ( -0.000000000000000000, -1.000000000000000000, -0.000000000000000000 ) ) ;
#107 =( GEOMETRIC_REPRESENTATION_CONTEXT ( 3 ) GLOBAL_UNCERTAINTY_ASSIGNED_CONTEXT ( ( #119 ) ) GLOBAL_UNIT_ASSIGNED_CONTEXT ( ( #48, #135, #43 ) ) REPRESENTATION_CONTEXT ( 'NONE', 'WORKASPACE' ) );
#108 = CARTESIAN_POINT ( 'NONE',  ( 2.449293598294707400E-16, 4.000000000000000000, 0.000000000000000000 ) ) ;
#109 = FILL_AREA_STYLE ('',( #221 ) ) ;
#110 =( NAMED_UNIT ( * ) SI_UNIT ( $, .STERADIAN. ) SOLID_ANGLE_UNIT ( ) );
#111 = CARTESIAN_POINT ( 'NONE',  ( 0.000000000000000000, 0.000000000000000000, 0.000000000000000000 ) ) ;
#112 = DIRECTION ( 'NONE',  ( 1.224646799147353700E-16, 1.000000000000000000, -0.000000000000000000 ) ) ;
#113 = PRESENTATION_LAYER_ASSIGNMENT (  '', '', ( #308 ) ) ;
#114 =( CONVERSION_BASED_UNIT ( 'INCH', #238 ) LENGTH_UNIT ( ) NAMED_UNIT ( #62 ) );
#115 =( CONVERSION_BASED_UNIT ( 'INCH', #223 ) LENGTH_UNIT ( ) NAMED_UNIT ( #134 ) );
#116 = CLOSED_SHELL ( 'NONE', ( #146, #23, #263, #74 ) ) ;
#117 = DIRECTION ( 'NONE',  ( -0.000000000000000000, -1.000000000000000000, -0.000000000000000000 ) ) ;
#118 = PRESENTATION_STYLE_ASSIGNMENT (( #102 ) ) ;
#119 = UNCERTAINTY_MEASURE_WITH_UNIT (LENGTH_MEASURE( 1.000000000000000082E-05 ), #48, 'distance_accuracy_value', 'NONE');
#120 = STYLED_ITEM ( 'NONE', ( #309 ), #271 ) ;
#121 =( LENGTH_UNIT ( ) NAMED_UNIT ( * ) SI_UNIT ( $, .METRE. ) );
#122 = ORIENTED_EDGE ( 'NONE', *, *, #164, .F. ) ;
#123 = ORIENTED_EDGE ( 'NONE', *, *, #72, .F. ) ;
#124 =( GEOMETRIC_REPRESENTATION_CONTEXT ( 3 ) GLOBAL_UNCERTAINTY_ASSIGNED_CONTEXT ( ( #128 ) ) GLOBAL_UNIT_ASSIGNED_CONTEXT ( ( #211, #227, #176 ) ) REPRESENTATION_CONTEXT ( 'NONE', 'WORKASPACE' ) );
#125 = SURFACE_STYLE_USAGE ( .BOTH. , #28 ) ;
#126 = CARTESIAN_POINT ( 'NONE',  ( 0.000000000000000000, 2.000000000000000000, -0.3125000000000000000 ) ) ;
#127 = COLOUR_RGB ( '',0.7921568627450980005, 0.8196078431372548767, 0.9333333333333333481 ) ;
#128 = UNCERTAINTY_MEASURE_WITH_UNIT (LENGTH_MEASURE( 1.000000000000000082E-05 ), #211, 'distance_accuracy_value', 'NONE');
#129 = ORIENTED_EDGE ( 'NONE', *, *, #36, .T. ) ;
#130 = DIRECTION ( 'NONE',  ( -0.000000000000000000, -1.000000000000000000, -0.000000000000000000 ) ) ;
#131 = CIRCLE ( 'NONE', #44, 0.3125000000000000000 ) ;
#132 = COLOUR_RGB ( '',1.000000000000000000, 0.000000000000000000, 0.000000000000000000 ) ;
#133 = AXIS2_PLACEMENT_3D ( 'NONE', #111, #195, #218 ) ;
#134 = DIMENSIONAL_EXPONENTS ( 1.000000000000000000, 0.000000000000000000, 0.000000000000000000, 0.000000000000000000, 0.000000000000000000, 0.000000000000000000, 0.000000000000000000 ) ;
#135 =( NAMED_UNIT ( * ) PLANE_ANGLE_UNIT ( ) SI_UNIT ( $, .RADIAN. ) );
#136 = DIRECTION ( 'NONE',  ( 0.000000000000000000, 1.000000000000000000, 0.000000000000000000 ) ) ;
#137 = CARTESIAN_POINT ( 'NONE',  ( 3.827021247335478926E-17, 0.000000000000000000, 0.3125000000000000000 ) ) ;
#138 = SURFACE_SIDE_STYLE ('',( #187 ) ) ;
#139 = EDGE_CURVE ( 'NONE', #265, #282, #49, .T. ) ;
#140 = SURFACE_STYLE_FILL_AREA ( #109 ) ;
#141 = VECTOR ( 'NONE', #199, 39.37007874015748143 ) ;
#142 =( NAMED_UNIT ( * ) PLANE_ANGLE_UNIT ( ) SI_UNIT ( $, .RADIAN. ) );
#143 = SURFACE_SIDE_STYLE ('',( #167 ) ) ;
#144 = ORIENTED_EDGE ( 'NONE', *, *, #203, .T. ) ;
#145 =( NAMED_UNIT ( * ) PLANE_ANGLE_UNIT ( ) SI_UNIT ( $, .RADIAN. ) );
#146 = ADVANCED_FACE ( 'NONE', ( #147 ), #57, .T. ) ;
#147 = FACE_OUTER_BOUND ( 'NONE', #232, .T. ) ;
#148 = AXIS2_PLACEMENT_3D ( 'NONE', #269, #70, #42 ) ;
#149 = FILL_AREA_STYLE ('',( #173 ) ) ;
#150 = STYLED_ITEM ( 'NONE', ( #40 ), #222 ) ;
#151 =( GEOMETRIC_REPRESENTATION_CONTEXT ( 3 ) GLOBAL_UNCERTAINTY_ASSIGNED_CONTEXT ( ( #56 ) ) GLOBAL_UNIT_ASSIGNED_CONTEXT ( ( #85, #145, #1 ) ) REPRESENTATION_CONTEXT ( 'NONE', 'WORKASPACE' ) );
#152 = ORIENTED_EDGE ( 'NONE', *, *, #36, .F. ) ;
#153 = ORIENTED_EDGE ( 'NONE', *, *, #17, .T. ) ;
#154 = APPLICATION_CONTEXT ( 'automotive_design' ) ;
#155 = FACE_OUTER_BOUND ( 'NONE', #81, .T. ) ;
#156 = CARTESIAN_POINT ( 'NONE',  ( 2.343374660409154223E-33, 2.000000000000000000, 0.000000000000000000 ) ) ;
#157 = PRESENTATION_LAYER_ASSIGNMENT (  '', '', ( #120 ) ) ;
#158 = DIRECTION ( 'NONE',  ( 0.000000000000000000, -0.000000000000000000, 1.000000000000000000 ) ) ;
#159 = SHAPE_DEFINITION_REPRESENTATION ( #5, #161 ) ;
#160 = LENGTH_MEASURE_WITH_UNIT ( LENGTH_MEASURE( 0.02539999999999999897 ), #121 );
#161 = ADVANCED_BREP_SHAPE_REPRESENTATION ( '82399', ( #78, #283, #133 ), #3 ) ;
#162 = STYLED_ITEM ( 'NONE', ( #118 ), #226 ) ;
#163 = SURFACE_SIDE_STYLE ('',( #296 ) ) ;
#164 = EDGE_CURVE ( 'NONE', #265, #204, #294, .T. ) ;
#165 = FACE_OUTER_BOUND ( 'NONE', #258, .T. ) ;
#166 = ORIENTED_EDGE ( 'NONE', *, *, #95, .F. ) ;
#167 = SURFACE_STYLE_FILL_AREA ( #225 ) ;
#168 = MECHANICAL_DESIGN_GEOMETRIC_PRESENTATION_REPRESENTATION (  '', ( #308 ), #151 ) ;
#169 = DIRECTION ( 'NONE',  ( -1.000000000000000000, 0.000000000000000000, 0.000000000000000000 ) ) ;
#170 = SURFACE_STYLE_USAGE ( .BOTH. , #254 ) ;
#171 = ORIENTED_EDGE ( 'NONE', *, *, #164, .T. ) ;
#172 = ORIENTED_EDGE ( 'NONE', *, *, #288, .F. ) ;
#173 = FILL_AREA_STYLE_COLOUR ( '', #127 ) ;
#174 = CARTESIAN_POINT ( 'NONE',  ( -0.3125000000000000000, 2.000000000000000000, 0.000000000000000000 ) ) ;
#175 = DIRECTION ( 'NONE',  ( -1.000000000000000000, 0.000000000000000000, 0.000000000000000000 ) ) ;
#176 =( NAMED_UNIT ( * ) SI_UNIT ( $, .STERADIAN. ) SOLID_ANGLE_UNIT ( ) );
#177 = AXIS2_PLACEMENT_3D ( 'NONE', #77, #97, #253 ) ;
#178 =( LENGTH_UNIT ( ) NAMED_UNIT ( * ) SI_UNIT ( $, .METRE. ) );
#179 = VERTEX_POINT ( 'NONE', #252 ) ;
#180 = LENGTH_MEASURE_WITH_UNIT ( LENGTH_MEASURE( 0.02539999999999999897 ), #18 );
#181 = FILL_AREA_STYLE_COLOUR ( '', #47 ) ;
#182 = DIRECTION ( 'NONE',  ( 0.000000000000000000, 0.000000000000000000, -1.000000000000000000 ) ) ;
#183 = UNCERTAINTY_MEASURE_WITH_UNIT (LENGTH_MEASURE( 1.000000000000000082E-05 ), #247, 'distance_accuracy_value', 'NONE');
#184 = SURFACE_STYLE_USAGE ( .BOTH. , #270 ) ;
#185 = MECHANICAL_DESIGN_GEOMETRIC_PRESENTATION_REPRESENTATION (  '', ( #162 ), #101 ) ;
#186 = UNCERTAINTY_MEASURE_WITH_UNIT (LENGTH_MEASURE( 1.000000000000000082E-05 ), #115, 'distance_accuracy_value', 'NONE');
#187 = SURFACE_STYLE_FILL_AREA ( #242 ) ;
#188 = ORIENTED_EDGE ( 'NONE', *, *, #281, .F. ) ;
#189 = AXIS2_PLACEMENT_3D ( 'NONE', #92, #244, #240 ) ;
#190 = CARTESIAN_POINT ( 'NONE',  ( 2.449293598294707400E-16, 4.000000000000000000, 0.000000000000000000 ) ) ;
#191 = ORIENTED_EDGE ( 'NONE', *, *, #21, .F. ) ;
#192 = LINE ( 'NONE', #33, #219 ) ;
#193 = COLOUR_RGB ( '',1.000000000000000000, 0.000000000000000000, 0.000000000000000000 ) ;
#194 = DIRECTION ( 'NONE',  ( 1.224646799147353700E-16, 1.000000000000000000, -0.000000000000000000 ) ) ;
#195 = DIRECTION ( 'NONE',  ( 0.000000000000000000, 0.000000000000000000, 1.000000000000000000 ) ) ;
#196 = CARTESIAN_POINT ( 'NONE',  ( 3.827021247335478926E-17, 0.000000000000000000, 0.3125000000000000000 ) ) ;
#197 = MECHANICAL_DESIGN_GEOMETRIC_PRESENTATION_REPRESENTATION (  '', ( #120 ), #15 ) ;
#198 = SURFACE_STYLE_USAGE ( .BOTH. , #163 ) ;
#199 = DIRECTION ( 'NONE',  ( 1.224646799147353700E-16, 1.000000000000000000, -0.000000000000000000 ) ) ;
#200 = PRODUCT_DEFINITION_CONTEXT ( 'detailed design', #235, 'design' ) ;
#201 = AXIS2_PLACEMENT_3D ( 'NONE', #279, #52, #86 ) ;
#202 = AXIS2_PLACEMENT_3D ( 'NONE', #233, #32, #290 ) ;
#203 = EDGE_CURVE ( 'NONE', #204, #8, #2, .T. ) ;
#204 = VERTEX_POINT ( 'NONE', #280 ) ;
#205 = UNCERTAINTY_MEASURE_WITH_UNIT (LENGTH_MEASURE( 1.000000000000000082E-05 ), #114, 'distance_accuracy_value', 'NONE');
#206 = ORIENTED_EDGE ( 'NONE', *, *, #139, .F. ) ;
#207 = DIRECTION ( 'NONE',  ( -0.000000000000000000, -1.000000000000000000, -0.000000000000000000 ) ) ;
#208 = AXIS2_PLACEMENT_3D ( 'NONE', #41, #130, #305 ) ;
#209 = PLANE ( 'NONE',  #201 ) ;
#210 = ORIENTED_EDGE ( 'NONE', *, *, #98, .T. ) ;
#211 =( CONVERSION_BASED_UNIT ( 'INCH', #236 ) LENGTH_UNIT ( ) NAMED_UNIT ( #302 ) );
#212 = DIRECTION ( 'NONE',  ( 1.224646799147353700E-16, 1.000000000000000000, -0.000000000000000000 ) ) ;
#213 = PRODUCT_RELATED_PRODUCT_CATEGORY ( 'part', '', ( #50 ) ) ;
#214 = ORIENTED_EDGE ( 'NONE', *, *, #288, .T. ) ;
#215 = AXIS2_PLACEMENT_3D ( 'NONE', #291, #285, #54 ) ;
#216 = ORIENTED_EDGE ( 'NONE', *, *, #72, .T. ) ;
#217 = DIRECTION ( 'NONE',  ( -1.000000000000000000, 1.224646799147353700E-16, 0.000000000000000000 ) ) ;
#218 = DIRECTION ( 'NONE',  ( 1.000000000000000000, 0.000000000000000000, 0.000000000000000000 ) ) ;
#219 = VECTOR ( 'NONE', #212, 39.37007874015748143 ) ;
#220 = PRODUCT_CONTEXT ( 'NONE', #154, 'mechanical' ) ;
#221 = FILL_AREA_STYLE_COLOUR ( '', #234 ) ;
#222 = ADVANCED_FACE ( 'NONE', ( #65 ), #241, .T. ) ;
#223 = LENGTH_MEASURE_WITH_UNIT ( LENGTH_MEASURE( 0.02539999999999999897 ), #91 );
#224 = AXIS2_PLACEMENT_3D ( 'NONE', #301, #90, #103 ) ;
#225 = FILL_AREA_STYLE ('',( #255 ) ) ;
#226 = ADVANCED_FACE ( 'NONE', ( #22 ), #243, .T. ) ;
#227 =( NAMED_UNIT ( * ) PLANE_ANGLE_UNIT ( ) SI_UNIT ( $, .RADIAN. ) );
#228 = SURFACE_STYLE_USAGE ( .BOTH. , #143 ) ;
#229 = CYLINDRICAL_SURFACE ( 'NONE', #215, 0.3125000000000000000 ) ;
#230 = ORIENTED_EDGE ( 'NONE', *, *, #203, .F. ) ;
#231 =( NAMED_UNIT ( * ) PLANE_ANGLE_UNIT ( ) SI_UNIT ( $, .RADIAN. ) );
#232 = EDGE_LOOP ( 'NONE', ( #210, #171, #53, #172 ) ) ;
#233 = CARTESIAN_POINT ( 'NONE',  ( 2.449293598294707400E-16, 4.000000000000000000, 0.000000000000000000 ) ) ;
#234 = COLOUR_RGB ( '',0.7921568627450980005, 0.8196078431372548767, 0.9333333333333333481 ) ;
#235 = APPLICATION_CONTEXT ( 'automotive_design' ) ;
#236 = LENGTH_MEASURE_WITH_UNIT ( LENGTH_MEASURE( 0.02539999999999999897 ), #292 );
#237 = ORIENTED_EDGE ( 'NONE', *, *, #21, .T. ) ;
#238 = LENGTH_MEASURE_WITH_UNIT ( LENGTH_MEASURE( 0.02539999999999999897 ), #16 );
#239 = MECHANICAL_DESIGN_GEOMETRIC_PRESENTATION_REPRESENTATION (  '', ( #273 ), #250 ) ;
#240 = DIRECTION ( 'NONE',  ( 0.000000000000000000, 0.000000000000000000, -1.000000000000000000 ) ) ;
#241 = PLANE ( 'NONE',  #24 ) ;
#242 = FILL_AREA_STYLE ('',( #39 ) ) ;
#243 = CYLINDRICAL_SURFACE ( 'NONE', #208, 0.3125000000000000000 ) ;
#244 = DIRECTION ( 'NONE',  ( -0.000000000000000000, -1.000000000000000000, -0.000000000000000000 ) ) ;
#245 = AXIS2_PLACEMENT_3D ( 'NONE', #96, #136, #158 ) ;
#246 = FILL_AREA_STYLE ('',( #181 ) ) ;
#247 =( CONVERSION_BASED_UNIT ( 'INCH', #160 ) LENGTH_UNIT ( ) NAMED_UNIT ( #299 ) );
#248 = PRODUCT_DEFINITION ( 'UNKNOWN', '', #61, #200 ) ;
#249 = CLOSED_SHELL ( 'NONE', ( #271, #261, #226, #222 ) ) ;
#250 =( GEOMETRIC_REPRESENTATION_CONTEXT ( 3 ) GLOBAL_UNCERTAINTY_ASSIGNED_CONTEXT ( ( #205 ) ) GLOBAL_UNIT_ASSIGNED_CONTEXT ( ( #114, #231, #110 ) ) REPRESENTATION_CONTEXT ( 'NONE', 'WORKASPACE' ) );
#251 = DIRECTION ( 'NONE',  ( 0.000000000000000000, 0.000000000000000000, -1.000000000000000000 ) ) ;
#252 = CARTESIAN_POINT ( 'NONE',  ( 3.827021247335478926E-17, 2.000000000000000000, 0.3125000000000000000 ) ) ;
#253 = DIRECTION ( 'NONE',  ( -1.000000000000000000, 0.000000000000000000, 0.000000000000000000 ) ) ;
#254 = SURFACE_SIDE_STYLE ('',( #82 ) ) ;
#255 = FILL_AREA_STYLE_COLOUR ( '', #132 ) ;
#256 = ORIENTED_EDGE ( 'NONE', *, *, #4, .T. ) ;
#257 = CARTESIAN_POINT ( 'NONE',  ( 0.3125000000000001665, 4.000000000000000000, 3.827021247335477078E-17 ) ) ;
#258 = EDGE_LOOP ( 'NONE', ( #129, #286, #123, #188 ) ) ;
#259 = CIRCLE ( 'NONE', #148, 0.3125000000000000000 ) ;
#260 = COLOUR_RGB ( '',1.000000000000000000, 0.000000000000000000, 0.000000000000000000 ) ;
#261 = ADVANCED_FACE ( 'NONE', ( #93 ), #71, .T. ) ;
#262 = DIRECTION ( 'NONE',  ( -1.000000000000000000, 0.000000000000000000, 0.000000000000000000 ) ) ;
#263 = ADVANCED_FACE ( 'NONE', ( #75 ), #278, .T. ) ;
#264 = SURFACE_STYLE_FILL_AREA ( #246 ) ;
#265 = VERTEX_POINT ( 'NONE', #25 ) ;
#266 = PRESENTATION_LAYER_ASSIGNMENT (  '', '', ( #295 ) ) ;
#267 = LENGTH_MEASURE_WITH_UNIT ( LENGTH_MEASURE( 0.02539999999999999897 ), #178 );
#268 = EDGE_LOOP ( 'NONE', ( #166, #256, #6, #191 ) ) ;
#269 = CARTESIAN_POINT ( 'NONE',  ( 0.000000000000000000, 2.000000000000000000, 0.000000000000000000 ) ) ;
#270 = SURFACE_SIDE_STYLE ('',( #264 ) ) ;
#271 = ADVANCED_FACE ( 'NONE', ( #165 ), #229, .T. ) ;
#272 = DIRECTION ( 'NONE',  ( 0.000000000000000000, 0.000000000000000000, -1.000000000000000000 ) ) ;
#273 = STYLED_ITEM ( 'NONE', ( #79 ), #261 ) ;
#274 = APPLICATION_PROTOCOL_DEFINITION ( 'draft international standard', 'automotive_design', 1998, #235 ) ;
#275 = CARTESIAN_POINT ( 'NONE',  ( 3.032960542342103792E-32, 2.000000000000000000, 0.000000000000000000 ) ) ;
#276 = AXIS2_PLACEMENT_3D ( 'NONE', #156, #112, #217 ) ;
#277 = AXIS2_PLACEMENT_3D ( 'NONE', #275, #80, #175 ) ;
#278 = CYLINDRICAL_SURFACE ( 'NONE', #177, 0.3124999999999998890 ) ;
#279 = CARTESIAN_POINT ( 'NONE',  ( 0.3125000000000000000, 4.000000000000000000, 0.000000000000000000 ) ) ;
#280 = CARTESIAN_POINT ( 'NONE',  ( 0.3125000000000000000, 4.000000000000000000, 3.827021247335477694E-17 ) ) ;
#281 = EDGE_CURVE ( 'NONE', #27, #66, #26, .T. ) ;
#282 = VERTEX_POINT ( 'NONE', #174 ) ;
#283 = MANIFOLD_SOLID_BREP ( 'Revolve - Tool Body (Straight Shanked)', #116 ) ;
#284 = FILL_AREA_STYLE_COLOUR ( '', #260 ) ;
#285 = DIRECTION ( 'NONE',  ( -0.000000000000000000, -1.000000000000000000, -0.000000000000000000 ) ) ;
#286 = ORIENTED_EDGE ( 'NONE', *, *, #95, .T. ) ;
#287 = CIRCLE ( 'NONE', #189, 0.3125000000000000000 ) ;
#288 = EDGE_CURVE ( 'NONE', #282, #8, #192, .T. ) ;
#289 = MECHANICAL_DESIGN_GEOMETRIC_PRESENTATION_REPRESENTATION (  '', ( #295 ), #124 ) ;
#290 = DIRECTION ( 'NONE',  ( -1.000000000000000000, 0.000000000000000000, 0.000000000000000000 ) ) ;
#291 = CARTESIAN_POINT ( 'NONE',  ( 0.000000000000000000, 0.000000000000000000, 0.000000000000000000 ) ) ;
#292 =( LENGTH_UNIT ( ) NAMED_UNIT ( * ) SI_UNIT ( $, .METRE. ) );
#293 =( NAMED_UNIT ( * ) SI_UNIT ( $, .STERADIAN. ) SOLID_ANGLE_UNIT ( ) );
#294 = LINE ( 'NONE', #257, #141 ) ;
#295 = STYLED_ITEM ( 'NONE', ( #105 ), #78 ) ;
#296 = SURFACE_STYLE_FILL_AREA ( #99 ) ;
#297 = DIMENSIONAL_EXPONENTS ( 1.000000000000000000, 0.000000000000000000, 0.000000000000000000, 0.000000000000000000, 0.000000000000000000, 0.000000000000000000, 0.000000000000000000 ) ;
#298 = DIRECTION ( 'NONE',  ( 1.224646799147353700E-16, 1.000000000000000000, -0.000000000000000000 ) ) ;
#299 = DIMENSIONAL_EXPONENTS ( 1.000000000000000000, 0.000000000000000000, 0.000000000000000000, 0.000000000000000000, 0.000000000000000000, 0.000000000000000000, 0.000000000000000000 ) ;
#300 = CARTESIAN_POINT ( 'NONE',  ( 0.000000000000000000, 0.000000000000000000, 0.000000000000000000 ) ) ;
#301 = CARTESIAN_POINT ( 'NONE',  ( 3.032960542342103792E-32, 2.000000000000000000, 0.000000000000000000 ) ) ;
#302 = DIMENSIONAL_EXPONENTS ( 1.000000000000000000, 0.000000000000000000, 0.000000000000000000, 0.000000000000000000, 0.000000000000000000, 0.000000000000000000, 0.000000000000000000 ) ;
#303 = MECHANICAL_DESIGN_GEOMETRIC_PRESENTATION_REPRESENTATION (  '', ( #150 ), #107 ) ;
#304 = ORIENTED_EDGE ( 'NONE', *, *, #139, .T. ) ;
#305 = DIRECTION ( 'NONE',  ( 0.000000000000000000, 0.000000000000000000, -1.000000000000000000 ) ) ;
#306 = FACE_OUTER_BOUND ( 'NONE', #20, .T. ) ;
#307 = CARTESIAN_POINT ( 'NONE',  ( 0.000000000000000000, 0.000000000000000000, 0.000000000000000000 ) ) ;
#308 = STYLED_ITEM ( 'NONE', ( #9 ), #283 ) ;
#309 = PRESENTATION_STYLE_ASSIGNMENT (( #228 ) ) ;
ENDSEC;
END-ISO-10303-21;
