ISO-10303-21;
HEADER;
FILE_DESCRIPTION (( 'STEP AP214' ),
    '1' );
FILE_NAME ('03467.STEP',
    '2023-06-22T15:20:58',
    ( '' ),
    ( '' ),
    'SwSTEP 2.0',
    'SolidWorks 2023',
    '' );
FILE_SCHEMA (( 'AUTOMOTIVE_DESIGN' ));
ENDSEC;

DATA;
#1 = PLANE ( 'NONE',  #301 ) ;
#2 = CARTESIAN_POINT ( 'NONE',  ( 3.061616997868383018E-17, 1.250000000000000000, 0.2500000000000000000 ) ) ;
#3 = SURFACE_SIDE_STYLE ('',( #177 ) ) ;
#4 = APPLICATION_CONTEXT ( 'automotive_design' ) ;
#5 = FILL_AREA_STYLE_COLOUR ( '', #213 ) ;
#6 = COLOUR_RGB ( '',1.000000000000000000, 0.000000000000000000, 0.000000000000000000 ) ;
#7 = ORIENTED_EDGE ( 'NONE', *, *, #59, .T. ) ;
#8 = ADVANCED_FACE ( 'NONE', ( #231 ), #45, .T. ) ;
#9 = EDGE_LOOP ( 'NONE', ( #87, #274 ) ) ;
#10 =( GEOMETRIC_REPRESENTATION_CONTEXT ( 3 ) GLOBAL_UNCERTAINTY_ASSIGNED_CONTEXT ( ( #130 ) ) GLOBAL_UNIT_ASSIGNED_CONTEXT ( ( #101, #290, #105 ) ) REPRESENTATION_CONTEXT ( 'NONE', 'WORKASPACE' ) );
#11 = DIRECTION ( 'NONE',  ( -1.000000000000000000, 0.000000000000000000, 0.000000000000000000 ) ) ;
#12 = EDGE_LOOP ( 'NONE', ( #74, #297 ) ) ;
#13 = DIRECTION ( 'NONE',  ( -0.000000000000000000, -1.000000000000000000, -0.000000000000000000 ) ) ;
#14 = SURFACE_STYLE_FILL_AREA ( #19 ) ;
#15 = MANIFOLD_SOLID_BREP ( 'Revolve - Cutting Edge', #206 ) ;
#16 = VECTOR ( 'NONE', #285, 39.37007874015748143 ) ;
#17 = CIRCLE ( 'NONE', #227, 0.2500000000000000000 ) ;
#18 = SURFACE_STYLE_FILL_AREA ( #237 ) ;
#19 = FILL_AREA_STYLE ('',( #304 ) ) ;
#20 =( LENGTH_UNIT ( ) NAMED_UNIT ( * ) SI_UNIT ( $, .METRE. ) );
#21 = VECTOR ( 'NONE', #13, 39.37007874015748143 ) ;
#22 = EDGE_CURVE ( 'NONE', #178, #225, #137, .T. ) ;
#23 = DIRECTION ( 'NONE',  ( -0.000000000000000000, -1.000000000000000000, -0.000000000000000000 ) ) ;
#24 = SURFACE_STYLE_USAGE ( .BOTH. , #3 ) ;
#25 = STYLED_ITEM ( 'NONE', ( #145 ), #120 ) ;
#26 =( CONVERSION_BASED_UNIT ( 'INCH', #29 ) LENGTH_UNIT ( ) NAMED_UNIT ( #181 ) );
#27 = CYLINDRICAL_SURFACE ( 'NONE', #32, 0.2500000000000000000 ) ;
#28 = UNCERTAINTY_MEASURE_WITH_UNIT (LENGTH_MEASURE( 1.000000000000000082E-05 ), #170, 'distance_accuracy_value', 'NONE');
#29 = LENGTH_MEASURE_WITH_UNIT ( LENGTH_MEASURE( 0.02539999999999999897 ), #193 );
#30 = CARTESIAN_POINT ( 'NONE',  ( 0.000000000000000000, 0.000000000000000000, 0.000000000000000000 ) ) ;
#31 = EDGE_LOOP ( 'NONE', ( #175, #131, #114, #34 ) ) ;
#32 = AXIS2_PLACEMENT_3D ( 'NONE', #30, #52, #211 ) ;
#33 = DIRECTION ( 'NONE',  ( 3.498990854706726443E-17, -1.000000000000000000, 0.000000000000000000 ) ) ;
#34 = ORIENTED_EDGE ( 'NONE', *, *, #176, .F. ) ;
#35 = DIMENSIONAL_EXPONENTS ( 1.000000000000000000, 0.000000000000000000, 0.000000000000000000, 0.000000000000000000, 0.000000000000000000, 0.000000000000000000, 0.000000000000000000 ) ;
#36 = LENGTH_MEASURE_WITH_UNIT ( LENGTH_MEASURE( 0.02539999999999999897 ), #159 );
#37 = PRODUCT_DEFINITION_CONTEXT ( 'detailed design', #215, 'design' ) ;
#38 = ORIENTED_EDGE ( 'NONE', *, *, #22, .F. ) ;
#39 =( NAMED_UNIT ( * ) PLANE_ANGLE_UNIT ( ) SI_UNIT ( $, .RADIAN. ) );
#40 =( NAMED_UNIT ( * ) SI_UNIT ( $, .STERADIAN. ) SOLID_ANGLE_UNIT ( ) );
#41 =( NAMED_UNIT ( * ) SI_UNIT ( $, .STERADIAN. ) SOLID_ANGLE_UNIT ( ) );
#42 = DIRECTION ( 'NONE',  ( 0.000000000000000000, 0.000000000000000000, -1.000000000000000000 ) ) ;
#43 = EDGE_CURVE ( 'NONE', #254, #174, #125, .T. ) ;
#44 = MECHANICAL_DESIGN_GEOMETRIC_PRESENTATION_REPRESENTATION (  '', ( #226 ), #141 ) ;
#45 = CYLINDRICAL_SURFACE ( 'NONE', #256, 0.2500000000000000000 ) ;
#46 =( NAMED_UNIT ( * ) PLANE_ANGLE_UNIT ( ) SI_UNIT ( $, .RADIAN. ) );
#47 =( LENGTH_UNIT ( ) NAMED_UNIT ( * ) SI_UNIT ( $, .METRE. ) );
#48 = SURFACE_STYLE_FILL_AREA ( #265 ) ;
#49 =( GEOMETRIC_REPRESENTATION_CONTEXT ( 3 ) GLOBAL_UNCERTAINTY_ASSIGNED_CONTEXT ( ( #28 ) ) GLOBAL_UNIT_ASSIGNED_CONTEXT ( ( #170, #60, #247 ) ) REPRESENTATION_CONTEXT ( 'NONE', 'WORKASPACE' ) );
#50 = FILL_AREA_STYLE_COLOUR ( '', #104 ) ;
#51 = CARTESIAN_POINT ( 'NONE',  ( -6.123233995736772199E-17, 3.000000000000000444, 0.000000000000000000 ) ) ;
#52 = DIRECTION ( 'NONE',  ( -0.000000000000000000, -1.000000000000000000, -0.000000000000000000 ) ) ;
#53 = CIRCLE ( 'NONE', #208, 0.2500000000000000000 ) ;
#54 = FACE_OUTER_BOUND ( 'NONE', #12, .T. ) ;
#55 = AXIS2_PLACEMENT_3D ( 'NONE', #153, #253, #277 ) ;
#56 = FILL_AREA_STYLE ('',( #221 ) ) ;
#57 = CARTESIAN_POINT ( 'NONE',  ( 0.000000000000000000, 1.250000000000000000, 0.000000000000000000 ) ) ;
#58 = EDGE_LOOP ( 'NONE', ( #276, #229 ) ) ;
#59 = EDGE_CURVE ( 'NONE', #64, #174, #287, .T. ) ;
#60 =( NAMED_UNIT ( * ) PLANE_ANGLE_UNIT ( ) SI_UNIT ( $, .RADIAN. ) );
#61 = VERTEX_POINT ( 'NONE', #232 ) ;
#62 = AXIS2_PLACEMENT_3D ( 'NONE', #266, #238, #169 ) ;
#63 = PRODUCT ( '03467', '03467', '', ( #228 ) ) ;
#64 = VERTEX_POINT ( 'NONE', #121 ) ;
#65 = DIMENSIONAL_EXPONENTS ( 1.000000000000000000, 0.000000000000000000, 0.000000000000000000, 0.000000000000000000, 0.000000000000000000, 0.000000000000000000, 0.000000000000000000 ) ;
#66 = DIRECTION ( 'NONE',  ( -0.000000000000000000, -1.000000000000000000, -0.000000000000000000 ) ) ;
#67 = EDGE_LOOP ( 'NONE', ( #258, #151, #133, #199 ) ) ;
#68 = AXIS2_PLACEMENT_3D ( 'NONE', #94, #66, #95 ) ;
#69 = DIMENSIONAL_EXPONENTS ( 1.000000000000000000, 0.000000000000000000, 0.000000000000000000, 0.000000000000000000, 0.000000000000000000, 0.000000000000000000, 0.000000000000000000 ) ;
#70 = DIRECTION ( 'NONE',  ( -1.000000000000000000, 0.000000000000000000, 0.000000000000000000 ) ) ;
#71 = DIRECTION ( 'NONE',  ( -0.000000000000000000, -1.000000000000000000, -0.000000000000000000 ) ) ;
#72 = DIRECTION ( 'NONE',  ( -3.498990854706726443E-17, 1.000000000000000000, -0.000000000000000000 ) ) ;
#73 = ADVANCED_FACE ( 'NONE', ( #210 ), #244, .T. ) ;
#74 = ORIENTED_EDGE ( 'NONE', *, *, #124, .F. ) ;
#75 = DIMENSIONAL_EXPONENTS ( 1.000000000000000000, 0.000000000000000000, 0.000000000000000000, 0.000000000000000000, 0.000000000000000000, 0.000000000000000000, 0.000000000000000000 ) ;
#76 =( GEOMETRIC_REPRESENTATION_CONTEXT ( 3 ) GLOBAL_UNCERTAINTY_ASSIGNED_CONTEXT ( ( #286 ) ) GLOBAL_UNIT_ASSIGNED_CONTEXT ( ( #263, #39, #41 ) ) REPRESENTATION_CONTEXT ( 'NONE', 'WORKASPACE' ) );
#77 = DIRECTION ( 'NONE',  ( 0.000000000000000000, -0.000000000000000000, 1.000000000000000000 ) ) ;
#78 =( LENGTH_UNIT ( ) NAMED_UNIT ( * ) SI_UNIT ( $, .METRE. ) );
#79 = PRESENTATION_LAYER_ASSIGNMENT (  '', '', ( #187 ) ) ;
#80 = SURFACE_STYLE_FILL_AREA ( #107 ) ;
#81 = DIRECTION ( 'NONE',  ( 0.000000000000000000, 0.000000000000000000, -1.000000000000000000 ) ) ;
#82 = SURFACE_STYLE_USAGE ( .BOTH. , #295 ) ;
#83 = PLANE ( 'NONE',  #172 ) ;
#84 = COLOUR_RGB ( '',1.000000000000000000, 0.000000000000000000, 0.000000000000000000 ) ;
#85 = CARTESIAN_POINT ( 'NONE',  ( 1.530367125165163595E-34, 1.250000000000000000, 0.000000000000000000 ) ) ;
#86 =( LENGTH_UNIT ( ) NAMED_UNIT ( * ) SI_UNIT ( $, .METRE. ) );
#87 = ORIENTED_EDGE ( 'NONE', *, *, #138, .T. ) ;
#88 = DIRECTION ( 'NONE',  ( 0.000000000000000000, -1.000000000000000000, -0.000000000000000000 ) ) ;
#89 = EDGE_LOOP ( 'NONE', ( #219, #180 ) ) ;
#90 = COLOUR_RGB ( '',0.7921568627450980005, 0.8196078431372548767, 0.9333333333333333481 ) ;
#91 = VECTOR ( 'NONE', #146, 39.37007874015748143 ) ;
#92 = DIRECTION ( 'NONE',  ( -3.498990854706726443E-17, 1.000000000000000000, -0.000000000000000000 ) ) ;
#93 = ORIENTED_EDGE ( 'NONE', *, *, #176, .T. ) ;
#94 = CARTESIAN_POINT ( 'NONE',  ( 0.000000000000000000, 1.250000000000000000, 0.000000000000000000 ) ) ;
#95 = DIRECTION ( 'NONE',  ( 0.000000000000000000, 0.000000000000000000, -1.000000000000000000 ) ) ;
#96 = SURFACE_SIDE_STYLE ('',( #14 ) ) ;
#97 = PRESENTATION_LAYER_ASSIGNMENT (  '', '', ( #147 ) ) ;
#98 = SURFACE_STYLE_USAGE ( .BOTH. , #96 ) ;
#99 = VECTOR ( 'NONE', #72, 39.37007874015748143 ) ;
#100 = CIRCLE ( 'NONE', #68, 0.2500000000000000000 ) ;
#101 =( CONVERSION_BASED_UNIT ( 'INCH', #241 ) LENGTH_UNIT ( ) NAMED_UNIT ( #65 ) );
#102 = SURFACE_SIDE_STYLE ('',( #307 ) ) ;
#103 = EDGE_CURVE ( 'NONE', #152, #225, #140, .T. ) ;
#104 = COLOUR_RGB ( '',0.7921568627450980005, 0.8196078431372548767, 0.9333333333333333481 ) ;
#105 =( NAMED_UNIT ( * ) SI_UNIT ( $, .STERADIAN. ) SOLID_ANGLE_UNIT ( ) );
#106 = DIRECTION ( 'NONE',  ( -0.000000000000000000, -1.000000000000000000, -0.000000000000000000 ) ) ;
#107 = FILL_AREA_STYLE ('',( #294 ) ) ;
#108 = CARTESIAN_POINT ( 'NONE',  ( 0.000000000000000000, 0.000000000000000000, -0.2500000000000000000 ) ) ;
#109 = DIRECTION ( 'NONE',  ( -1.000000000000000000, 0.000000000000000000, 0.000000000000000000 ) ) ;
#110 = AXIS2_PLACEMENT_3D ( 'NONE', #236, #261, #42 ) ;
#111 = PRESENTATION_STYLE_ASSIGNMENT (( #24 ) ) ;
#112 = ORIENTED_EDGE ( 'NONE', *, *, #267, .F. ) ;
#113 = CARTESIAN_POINT ( 'NONE',  ( 0.000000000000000000, 0.000000000000000000, 0.000000000000000000 ) ) ;
#114 = ORIENTED_EDGE ( 'NONE', *, *, #103, .F. ) ;
#115 = SHAPE_DEFINITION_REPRESENTATION ( #289, #246 ) ;
#116 = DIMENSIONAL_EXPONENTS ( 1.000000000000000000, 0.000000000000000000, 0.000000000000000000, 0.000000000000000000, 0.000000000000000000, 0.000000000000000000, 0.000000000000000000 ) ;
#117 = EDGE_LOOP ( 'NONE', ( #201, #182, #7, #260 ) ) ;
#118 = CARTESIAN_POINT ( 'NONE',  ( 0.2499999999999999722, 3.000000000000000444, 3.061616997868383634E-17 ) ) ;
#119 = UNCERTAINTY_MEASURE_WITH_UNIT (LENGTH_MEASURE( 1.000000000000000082E-05 ), #281, 'distance_accuracy_value', 'NONE');
#120 = MANIFOLD_SOLID_BREP ( 'Revolve - Tool Body (Straight Shanked)', #167 ) ;
#121 = CARTESIAN_POINT ( 'NONE',  ( 0.000000000000000000, 1.250000000000000000, -0.2500000000000000000 ) ) ;
#122 =( NAMED_UNIT ( * ) SI_UNIT ( $, .STERADIAN. ) SOLID_ANGLE_UNIT ( ) );
#123 = SURFACE_STYLE_USAGE ( .BOTH. , #171 ) ;
#124 = EDGE_CURVE ( 'NONE', #61, #178, #53, .T. ) ;
#125 = CIRCLE ( 'NONE', #110, 0.2500000000000000000 ) ;
#126 = CARTESIAN_POINT ( 'NONE',  ( 0.000000000000000000, 1.250000000000000000, 0.000000000000000000 ) ) ;
#127 = DIRECTION ( 'NONE',  ( 0.000000000000000000, 0.000000000000000000, -1.000000000000000000 ) ) ;
#128 = DIRECTION ( 'NONE',  ( -3.498990854706726443E-17, 1.000000000000000000, -0.000000000000000000 ) ) ;
#129 = FACE_OUTER_BOUND ( 'NONE', #89, .T. ) ;
#130 = UNCERTAINTY_MEASURE_WITH_UNIT (LENGTH_MEASURE( 1.000000000000000082E-05 ), #101, 'distance_accuracy_value', 'NONE');
#131 = ORIENTED_EDGE ( 'NONE', *, *, #22, .T. ) ;
#132 = CIRCLE ( 'NONE', #272, 0.2500000000000000000 ) ;
#133 = ORIENTED_EDGE ( 'NONE', *, *, #138, .F. ) ;
#134 = PRESENTATION_STYLE_ASSIGNMENT (( #303 ) ) ;
#135 = SURFACE_SIDE_STYLE ('',( #18 ) ) ;
#136 = ADVANCED_FACE ( 'NONE', ( #306 ), #1, .T. ) ;
#137 = LINE ( 'NONE', #118, #99 ) ;
#138 = EDGE_CURVE ( 'NONE', #174, #254, #132, .T. ) ;
#139 =( NAMED_UNIT ( * ) PLANE_ANGLE_UNIT ( ) SI_UNIT ( $, .RADIAN. ) );
#140 = CIRCLE ( 'NONE', #62, 0.2500000000000000555 ) ;
#141 =( GEOMETRIC_REPRESENTATION_CONTEXT ( 3 ) GLOBAL_UNCERTAINTY_ASSIGNED_CONTEXT ( ( #264 ) ) GLOBAL_UNIT_ASSIGNED_CONTEXT ( ( #190, #139, #122 ) ) REPRESENTATION_CONTEXT ( 'NONE', 'WORKASPACE' ) );
#142 = PRODUCT_DEFINITION ( 'UNKNOWN', '', #234, #37 ) ;
#143 = EDGE_CURVE ( 'NONE', #178, #61, #280, .T. ) ;
#144 = CARTESIAN_POINT ( 'NONE',  ( 0.000000000000000000, 1.250000000000000000, 0.000000000000000000 ) ) ;
#145 = PRESENTATION_STYLE_ASSIGNMENT (( #123 ) ) ;
#146 = DIRECTION ( 'NONE',  ( -3.498990854706726443E-17, 1.000000000000000000, -0.000000000000000000 ) ) ;
#147 = STYLED_ITEM ( 'NONE', ( #275 ), #155 ) ;
#148 = PRESENTATION_STYLE_ASSIGNMENT (( #82 ) ) ;
#149 = PLANE ( 'NONE',  #207 ) ;
#150 = CARTESIAN_POINT ( 'NONE',  ( 0.2500000000000000000, 3.000000000000000444, 3.061616997868383634E-17 ) ) ;
#151 = ORIENTED_EDGE ( 'NONE', *, *, #255, .T. ) ;
#152 = VERTEX_POINT ( 'NONE', #217 ) ;
#153 = CARTESIAN_POINT ( 'NONE',  ( 0.000000000000000000, 0.000000000000000000, 0.000000000000000000 ) ) ;
#154 = AXIS2_PLACEMENT_3D ( 'NONE', #259, #200, #11 ) ;
#155 = ADVANCED_FACE ( 'NONE', ( #248 ), #83, .T. ) ;
#156 = CYLINDRICAL_SURFACE ( 'NONE', #154, 0.2500000000000000555 ) ;
#157 = UNCERTAINTY_MEASURE_WITH_UNIT (LENGTH_MEASURE( 1.000000000000000082E-05 ), #26, 'distance_accuracy_value', 'NONE');
#158 = ADVANCED_FACE ( 'NONE', ( #218 ), #27, .T. ) ;
#159 =( LENGTH_UNIT ( ) NAMED_UNIT ( * ) SI_UNIT ( $, .METRE. ) );
#160 = VERTEX_POINT ( 'NONE', #2 ) ;
#161 = DIRECTION ( 'NONE',  ( 0.000000000000000000, 0.000000000000000000, -1.000000000000000000 ) ) ;
#162 =( GEOMETRIC_REPRESENTATION_CONTEXT ( 3 ) GLOBAL_UNCERTAINTY_ASSIGNED_CONTEXT ( ( #157 ) ) GLOBAL_UNIT_ASSIGNED_CONTEXT ( ( #26, #268, #249 ) ) REPRESENTATION_CONTEXT ( 'NONE', 'WORKASPACE' ) );
#163 = PLANE ( 'NONE',  #179 ) ;
#164 = CARTESIAN_POINT ( 'NONE',  ( 0.000000000000000000, 0.000000000000000000, 0.000000000000000000 ) ) ;
#165 = LENGTH_MEASURE_WITH_UNIT ( LENGTH_MEASURE( 0.02539999999999999897 ), #186 );
#166 = LENGTH_MEASURE_WITH_UNIT ( LENGTH_MEASURE( 0.02539999999999999897 ), #78 );
#167 = CLOSED_SHELL ( 'NONE', ( #73, #198, #283, #243 ) ) ;
#168 = DIRECTION ( 'NONE',  ( 0.000000000000000000, 0.000000000000000000, -1.000000000000000000 ) ) ;
#169 = DIRECTION ( 'NONE',  ( -1.000000000000000000, 0.000000000000000000, 0.000000000000000000 ) ) ;
#170 =( CONVERSION_BASED_UNIT ( 'INCH', #298 ) LENGTH_UNIT ( ) NAMED_UNIT ( #69 ) );
#171 = SURFACE_SIDE_STYLE ('',( #48 ) ) ;
#172 = AXIS2_PLACEMENT_3D ( 'NONE', #113, #88, #127 ) ;
#173 = DIRECTION ( 'NONE',  ( -3.498990854706726443E-17, 1.000000000000000000, 0.000000000000000000 ) ) ;
#174 = VERTEX_POINT ( 'NONE', #108 ) ;
#175 = ORIENTED_EDGE ( 'NONE', *, *, #124, .T. ) ;
#176 = EDGE_CURVE ( 'NONE', #61, #152, #195, .T. ) ;
#177 = SURFACE_STYLE_FILL_AREA ( #222 ) ;
#178 = VERTEX_POINT ( 'NONE', #270 ) ;
#179 = AXIS2_PLACEMENT_3D ( 'NONE', #184, #33, #299 ) ;
#180 = ORIENTED_EDGE ( 'NONE', *, *, #267, .T. ) ;
#181 = DIMENSIONAL_EXPONENTS ( 1.000000000000000000, 0.000000000000000000, 0.000000000000000000, 0.000000000000000000, 0.000000000000000000, 0.000000000000000000, 0.000000000000000000 ) ;
#182 = ORIENTED_EDGE ( 'NONE', *, *, #191, .T. ) ;
#183 = MECHANICAL_DESIGN_GEOMETRIC_PRESENTATION_REPRESENTATION (  '', ( #147 ), #49 ) ;
#184 = CARTESIAN_POINT ( 'NONE',  ( 0.2500000000000000000, 3.000000000000000444, 0.000000000000000000 ) ) ;
#185 = CARTESIAN_POINT ( 'NONE',  ( 0.000000000000000000, 0.000000000000000000, -0.2500000000000000000 ) ) ;
#186 =( LENGTH_UNIT ( ) NAMED_UNIT ( * ) SI_UNIT ( $, .METRE. ) );
#187 = STYLED_ITEM ( 'NONE', ( #111 ), #158 ) ;
#188 = DIRECTION ( 'NONE',  ( -1.000000000000000000, 0.000000000000000000, 0.000000000000000000 ) ) ;
#189 = SURFACE_STYLE_USAGE ( .BOTH. , #102 ) ;
#190 =( CONVERSION_BASED_UNIT ( 'INCH', #166 ) LENGTH_UNIT ( ) NAMED_UNIT ( #116 ) );
#191 = EDGE_CURVE ( 'NONE', #160, #64, #17, .T. ) ;
#192 = AXIS2_PLACEMENT_3D ( 'NONE', #51, #269, #188 ) ;
#193 =( LENGTH_UNIT ( ) NAMED_UNIT ( * ) SI_UNIT ( $, .METRE. ) );
#194 = CARTESIAN_POINT ( 'NONE',  ( -0.2500000000000001110, 3.000000000000000444, 0.000000000000000000 ) ) ;
#195 = LINE ( 'NONE', #194, #91 ) ;
#196 = COLOUR_RGB ( '',1.000000000000000000, 0.000000000000000000, 0.000000000000000000 ) ;
#197 = EDGE_LOOP ( 'NONE', ( #38, #203, #93, #112 ) ) ;
#198 = ADVANCED_FACE ( 'NONE', ( #54 ), #149, .F. ) ;
#199 = ORIENTED_EDGE ( 'NONE', *, *, #59, .F. ) ;
#200 = DIRECTION ( 'NONE',  ( -3.498990854706726443E-17, 1.000000000000000000, -0.000000000000000000 ) ) ;
#201 = ORIENTED_EDGE ( 'NONE', *, *, #255, .F. ) ;
#202 = PRESENTATION_LAYER_ASSIGNMENT (  '', '', ( #25 ) ) ;
#203 = ORIENTED_EDGE ( 'NONE', *, *, #143, .T. ) ;
#204 = APPLICATION_PROTOCOL_DEFINITION ( 'draft international standard', 'automotive_design', 1998, #4 ) ;
#205 = CARTESIAN_POINT ( 'NONE',  ( -6.123233995736772199E-17, 3.000000000000000444, 0.000000000000000000 ) ) ;
#206 = CLOSED_SHELL ( 'NONE', ( #8, #136, #158, #155 ) ) ;
#207 = AXIS2_PLACEMENT_3D ( 'NONE', #85, #173, #273 ) ;
#208 = AXIS2_PLACEMENT_3D ( 'NONE', #126, #216, #308 ) ;
#209 = PRESENTATION_LAYER_ASSIGNMENT (  '', '', ( #226 ) ) ;
#210 = FACE_OUTER_BOUND ( 'NONE', #31, .T. ) ;
#211 = DIRECTION ( 'NONE',  ( 0.000000000000000000, 0.000000000000000000, -1.000000000000000000 ) ) ;
#212 = STYLED_ITEM ( 'NONE', ( #134 ), #8 ) ;
#213 = COLOUR_RGB ( '',1.000000000000000000, 0.000000000000000000, 0.000000000000000000 ) ;
#214 = PRODUCT_RELATED_PRODUCT_CATEGORY ( 'part', '', ( #63 ) ) ;
#215 = APPLICATION_CONTEXT ( 'automotive_design' ) ;
#216 = DIRECTION ( 'NONE',  ( -3.498990854706726443E-17, 1.000000000000000000, -0.000000000000000000 ) ) ;
#217 = CARTESIAN_POINT ( 'NONE',  ( -0.2500000000000001110, 3.000000000000000444, 0.000000000000000000 ) ) ;
#218 = FACE_OUTER_BOUND ( 'NONE', #117, .T. ) ;
#219 = ORIENTED_EDGE ( 'NONE', *, *, #103, .T. ) ;
#220 = AXIS2_PLACEMENT_3D ( 'NONE', #242, #128, #109 ) ;
#221 = FILL_AREA_STYLE_COLOUR ( '', #6 ) ;
#222 = FILL_AREA_STYLE ('',( #5 ) ) ;
#223 = FACE_OUTER_BOUND ( 'NONE', #197, .T. ) ;
#224 = CARTESIAN_POINT ( 'NONE',  ( 3.061616997868383018E-17, 0.000000000000000000, 0.2500000000000000000 ) ) ;
#225 = VERTEX_POINT ( 'NONE', #150 ) ;
#226 = STYLED_ITEM ( 'NONE', ( #148 ), #136 ) ;
#227 = AXIS2_PLACEMENT_3D ( 'NONE', #57, #106, #81 ) ;
#228 = PRODUCT_CONTEXT ( 'NONE', #4, 'mechanical' ) ;
#229 = ORIENTED_EDGE ( 'NONE', *, *, #191, .F. ) ;
#230 = LINE ( 'NONE', #224, #21 ) ;
#231 = FACE_OUTER_BOUND ( 'NONE', #67, .T. ) ;
#232 = CARTESIAN_POINT ( 'NONE',  ( -0.2500000000000000000, 1.250000000000000000, 0.000000000000000000 ) ) ;
#233 = PRESENTATION_LAYER_ASSIGNMENT (  '', '', ( #251 ) ) ;
#234 = PRODUCT_DEFINITION_FORMATION_WITH_SPECIFIED_SOURCE ( 'ANY', '', #63, .NOT_KNOWN. ) ;
#235 = DIMENSIONAL_EXPONENTS ( 1.000000000000000000, 0.000000000000000000, 0.000000000000000000, 0.000000000000000000, 0.000000000000000000, 0.000000000000000000, 0.000000000000000000 ) ;
#236 = CARTESIAN_POINT ( 'NONE',  ( 0.000000000000000000, 0.000000000000000000, 0.000000000000000000 ) ) ;
#237 = FILL_AREA_STYLE ('',( #282 ) ) ;
#238 = DIRECTION ( 'NONE',  ( -3.498990854706726443E-17, 1.000000000000000000, -0.000000000000000000 ) ) ;
#239 = PRESENTATION_LAYER_ASSIGNMENT (  '', '', ( #212 ) ) ;
#240 =( GEOMETRIC_REPRESENTATION_CONTEXT ( 3 ) GLOBAL_UNCERTAINTY_ASSIGNED_CONTEXT ( ( #119 ) ) GLOBAL_UNIT_ASSIGNED_CONTEXT ( ( #281, #284, #40 ) ) REPRESENTATION_CONTEXT ( 'NONE', 'WORKASPACE' ) );
#241 = LENGTH_MEASURE_WITH_UNIT ( LENGTH_MEASURE( 0.02539999999999999897 ), #47 );
#242 = CARTESIAN_POINT ( 'NONE',  ( 0.000000000000000000, 1.250000000000000000, 0.000000000000000000 ) ) ;
#243 = ADVANCED_FACE ( 'NONE', ( #129 ), #163, .F. ) ;
#244 = CYLINDRICAL_SURFACE ( 'NONE', #192, 0.2500000000000000555 ) ;
#245 = MECHANICAL_DESIGN_GEOMETRIC_PRESENTATION_REPRESENTATION (  '', ( #25 ), #10 ) ;
#246 = ADVANCED_BREP_SHAPE_REPRESENTATION ( '03467', ( #15, #120, #55 ), #240 ) ;
#247 =( NAMED_UNIT ( * ) SI_UNIT ( $, .STERADIAN. ) SOLID_ANGLE_UNIT ( ) );
#248 = FACE_OUTER_BOUND ( 'NONE', #9, .T. ) ;
#249 =( NAMED_UNIT ( * ) SI_UNIT ( $, .STERADIAN. ) SOLID_ANGLE_UNIT ( ) );
#250 = EDGE_CURVE ( 'NONE', #64, #160, #100, .T. ) ;
#251 = STYLED_ITEM ( 'NONE', ( #288 ), #15 ) ;
#252 = CIRCLE ( 'NONE', #296, 0.2500000000000000555 ) ;
#253 = DIRECTION ( 'NONE',  ( 0.000000000000000000, 0.000000000000000000, 1.000000000000000000 ) ) ;
#254 = VERTEX_POINT ( 'NONE', #278 ) ;
#255 = EDGE_CURVE ( 'NONE', #160, #254, #230, .T. ) ;
#256 = AXIS2_PLACEMENT_3D ( 'NONE', #164, #71, #161 ) ;
#257 = APPLICATION_PROTOCOL_DEFINITION ( 'draft international standard', 'automotive_design', 1998, #215 ) ;
#258 = ORIENTED_EDGE ( 'NONE', *, *, #250, .T. ) ;
#259 = CARTESIAN_POINT ( 'NONE',  ( -6.123233995736772199E-17, 3.000000000000000444, 0.000000000000000000 ) ) ;
#260 = ORIENTED_EDGE ( 'NONE', *, *, #43, .F. ) ;
#261 = DIRECTION ( 'NONE',  ( -0.000000000000000000, -1.000000000000000000, -0.000000000000000000 ) ) ;
#262 = MECHANICAL_DESIGN_GEOMETRIC_PRESENTATION_REPRESENTATION (  '', ( #251 ), #293 ) ;
#263 =( CONVERSION_BASED_UNIT ( 'INCH', #279 ) LENGTH_UNIT ( ) NAMED_UNIT ( #235 ) );
#264 = UNCERTAINTY_MEASURE_WITH_UNIT (LENGTH_MEASURE( 1.000000000000000082E-05 ), #190, 'distance_accuracy_value', 'NONE');
#265 = FILL_AREA_STYLE ('',( #50 ) ) ;
#266 = CARTESIAN_POINT ( 'NONE',  ( -6.123233995736772199E-17, 3.000000000000000444, 0.000000000000000000 ) ) ;
#267 = EDGE_CURVE ( 'NONE', #225, #152, #252, .T. ) ;
#268 =( NAMED_UNIT ( * ) PLANE_ANGLE_UNIT ( ) SI_UNIT ( $, .RADIAN. ) );
#269 = DIRECTION ( 'NONE',  ( -3.498990854706726443E-17, 1.000000000000000000, -0.000000000000000000 ) ) ;
#270 = CARTESIAN_POINT ( 'NONE',  ( 0.2500000000000000000, 1.250000000000000000, 3.061616997868383634E-17 ) ) ;
#271 = UNCERTAINTY_MEASURE_WITH_UNIT (LENGTH_MEASURE( 1.000000000000000082E-05 ), #302, 'distance_accuracy_value', 'NONE');
#272 = AXIS2_PLACEMENT_3D ( 'NONE', #292, #23, #168 ) ;
#273 = DIRECTION ( 'NONE',  ( -1.000000000000000000, -3.498990854706726443E-17, 0.000000000000000000 ) ) ;
#274 = ORIENTED_EDGE ( 'NONE', *, *, #43, .T. ) ;
#275 = PRESENTATION_STYLE_ASSIGNMENT (( #189 ) ) ;
#276 = ORIENTED_EDGE ( 'NONE', *, *, #250, .F. ) ;
#277 = DIRECTION ( 'NONE',  ( 1.000000000000000000, 0.000000000000000000, 0.000000000000000000 ) ) ;
#278 = CARTESIAN_POINT ( 'NONE',  ( 3.061616997868383018E-17, 0.000000000000000000, 0.2500000000000000000 ) ) ;
#279 = LENGTH_MEASURE_WITH_UNIT ( LENGTH_MEASURE( 0.02539999999999999897 ), #20 );
#280 = CIRCLE ( 'NONE', #220, 0.2500000000000000000 ) ;
#281 =( CONVERSION_BASED_UNIT ( 'INCH', #36 ) LENGTH_UNIT ( ) NAMED_UNIT ( #75 ) );
#282 = FILL_AREA_STYLE_COLOUR ( '', #196 ) ;
#283 = ADVANCED_FACE ( 'NONE', ( #223 ), #156, .T. ) ;
#284 =( NAMED_UNIT ( * ) PLANE_ANGLE_UNIT ( ) SI_UNIT ( $, .RADIAN. ) );
#285 = DIRECTION ( 'NONE',  ( -0.000000000000000000, -1.000000000000000000, -0.000000000000000000 ) ) ;
#286 = UNCERTAINTY_MEASURE_WITH_UNIT (LENGTH_MEASURE( 1.000000000000000082E-05 ), #263, 'distance_accuracy_value', 'NONE');
#287 = LINE ( 'NONE', #185, #16 ) ;
#288 = PRESENTATION_STYLE_ASSIGNMENT (( #98 ) ) ;
#289 = PRODUCT_DEFINITION_SHAPE ( 'NONE', 'NONE',  #142 ) ;
#290 =( NAMED_UNIT ( * ) PLANE_ANGLE_UNIT ( ) SI_UNIT ( $, .RADIAN. ) );
#291 = DIRECTION ( 'NONE',  ( 0.000000000000000000, 1.000000000000000000, 0.000000000000000000 ) ) ;
#292 = CARTESIAN_POINT ( 'NONE',  ( 0.000000000000000000, 0.000000000000000000, 0.000000000000000000 ) ) ;
#293 =( GEOMETRIC_REPRESENTATION_CONTEXT ( 3 ) GLOBAL_UNCERTAINTY_ASSIGNED_CONTEXT ( ( #271 ) ) GLOBAL_UNIT_ASSIGNED_CONTEXT ( ( #302, #46, #300 ) ) REPRESENTATION_CONTEXT ( 'NONE', 'WORKASPACE' ) );
#294 = FILL_AREA_STYLE_COLOUR ( '', #84 ) ;
#295 = SURFACE_SIDE_STYLE ('',( #80 ) ) ;
#296 = AXIS2_PLACEMENT_3D ( 'NONE', #205, #92, #70 ) ;
#297 = ORIENTED_EDGE ( 'NONE', *, *, #143, .F. ) ;
#298 = LENGTH_MEASURE_WITH_UNIT ( LENGTH_MEASURE( 0.02539999999999999897 ), #86 );
#299 = DIRECTION ( 'NONE',  ( 1.000000000000000000, 3.498990854706726443E-17, 0.000000000000000000 ) ) ;
#300 =( NAMED_UNIT ( * ) SI_UNIT ( $, .STERADIAN. ) SOLID_ANGLE_UNIT ( ) );
#301 = AXIS2_PLACEMENT_3D ( 'NONE', #144, #291, #77 ) ;
#302 =( CONVERSION_BASED_UNIT ( 'INCH', #165 ) LENGTH_UNIT ( ) NAMED_UNIT ( #35 ) );
#303 = SURFACE_STYLE_USAGE ( .BOTH. , #135 ) ;
#304 = FILL_AREA_STYLE_COLOUR ( '', #90 ) ;
#305 = MECHANICAL_DESIGN_GEOMETRIC_PRESENTATION_REPRESENTATION (  '', ( #212 ), #76 ) ;
#306 = FACE_OUTER_BOUND ( 'NONE', #58, .T. ) ;
#307 = SURFACE_STYLE_FILL_AREA ( #56 ) ;
#308 = DIRECTION ( 'NONE',  ( -1.000000000000000000, 0.000000000000000000, 0.000000000000000000 ) ) ;
#309 = MECHANICAL_DESIGN_GEOMETRIC_PRESENTATION_REPRESENTATION (  '', ( #187 ), #162 ) ;
ENDSEC;
END-ISO-10303-21;
