ISO-10303-21;
HEADER;
FILE_DESCRIPTION (( 'STEP AP214' ),
    '1' );
FILE_NAME ('59738.STEP',
    '2023-07-24T15:55:20',
    ( '' ),
    ( '' ),
    'SwSTEP 2.0',
    'SolidWorks 2023',
    '' );
FILE_SCHEMA (( 'AUTOMOTIVE_DESIGN' ));
ENDSEC;

DATA;
#1 = VERTEX_POINT ( 'NONE', #261 ) ;
#2 = CARTESIAN_POINT ( 'NONE',  ( 0.000000000000000000, 0.000000000000000000, -5.000000000000000000 ) ) ;
#3 = ORIENTED_EDGE ( 'NONE', *, *, #139, .F. ) ;
#4 = MECHANICAL_DESIGN_GEOMETRIC_PRESENTATION_REPRESENTATION (  '', ( #108 ), #141 ) ;
#5 = CARTESIAN_POINT ( 'NONE',  ( 0.000000000000000000, 0.000000000000000000, 0.000000000000000000 ) ) ;
#6 = ORIENTED_EDGE ( 'NONE', *, *, #235, .T. ) ;
#7 = VERTEX_POINT ( 'NONE', #49 ) ;
#8 = UNCERTAINTY_MEASURE_WITH_UNIT (LENGTH_MEASURE( 1.000000000000000082E-05 ), #181, 'distance_accuracy_value', 'NONE');
#9 = CARTESIAN_POINT ( 'NONE',  ( 0.000000000000000000, 0.000000000000000000, 0.000000000000000000 ) ) ;
#10 = DIRECTION ( 'NONE',  ( 7.404841111123529214E-17, 1.000000000000000000, -0.000000000000000000 ) ) ;
#11 = EDGE_CURVE ( 'NONE', #153, #154, #208, .T. ) ;
#12 = FACE_OUTER_BOUND ( 'NONE', #87, .T. ) ;
#13 =( LENGTH_UNIT ( ) NAMED_UNIT ( * ) SI_UNIT ( .MILLI., .METRE. ) );
#14 = AXIS2_PLACEMENT_3D ( 'NONE', #5, #84, #151 ) ;
#15 =( GEOMETRIC_REPRESENTATION_CONTEXT ( 3 ) GLOBAL_UNCERTAINTY_ASSIGNED_CONTEXT ( ( #8 ) ) GLOBAL_UNIT_ASSIGNED_CONTEXT ( ( #181, #251, #275 ) ) REPRESENTATION_CONTEXT ( 'NONE', 'WORKASPACE' ) );
#16 = APPLICATION_PROTOCOL_DEFINITION ( 'draft international standard', 'automotive_design', 1998, #64 ) ;
#17 =( NAMED_UNIT ( * ) SI_UNIT ( $, .STERADIAN. ) SOLID_ANGLE_UNIT ( ) );
#18 = CARTESIAN_POINT ( 'NONE',  ( 0.000000000000000000, 0.000000000000000000, -5.000000000000000000 ) ) ;
#19 = ORIENTED_EDGE ( 'NONE', *, *, #54, .F. ) ;
#20 = CYLINDRICAL_SURFACE ( 'NONE', #133, 5.000000000000000000 ) ;
#21 = SURFACE_STYLE_FILL_AREA ( #179 ) ;
#22 = AXIS2_PLACEMENT_3D ( 'NONE', #169, #256, #45 ) ;
#23 = ORIENTED_EDGE ( 'NONE', *, *, #249, .T. ) ;
#24 = DIRECTION ( 'NONE',  ( -7.404841111123529214E-17, -1.000000000000000000, 0.000000000000000000 ) ) ;
#25 = PRODUCT ( '59738', '59738', '', ( #267 ) ) ;
#26 = VERTEX_POINT ( 'NONE', #163 ) ;
#27 = DIRECTION ( 'NONE',  ( -1.000000000000000000, 0.000000000000000000, 0.000000000000000000 ) ) ;
#28 = PLANE ( 'NONE',  #191 ) ;
#29 = DIRECTION ( 'NONE',  ( 0.000000000000000000, -0.000000000000000000, 1.000000000000000000 ) ) ;
#30 =( NAMED_UNIT ( * ) PLANE_ANGLE_UNIT ( ) SI_UNIT ( $, .RADIAN. ) );
#31 = ORIENTED_EDGE ( 'NONE', *, *, #207, .F. ) ;
#32 = DIRECTION ( 'NONE',  ( 7.404841111123529214E-17, 1.000000000000000000, -0.000000000000000000 ) ) ;
#33 = MECHANICAL_DESIGN_GEOMETRIC_PRESENTATION_REPRESENTATION (  '', ( #112 ), #157 ) ;
#34 =( LENGTH_UNIT ( ) NAMED_UNIT ( * ) SI_UNIT ( .MILLI., .METRE. ) );
#35 = PLANE ( 'NONE',  #244 ) ;
#36 = AXIS2_PLACEMENT_3D ( 'NONE', #239, #110, #67 ) ;
#37 = FILL_AREA_STYLE_COLOUR ( '', #274 ) ;
#38 = SURFACE_STYLE_FILL_AREA ( #268 ) ;
#39 = CIRCLE ( 'NONE', #224, 5.000000000000000000 ) ;
#40 = DIRECTION ( 'NONE',  ( -0.000000000000000000, -1.000000000000000000, -0.000000000000000000 ) ) ;
#41 = ORIENTED_EDGE ( 'NONE', *, *, #277, .T. ) ;
#42 = VERTEX_POINT ( 'NONE', #263 ) ;
#43 =( NAMED_UNIT ( * ) SI_UNIT ( $, .STERADIAN. ) SOLID_ANGLE_UNIT ( ) );
#44 = AXIS2_PLACEMENT_3D ( 'NONE', #178, #130, #132 ) ;
#45 = DIRECTION ( 'NONE',  ( 0.000000000000000000, 0.000000000000000000, -1.000000000000000000 ) ) ;
#46 = ORIENTED_EDGE ( 'NONE', *, *, #11, .T. ) ;
#47 = SURFACE_STYLE_USAGE ( .BOTH. , #107 ) ;
#48 = AXIS2_PLACEMENT_3D ( 'NONE', #183, #32, #165 ) ;
#49 = CARTESIAN_POINT ( 'NONE',  ( 0.000000000000000000, 20.00000000000000000, -5.000000000000000000 ) ) ;
#50 = PRESENTATION_LAYER_ASSIGNMENT (  '', '', ( #238 ) ) ;
#51 = FACE_OUTER_BOUND ( 'NONE', #76, .T. ) ;
#52 =( LENGTH_UNIT ( ) NAMED_UNIT ( * ) SI_UNIT ( .MILLI., .METRE. ) );
#53 = CIRCLE ( 'NONE', #91, 5.000000000000000000 ) ;
#54 = EDGE_CURVE ( 'NONE', #250, #42, #39, .T. ) ;
#55 = SURFACE_SIDE_STYLE ('',( #21 ) ) ;
#56 = CARTESIAN_POINT ( 'NONE',  ( 0.000000000000000000, 0.000000000000000000, 0.000000000000000000 ) ) ;
#57 = FILL_AREA_STYLE ('',( #37 ) ) ;
#58 = VECTOR ( 'NONE', #282, 1000.000000000000000 ) ;
#59 = ORIENTED_EDGE ( 'NONE', *, *, #11, .F. ) ;
#60 = EDGE_LOOP ( 'NONE', ( #160, #200, #152, #228 ) ) ;
#61 =( NAMED_UNIT ( * ) PLANE_ANGLE_UNIT ( ) SI_UNIT ( $, .RADIAN. ) );
#62 = VERTEX_POINT ( 'NONE', #237 ) ;
#63 = CARTESIAN_POINT ( 'NONE',  ( 3.184081677783117402E-15, 63.00000000000000000, 0.000000000000000000 ) ) ;
#64 = APPLICATION_CONTEXT ( 'automotive_design' ) ;
#65 = MECHANICAL_DESIGN_GEOMETRIC_PRESENTATION_REPRESENTATION (  '', ( #238 ), #93 ) ;
#66 = EDGE_LOOP ( 'NONE', ( #23, #134, #19, #272 ) ) ;
#67 = DIRECTION ( 'NONE',  ( -1.000000000000000000, 0.000000000000000000, 0.000000000000000000 ) ) ;
#68 = PRESENTATION_STYLE_ASSIGNMENT (( #159 ) ) ;
#69 = ORIENTED_EDGE ( 'NONE', *, *, #288, .F. ) ;
#70 = FILL_AREA_STYLE_COLOUR ( '', #103 ) ;
#71 = VECTOR ( 'NONE', #211, 1000.000000000000000 ) ;
#72 = PRESENTATION_STYLE_ASSIGNMENT (( #219 ) ) ;
#73 =( GEOMETRIC_REPRESENTATION_CONTEXT ( 3 ) GLOBAL_UNCERTAINTY_ASSIGNED_CONTEXT ( ( #255 ) ) GLOBAL_UNIT_ASSIGNED_CONTEXT ( ( #121, #96, #17 ) ) REPRESENTATION_CONTEXT ( 'NONE', 'WORKASPACE' ) );
#74 = PRESENTATION_STYLE_ASSIGNMENT (( #145 ) ) ;
#75 = PLANE ( 'NONE',  #225 ) ;
#76 = EDGE_LOOP ( 'NONE', ( #69, #41, #197, #59 ) ) ;
#77 = FACE_OUTER_BOUND ( 'NONE', #278, .T. ) ;
#78 =( NAMED_UNIT ( * ) PLANE_ANGLE_UNIT ( ) SI_UNIT ( $, .RADIAN. ) );
#79 = AXIS2_PLACEMENT_3D ( 'NONE', #215, #246, #104 ) ;
#80 = ORIENTED_EDGE ( 'NONE', *, *, #221, .T. ) ;
#81 = VECTOR ( 'NONE', #142, 1000.000000000000000 ) ;
#82 = FACE_OUTER_BOUND ( 'NONE', #60, .T. ) ;
#83 = DIRECTION ( 'NONE',  ( -1.000000000000000000, 7.404841111123529214E-17, 0.000000000000000000 ) ) ;
#84 = DIRECTION ( 'NONE',  ( -0.000000000000000000, -1.000000000000000000, -0.000000000000000000 ) ) ;
#85 = ORIENTED_EDGE ( 'NONE', *, *, #277, .F. ) ;
#86 =( LENGTH_UNIT ( ) NAMED_UNIT ( * ) SI_UNIT ( .MILLI., .METRE. ) );
#87 = EDGE_LOOP ( 'NONE', ( #173, #46 ) ) ;
#88 = MECHANICAL_DESIGN_GEOMETRIC_PRESENTATION_REPRESENTATION (  '', ( #126 ), #214 ) ;
#89 = DIRECTION ( 'NONE',  ( 0.000000000000000000, 0.000000000000000000, -1.000000000000000000 ) ) ;
#90 = CARTESIAN_POINT ( 'NONE',  ( 5.000000000000000000, 63.00000000000000000, 0.000000000000000000 ) ) ;
#91 = AXIS2_PLACEMENT_3D ( 'NONE', #269, #123, #144 ) ;
#92 = ORIENTED_EDGE ( 'NONE', *, *, #249, .F. ) ;
#93 =( GEOMETRIC_REPRESENTATION_CONTEXT ( 3 ) GLOBAL_UNCERTAINTY_ASSIGNED_CONTEXT ( ( #231 ) ) GLOBAL_UNIT_ASSIGNED_CONTEXT ( ( #194, #248, #149 ) ) REPRESENTATION_CONTEXT ( 'NONE', 'WORKASPACE' ) );
#94 = AXIS2_PLACEMENT_3D ( 'NONE', #56, #193, #241 ) ;
#95 = FILL_AREA_STYLE_COLOUR ( '', #286 ) ;
#96 =( NAMED_UNIT ( * ) PLANE_ANGLE_UNIT ( ) SI_UNIT ( $, .RADIAN. ) );
#97 = PRESENTATION_LAYER_ASSIGNMENT (  '', '', ( #108 ) ) ;
#98 = EDGE_CURVE ( 'NONE', #62, #42, #264, .T. ) ;
#99 = EDGE_LOOP ( 'NONE', ( #167, #6 ) ) ;
#100 = FACE_OUTER_BOUND ( 'NONE', #131, .T. ) ;
#101 = ORIENTED_EDGE ( 'NONE', *, *, #221, .F. ) ;
#102 = SURFACE_STYLE_USAGE ( .BOTH. , #176 ) ;
#103 = COLOUR_RGB ( '',1.000000000000000000, 0.000000000000000000, 0.000000000000000000 ) ;
#104 = DIRECTION ( 'NONE',  ( 0.000000000000000000, 0.000000000000000000, -1.000000000000000000 ) ) ;
#105 = ADVANCED_FACE ( 'NONE', ( #240 ), #35, .F. ) ;
#106 = APPLICATION_CONTEXT ( 'automotive_design' ) ;
#107 = SURFACE_SIDE_STYLE ('',( #212 ) ) ;
#108 = STYLED_ITEM ( 'NONE', ( #220 ), #147 ) ;
#109 = UNCERTAINTY_MEASURE_WITH_UNIT (LENGTH_MEASURE( 1.000000000000000082E-05 ), #86, 'distance_accuracy_value', 'NONE');
#110 = DIRECTION ( 'NONE',  ( 7.404841111123529214E-17, 1.000000000000000000, -0.000000000000000000 ) ) ;
#111 = DIRECTION ( 'NONE',  ( 7.404841111123529214E-17, 1.000000000000000000, -0.000000000000000000 ) ) ;
#112 = STYLED_ITEM ( 'NONE', ( #72 ), #270 ) ;
#113 = MECHANICAL_DESIGN_GEOMETRIC_PRESENTATION_REPRESENTATION (  '', ( #253 ), #73 ) ;
#114 = CIRCLE ( 'NONE', #44, 5.000000000000000000 ) ;
#115 = SURFACE_STYLE_FILL_AREA ( #192 ) ;
#116 = DIRECTION ( 'NONE',  ( 1.000000000000000000, -7.404841111123529214E-17, 0.000000000000000000 ) ) ;
#117 = DIRECTION ( 'NONE',  ( 7.404841111123529214E-17, 1.000000000000000000, -0.000000000000000000 ) ) ;
#118 = PRESENTATION_LAYER_ASSIGNMENT (  '', '', ( #253 ) ) ;
#119 = PRESENTATION_STYLE_ASSIGNMENT (( #284 ) ) ;
#120 = APPLICATION_PROTOCOL_DEFINITION ( 'draft international standard', 'automotive_design', 1998, #106 ) ;
#121 =( LENGTH_UNIT ( ) NAMED_UNIT ( * ) SI_UNIT ( .MILLI., .METRE. ) );
#122 = CARTESIAN_POINT ( 'NONE',  ( 6.123233995736766282E-16, 0.000000000000000000, 5.000000000000000000 ) ) ;
#123 = DIRECTION ( 'NONE',  ( -0.000000000000000000, -1.000000000000000000, -0.000000000000000000 ) ) ;
#124 = CARTESIAN_POINT ( 'NONE',  ( 0.000000000000000000, 0.000000000000000000, 0.000000000000000000 ) ) ;
#125 = CLOSED_SHELL ( 'NONE', ( #281, #105, #195, #201 ) ) ;
#126 = STYLED_ITEM ( 'NONE', ( #68 ), #230 ) ;
#127 = AXIS2_PLACEMENT_3D ( 'NONE', #186, #168, #262 ) ;
#128 = SURFACE_SIDE_STYLE ('',( #38 ) ) ;
#129 = MANIFOLD_SOLID_BREP ( 'Revolve - Cutting Edge', #209 ) ;
#130 = DIRECTION ( 'NONE',  ( 7.404841111123529214E-17, 1.000000000000000000, -0.000000000000000000 ) ) ;
#131 = EDGE_LOOP ( 'NONE', ( #80, #257, #175, #31 ) ) ;
#132 = DIRECTION ( 'NONE',  ( -1.000000000000000000, 0.000000000000000000, 0.000000000000000000 ) ) ;
#133 = AXIS2_PLACEMENT_3D ( 'NONE', #124, #40, #172 ) ;
#134 = ORIENTED_EDGE ( 'NONE', *, *, #98, .T. ) ;
#135 = UNCERTAINTY_MEASURE_WITH_UNIT (LENGTH_MEASURE( 1.000000000000000082E-05 ), #13, 'distance_accuracy_value', 'NONE');
#136 = PRESENTATION_LAYER_ASSIGNMENT (  '', '', ( #252 ) ) ;
#137 = FILL_AREA_STYLE_COLOUR ( '', #233 ) ;
#138 = CARTESIAN_POINT ( 'NONE',  ( 0.000000000000000000, 0.000000000000000000, 0.000000000000000000 ) ) ;
#139 = EDGE_CURVE ( 'NONE', #62, #7, #242, .T. ) ;
#140 = PRODUCT_DEFINITION_SHAPE ( 'NONE', 'NONE',  #245 ) ;
#141 =( GEOMETRIC_REPRESENTATION_CONTEXT ( 3 ) GLOBAL_UNCERTAINTY_ASSIGNED_CONTEXT ( ( #109 ) ) GLOBAL_UNIT_ASSIGNED_CONTEXT ( ( #86, #61, #273 ) ) REPRESENTATION_CONTEXT ( 'NONE', 'WORKASPACE' ) );
#142 = DIRECTION ( 'NONE',  ( 7.404841111123529214E-17, 1.000000000000000000, -0.000000000000000000 ) ) ;
#143 = CIRCLE ( 'NONE', #22, 5.000000000000000000 ) ;
#144 = DIRECTION ( 'NONE',  ( 0.000000000000000000, 0.000000000000000000, -1.000000000000000000 ) ) ;
#145 = SURFACE_STYLE_USAGE ( .BOTH. , #55 ) ;
#146 = SHAPE_DEFINITION_REPRESENTATION ( #140, #166 ) ;
#147 = ADVANCED_FACE ( 'NONE', ( #82 ), #20, .T. ) ;
#148 = FACE_OUTER_BOUND ( 'NONE', #66, .T. ) ;
#149 =( NAMED_UNIT ( * ) SI_UNIT ( $, .STERADIAN. ) SOLID_ANGLE_UNIT ( ) );
#150 = MECHANICAL_DESIGN_GEOMETRIC_PRESENTATION_REPRESENTATION (  '', ( #252 ), #15 ) ;
#151 = DIRECTION ( 'NONE',  ( 0.000000000000000000, 0.000000000000000000, -1.000000000000000000 ) ) ;
#152 = ORIENTED_EDGE ( 'NONE', *, *, #161, .T. ) ;
#153 = VERTEX_POINT ( 'NONE', #287 ) ;
#154 = VERTEX_POINT ( 'NONE', #199 ) ;
#155 =( NAMED_UNIT ( * ) PLANE_ANGLE_UNIT ( ) SI_UNIT ( $, .RADIAN. ) );
#156 = PRESENTATION_LAYER_ASSIGNMENT (  '', '', ( #112 ) ) ;
#157 =( GEOMETRIC_REPRESENTATION_CONTEXT ( 3 ) GLOBAL_UNCERTAINTY_ASSIGNED_CONTEXT ( ( #180 ) ) GLOBAL_UNIT_ASSIGNED_CONTEXT ( ( #52, #78, #247 ) ) REPRESENTATION_CONTEXT ( 'NONE', 'WORKASPACE' ) );
#158 = PRODUCT_DEFINITION_FORMATION_WITH_SPECIFIED_SOURCE ( 'ANY', '', #25, .NOT_KNOWN. ) ;
#159 = SURFACE_STYLE_USAGE ( .BOTH. , #232 ) ;
#160 = ORIENTED_EDGE ( 'NONE', *, *, #98, .F. ) ;
#161 = EDGE_CURVE ( 'NONE', #7, #250, #198, .T. ) ;
#162 = LINE ( 'NONE', #205, #81 ) ;
#163 = CARTESIAN_POINT ( 'NONE',  ( 5.000000000000000000, 20.00000000000000355, 6.123233995736765296E-16 ) ) ;
#164 = CIRCLE ( 'NONE', #36, 5.000000000000000000 ) ;
#165 = DIRECTION ( 'NONE',  ( -1.000000000000000000, 0.000000000000000000, 0.000000000000000000 ) ) ;
#166 = ADVANCED_BREP_SHAPE_REPRESENTATION ( '59738', ( #129, #230, #94 ), #196 ) ;
#167 = ORIENTED_EDGE ( 'NONE', *, *, #54, .T. ) ;
#168 = DIRECTION ( 'NONE',  ( 7.404841111123529214E-17, 1.000000000000000000, -0.000000000000000000 ) ) ;
#169 = CARTESIAN_POINT ( 'NONE',  ( 0.000000000000000000, 0.000000000000000000, 0.000000000000000000 ) ) ;
#170 = PRODUCT_RELATED_PRODUCT_CATEGORY ( 'part', '', ( #25 ) ) ;
#171 = AXIS2_PLACEMENT_3D ( 'NONE', #182, #111, #206 ) ;
#172 = DIRECTION ( 'NONE',  ( 0.000000000000000000, 0.000000000000000000, -1.000000000000000000 ) ) ;
#173 = ORIENTED_EDGE ( 'NONE', *, *, #216, .T. ) ;
#174 = SURFACE_STYLE_FILL_AREA ( #57 ) ;
#175 = ORIENTED_EDGE ( 'NONE', *, *, #216, .F. ) ;
#176 = SURFACE_SIDE_STYLE ('',( #174 ) ) ;
#177 = ADVANCED_FACE ( 'NONE', ( #77 ), #75, .T. ) ;
#178 = CARTESIAN_POINT ( 'NONE',  ( 0.000000000000000000, 20.00000000000000355, 0.000000000000000000 ) ) ;
#179 = FILL_AREA_STYLE ('',( #223 ) ) ;
#180 = UNCERTAINTY_MEASURE_WITH_UNIT (LENGTH_MEASURE( 1.000000000000000082E-05 ), #52, 'distance_accuracy_value', 'NONE');
#181 =( LENGTH_UNIT ( ) NAMED_UNIT ( * ) SI_UNIT ( .MILLI., .METRE. ) );
#182 = CARTESIAN_POINT ( 'NONE',  ( 3.184081677783117402E-15, 63.00000000000000000, 0.000000000000000000 ) ) ;
#183 = CARTESIAN_POINT ( 'NONE',  ( 3.184081677783117402E-15, 63.00000000000000000, 0.000000000000000000 ) ) ;
#184 = SURFACE_STYLE_FILL_AREA ( #266 ) ;
#185 = AXIS2_PLACEMENT_3D ( 'NONE', #9, #258, #89 ) ;
#186 = CARTESIAN_POINT ( 'NONE',  ( 3.184081677783117402E-15, 63.00000000000000000, 0.000000000000000000 ) ) ;
#187 = CARTESIAN_POINT ( 'NONE',  ( -4.999999999999994671, 63.00000000000000000, 0.000000000000000000 ) ) ;
#188 = PRODUCT_DEFINITION_CONTEXT ( 'detailed design', #106, 'design' ) ;
#189 = SURFACE_SIDE_STYLE ('',( #115 ) ) ;
#190 =( NAMED_UNIT ( * ) SI_UNIT ( $, .STERADIAN. ) SOLID_ANGLE_UNIT ( ) );
#191 = AXIS2_PLACEMENT_3D ( 'NONE', #90, #24, #116 ) ;
#192 = FILL_AREA_STYLE ('',( #95 ) ) ;
#193 = DIRECTION ( 'NONE',  ( 0.000000000000000000, 0.000000000000000000, 1.000000000000000000 ) ) ;
#194 =( LENGTH_UNIT ( ) NAMED_UNIT ( * ) SI_UNIT ( .MILLI., .METRE. ) );
#195 = ADVANCED_FACE ( 'NONE', ( #51 ), #234, .T. ) ;
#196 =( GEOMETRIC_REPRESENTATION_CONTEXT ( 3 ) GLOBAL_UNCERTAINTY_ASSIGNED_CONTEXT ( ( #135 ) ) GLOBAL_UNIT_ASSIGNED_CONTEXT ( ( #13, #30, #190 ) ) REPRESENTATION_CONTEXT ( 'NONE', 'WORKASPACE' ) );
#197 = ORIENTED_EDGE ( 'NONE', *, *, #207, .T. ) ;
#198 = LINE ( 'NONE', #2, #260 ) ;
#199 = CARTESIAN_POINT ( 'NONE',  ( -4.999999999999992895, 63.00000000000000000, 0.000000000000000000 ) ) ;
#200 = ORIENTED_EDGE ( 'NONE', *, *, #139, .T. ) ;
#201 = ADVANCED_FACE ( 'NONE', ( #12 ), #28, .F. ) ;
#202 = UNCERTAINTY_MEASURE_WITH_UNIT (LENGTH_MEASURE( 1.000000000000000082E-05 ), #34, 'distance_accuracy_value', 'NONE');
#203 = LINE ( 'NONE', #187, #58 ) ;
#204 = PRESENTATION_STYLE_ASSIGNMENT (( #47 ) ) ;
#205 = CARTESIAN_POINT ( 'NONE',  ( 5.000000000000001776, 63.00000000000000000, 6.123233995736764310E-16 ) ) ;
#206 = DIRECTION ( 'NONE',  ( -1.000000000000000000, 0.000000000000000000, 0.000000000000000000 ) ) ;
#207 = EDGE_CURVE ( 'NONE', #1, #154, #203, .T. ) ;
#208 = CIRCLE ( 'NONE', #48, 4.999999999999996447 ) ;
#209 = CLOSED_SHELL ( 'NONE', ( #270, #177, #147, #227 ) ) ;
#210 = COLOUR_RGB ( '',1.000000000000000000, 0.000000000000000000, 0.000000000000000000 ) ;
#211 = DIRECTION ( 'NONE',  ( -0.000000000000000000, -1.000000000000000000, -0.000000000000000000 ) ) ;
#212 = SURFACE_STYLE_FILL_AREA ( #229 ) ;
#213 = CARTESIAN_POINT ( 'NONE',  ( 1.370791797024628714E-32, 20.00000000000000000, 0.000000000000000000 ) ) ;
#214 =( GEOMETRIC_REPRESENTATION_CONTEXT ( 3 ) GLOBAL_UNCERTAINTY_ASSIGNED_CONTEXT ( ( #202 ) ) GLOBAL_UNIT_ASSIGNED_CONTEXT ( ( #34, #155, #43 ) ) REPRESENTATION_CONTEXT ( 'NONE', 'WORKASPACE' ) );
#215 = CARTESIAN_POINT ( 'NONE',  ( 0.000000000000000000, 20.00000000000000000, 0.000000000000000000 ) ) ;
#216 = EDGE_CURVE ( 'NONE', #154, #153, #283, .T. ) ;
#217 = DIRECTION ( 'NONE',  ( -0.000000000000000000, -1.000000000000000000, -0.000000000000000000 ) ) ;
#218 = PRESENTATION_LAYER_ASSIGNMENT (  '', '', ( #126 ) ) ;
#219 = SURFACE_STYLE_USAGE ( .BOTH. , #128 ) ;
#220 = PRESENTATION_STYLE_ASSIGNMENT (( #102 ) ) ;
#221 = EDGE_CURVE ( 'NONE', #1, #26, #164, .T. ) ;
#222 = DIRECTION ( 'NONE',  ( 0.000000000000000000, 1.000000000000000000, 0.000000000000000000 ) ) ;
#223 = FILL_AREA_STYLE_COLOUR ( '', #265 ) ;
#224 = AXIS2_PLACEMENT_3D ( 'NONE', #138, #236, #226 ) ;
#225 = AXIS2_PLACEMENT_3D ( 'NONE', #271, #222, #29 ) ;
#226 = DIRECTION ( 'NONE',  ( 0.000000000000000000, 0.000000000000000000, -1.000000000000000000 ) ) ;
#227 = ADVANCED_FACE ( 'NONE', ( #276 ), #259, .T. ) ;
#228 = ORIENTED_EDGE ( 'NONE', *, *, #235, .F. ) ;
#229 = FILL_AREA_STYLE ('',( #70 ) ) ;
#230 = MANIFOLD_SOLID_BREP ( 'Revolve - Tool Body (Straight Shanked)', #125 ) ;
#231 = UNCERTAINTY_MEASURE_WITH_UNIT (LENGTH_MEASURE( 1.000000000000000082E-05 ), #194, 'distance_accuracy_value', 'NONE');
#232 = SURFACE_SIDE_STYLE ('',( #184 ) ) ;
#233 = COLOUR_RGB ( '',0.7921568627450980005, 0.8196078431372548767, 0.9333333333333333481 ) ;
#234 = CYLINDRICAL_SURFACE ( 'NONE', #171, 4.999999999999998224 ) ;
#235 = EDGE_CURVE ( 'NONE', #42, #250, #143, .T. ) ;
#236 = DIRECTION ( 'NONE',  ( -0.000000000000000000, -1.000000000000000000, -0.000000000000000000 ) ) ;
#237 = CARTESIAN_POINT ( 'NONE',  ( 6.123233995736766282E-16, 20.00000000000000000, 5.000000000000000000 ) ) ;
#238 = STYLED_ITEM ( 'NONE', ( #119 ), #129 ) ;
#239 = CARTESIAN_POINT ( 'NONE',  ( 0.000000000000000000, 20.00000000000000355, 0.000000000000000000 ) ) ;
#240 = FACE_OUTER_BOUND ( 'NONE', #254, .T. ) ;
#241 = DIRECTION ( 'NONE',  ( 1.000000000000000000, 0.000000000000000000, 0.000000000000000000 ) ) ;
#242 = CIRCLE ( 'NONE', #79, 5.000000000000000000 ) ;
#243 = CYLINDRICAL_SURFACE ( 'NONE', #14, 5.000000000000000000 ) ;
#244 = AXIS2_PLACEMENT_3D ( 'NONE', #213, #117, #83 ) ;
#245 = PRODUCT_DEFINITION ( 'UNKNOWN', '', #158, #188 ) ;
#246 = DIRECTION ( 'NONE',  ( -0.000000000000000000, -1.000000000000000000, -0.000000000000000000 ) ) ;
#247 =( NAMED_UNIT ( * ) SI_UNIT ( $, .STERADIAN. ) SOLID_ANGLE_UNIT ( ) );
#248 =( NAMED_UNIT ( * ) PLANE_ANGLE_UNIT ( ) SI_UNIT ( $, .RADIAN. ) );
#249 = EDGE_CURVE ( 'NONE', #7, #62, #53, .T. ) ;
#250 = VERTEX_POINT ( 'NONE', #18 ) ;
#251 =( NAMED_UNIT ( * ) PLANE_ANGLE_UNIT ( ) SI_UNIT ( $, .RADIAN. ) );
#252 = STYLED_ITEM ( 'NONE', ( #204 ), #227 ) ;
#253 = STYLED_ITEM ( 'NONE', ( #74 ), #177 ) ;
#254 = EDGE_LOOP ( 'NONE', ( #101, #85 ) ) ;
#255 = UNCERTAINTY_MEASURE_WITH_UNIT (LENGTH_MEASURE( 1.000000000000000082E-05 ), #121, 'distance_accuracy_value', 'NONE');
#256 = DIRECTION ( 'NONE',  ( -0.000000000000000000, -1.000000000000000000, -0.000000000000000000 ) ) ;
#257 = ORIENTED_EDGE ( 'NONE', *, *, #288, .T. ) ;
#258 = DIRECTION ( 'NONE',  ( 0.000000000000000000, -1.000000000000000000, -0.000000000000000000 ) ) ;
#259 = PLANE ( 'NONE',  #185 ) ;
#260 = VECTOR ( 'NONE', #217, 1000.000000000000000 ) ;
#261 = CARTESIAN_POINT ( 'NONE',  ( -5.000000000000000000, 20.00000000000000355, 0.000000000000000000 ) ) ;
#262 = DIRECTION ( 'NONE',  ( -1.000000000000000000, 0.000000000000000000, 0.000000000000000000 ) ) ;
#263 = CARTESIAN_POINT ( 'NONE',  ( 6.123233995736766282E-16, 0.000000000000000000, 5.000000000000000000 ) ) ;
#264 = LINE ( 'NONE', #122, #71 ) ;
#265 = COLOUR_RGB ( '',1.000000000000000000, 0.000000000000000000, 0.000000000000000000 ) ;
#266 = FILL_AREA_STYLE ('',( #137 ) ) ;
#267 = PRODUCT_CONTEXT ( 'NONE', #64, 'mechanical' ) ;
#268 = FILL_AREA_STYLE ('',( #285 ) ) ;
#269 = CARTESIAN_POINT ( 'NONE',  ( 0.000000000000000000, 20.00000000000000000, 0.000000000000000000 ) ) ;
#270 = ADVANCED_FACE ( 'NONE', ( #148 ), #243, .T. ) ;
#271 = CARTESIAN_POINT ( 'NONE',  ( 0.000000000000000000, 20.00000000000000000, 0.000000000000000000 ) ) ;
#272 = ORIENTED_EDGE ( 'NONE', *, *, #161, .F. ) ;
#273 =( NAMED_UNIT ( * ) SI_UNIT ( $, .STERADIAN. ) SOLID_ANGLE_UNIT ( ) );
#274 = COLOUR_RGB ( '',1.000000000000000000, 0.000000000000000000, 0.000000000000000000 ) ;
#275 =( NAMED_UNIT ( * ) SI_UNIT ( $, .STERADIAN. ) SOLID_ANGLE_UNIT ( ) );
#276 = FACE_OUTER_BOUND ( 'NONE', #99, .T. ) ;
#277 = EDGE_CURVE ( 'NONE', #26, #1, #114, .T. ) ;
#278 = EDGE_LOOP ( 'NONE', ( #92, #3 ) ) ;
#279 = AXIS2_PLACEMENT_3D ( 'NONE', #63, #10, #27 ) ;
#280 = CYLINDRICAL_SURFACE ( 'NONE', #127, 4.999999999999998224 ) ;
#281 = ADVANCED_FACE ( 'NONE', ( #100 ), #280, .T. ) ;
#282 = DIRECTION ( 'NONE',  ( 7.404841111123529214E-17, 1.000000000000000000, -0.000000000000000000 ) ) ;
#283 = CIRCLE ( 'NONE', #279, 4.999999999999996447 ) ;
#284 = SURFACE_STYLE_USAGE ( .BOTH. , #189 ) ;
#285 = FILL_AREA_STYLE_COLOUR ( '', #210 ) ;
#286 = COLOUR_RGB ( '',0.7921568627450980005, 0.8196078431372548767, 0.9333333333333333481 ) ;
#287 = CARTESIAN_POINT ( 'NONE',  ( 5.000000000000000000, 63.00000000000000000, 6.123233995736765296E-16 ) ) ;
#288 = EDGE_CURVE ( 'NONE', #26, #153, #162, .T. ) ;
ENDSEC;
END-ISO-10303-21;
