ISO-10303-21;
HEADER;
FILE_DESCRIPTION (( 'STEP AP214' ),
    '1' );
FILE_NAME ('03405.STEP',
    '2023-06-22T15:16:25',
    ( '' ),
    ( '' ),
    'SwSTEP 2.0',
    'SolidWorks 2023',
    '' );
FILE_SCHEMA (( 'AUTOMOTIVE_DESIGN' ));
ENDSEC;

DATA;
#1 =( NAMED_UNIT ( * ) PLANE_ANGLE_UNIT ( ) SI_UNIT ( $, .RADIAN. ) );
#2 = CARTESIAN_POINT ( 'NONE',  ( 0.000000000000000000, 0.000000000000000000, -0.1875000000000000278 ) ) ;
#3 = DIRECTION ( 'NONE',  ( 1.000000000000000000, 4.898587196589412459E-17, 0.000000000000000000 ) ) ;
#4 = DIRECTION ( 'NONE',  ( -4.898587196589413075E-17, 1.000000000000000000, -0.000000000000000000 ) ) ;
#5 = PRODUCT_DEFINITION_SHAPE ( 'NONE', 'NONE',  #13 ) ;
#6 = CARTESIAN_POINT ( 'NONE',  ( 1.516480271171051896E-32, 2.500000000000000000, 0.000000000000000000 ) ) ;
#7 = DIRECTION ( 'NONE',  ( -1.000000000000000000, 0.000000000000000000, 0.000000000000000000 ) ) ;
#8 = CARTESIAN_POINT ( 'NONE',  ( 0.000000000000000000, 2.500000000000000000, -0.1875000000000000278 ) ) ;
#9 = VERTEX_POINT ( 'NONE', #74 ) ;
#10 =( CONVERSION_BASED_UNIT ( 'INCH', #126 ) LENGTH_UNIT ( ) NAMED_UNIT ( #180 ) );
#11 = CARTESIAN_POINT ( 'NONE',  ( -0.1875000000000002220, 5.000000000000000000, 0.000000000000000000 ) ) ;
#12 = ADVANCED_FACE ( 'NONE', ( #297 ), #151, .F. ) ;
#13 = PRODUCT_DEFINITION ( 'UNKNOWN', '', #190, #298 ) ;
#14 = AXIS2_PLACEMENT_3D ( 'NONE', #299, #302, #273 ) ;
#15 = PRESENTATION_LAYER_ASSIGNMENT (  '', '', ( #105 ) ) ;
#16 = AXIS2_PLACEMENT_3D ( 'NONE', #249, #129, #217 ) ;
#17 = CARTESIAN_POINT ( 'NONE',  ( 2.296212748401287726E-17, 0.000000000000000000, 0.1875000000000000278 ) ) ;
#18 = VERTEX_POINT ( 'NONE', #127 ) ;
#19 = SURFACE_SIDE_STYLE ('',( #66 ) ) ;
#20 = ADVANCED_FACE ( 'NONE', ( #191 ), #73, .F. ) ;
#21 = SURFACE_STYLE_USAGE ( .BOTH. , #19 ) ;
#22 = CLOSED_SHELL ( 'NONE', ( #68, #20, #246, #12 ) ) ;
#23 = CIRCLE ( 'NONE', #177, 0.1875000000000000278 ) ;
#24 = EDGE_LOOP ( 'NONE', ( #294, #94 ) ) ;
#25 = CARTESIAN_POINT ( 'NONE',  ( 0.000000000000000000, 0.000000000000000000, 0.000000000000000000 ) ) ;
#26 = DIMENSIONAL_EXPONENTS ( 1.000000000000000000, 0.000000000000000000, 0.000000000000000000, 0.000000000000000000, 0.000000000000000000, 0.000000000000000000, 0.000000000000000000 ) ;
#27 = ORIENTED_EDGE ( 'NONE', *, *, #280, .T. ) ;
#28 = FILL_AREA_STYLE ('',( #142 ) ) ;
#29 = EDGE_CURVE ( 'NONE', #82, #99, #236, .T. ) ;
#30 = LENGTH_MEASURE_WITH_UNIT ( LENGTH_MEASURE( 0.02539999999999999897 ), #181 );
#31 = ORIENTED_EDGE ( 'NONE', *, *, #124, .T. ) ;
#32 = MECHANICAL_DESIGN_GEOMETRIC_PRESENTATION_REPRESENTATION (  '', ( #92 ), #289 ) ;
#33 = CYLINDRICAL_SURFACE ( 'NONE', #101, 0.1875000000000000833 ) ;
#34 =( LENGTH_UNIT ( ) NAMED_UNIT ( * ) SI_UNIT ( $, .METRE. ) );
#35 = EDGE_LOOP ( 'NONE', ( #163, #137, #131, #140 ) ) ;
#36 = DIRECTION ( 'NONE',  ( 0.000000000000000000, 0.000000000000000000, -1.000000000000000000 ) ) ;
#37 =( GEOMETRIC_REPRESENTATION_CONTEXT ( 3 ) GLOBAL_UNCERTAINTY_ASSIGNED_CONTEXT ( ( #111 ) ) GLOBAL_UNIT_ASSIGNED_CONTEXT ( ( #159, #1, #116 ) ) REPRESENTATION_CONTEXT ( 'NONE', 'WORKASPACE' ) );
#38 = FACE_OUTER_BOUND ( 'NONE', #292, .T. ) ;
#39 = PRESENTATION_STYLE_ASSIGNMENT (( #196 ) ) ;
#40 = VERTEX_POINT ( 'NONE', #264 ) ;
#41 = AXIS2_PLACEMENT_3D ( 'NONE', #257, #84, #153 ) ;
#42 =( CONVERSION_BASED_UNIT ( 'INCH', #226 ) LENGTH_UNIT ( ) NAMED_UNIT ( #306 ) );
#43 = FACE_OUTER_BOUND ( 'NONE', #117, .T. ) ;
#44 = APPLICATION_PROTOCOL_DEFINITION ( 'draft international standard', 'automotive_design', 1998, #215 ) ;
#45 = VERTEX_POINT ( 'NONE', #8 ) ;
#46 = CLOSED_SHELL ( 'NONE', ( #123, #149, #170, #103 ) ) ;
#47 = DIRECTION ( 'NONE',  ( 0.000000000000000000, 1.000000000000000000, 0.000000000000000000 ) ) ;
#48 =( NAMED_UNIT ( * ) PLANE_ANGLE_UNIT ( ) SI_UNIT ( $, .RADIAN. ) );
#49 = CARTESIAN_POINT ( 'NONE',  ( -0.1875000000000002776, 5.000000000000000000, 0.000000000000000000 ) ) ;
#50 = CARTESIAN_POINT ( 'NONE',  ( 0.000000000000000000, 0.000000000000000000, 0.000000000000000000 ) ) ;
#51 = AXIS2_PLACEMENT_3D ( 'NONE', #173, #303, #60 ) ;
#52 = PRESENTATION_STYLE_ASSIGNMENT (( #197 ) ) ;
#53 = DIRECTION ( 'NONE',  ( -0.000000000000000000, -1.000000000000000000, -0.000000000000000000 ) ) ;
#54 = VERTEX_POINT ( 'NONE', #49 ) ;
#55 = DIRECTION ( 'NONE',  ( -1.000000000000000000, 0.000000000000000000, 0.000000000000000000 ) ) ;
#56 = CYLINDRICAL_SURFACE ( 'NONE', #14, 0.1875000000000000833 ) ;
#57 = COLOUR_RGB ( '',0.7921568627450980005, 0.8196078431372548767, 0.9333333333333333481 ) ;
#58 = DIRECTION ( 'NONE',  ( 0.000000000000000000, 0.000000000000000000, -1.000000000000000000 ) ) ;
#59 = SURFACE_STYLE_FILL_AREA ( #295 ) ;
#60 = DIRECTION ( 'NONE',  ( 0.000000000000000000, 0.000000000000000000, -1.000000000000000000 ) ) ;
#61 =( NAMED_UNIT ( * ) PLANE_ANGLE_UNIT ( ) SI_UNIT ( $, .RADIAN. ) );
#62 =( GEOMETRIC_REPRESENTATION_CONTEXT ( 3 ) GLOBAL_UNCERTAINTY_ASSIGNED_CONTEXT ( ( #86 ) ) GLOBAL_UNIT_ASSIGNED_CONTEXT ( ( #179, #61, #85 ) ) REPRESENTATION_CONTEXT ( 'NONE', 'WORKASPACE' ) );
#63 = PRODUCT ( '03405', '03405', '', ( #110 ) ) ;
#64 =( LENGTH_UNIT ( ) NAMED_UNIT ( * ) SI_UNIT ( $, .METRE. ) );
#65 = SHAPE_DEFINITION_REPRESENTATION ( #5, #288 ) ;
#66 = SURFACE_STYLE_FILL_AREA ( #202 ) ;
#67 = PRESENTATION_LAYER_ASSIGNMENT (  '', '', ( #296 ) ) ;
#68 = ADVANCED_FACE ( 'NONE', ( #274 ), #33, .T. ) ;
#69 = CIRCLE ( 'NONE', #144, 0.1875000000000001388 ) ;
#70 = DIMENSIONAL_EXPONENTS ( 1.000000000000000000, 0.000000000000000000, 0.000000000000000000, 0.000000000000000000, 0.000000000000000000, 0.000000000000000000, 0.000000000000000000 ) ;
#71 = EDGE_CURVE ( 'NONE', #9, #45, #175, .T. ) ;
#72 =( CONVERSION_BASED_UNIT ( 'INCH', #286 ) LENGTH_UNIT ( ) NAMED_UNIT ( #157 ) );
#73 = PLANE ( 'NONE',  #109 ) ;
#74 = CARTESIAN_POINT ( 'NONE',  ( 2.296212748401287726E-17, 2.500000000000000000, 0.1875000000000000278 ) ) ;
#75 = CARTESIAN_POINT ( 'NONE',  ( 0.000000000000000000, 2.500000000000000000, 0.000000000000000000 ) ) ;
#76 = COLOUR_RGB ( '',1.000000000000000000, 0.000000000000000000, 0.000000000000000000 ) ;
#77 = DIRECTION ( 'NONE',  ( -1.000000000000000000, -4.898587196589412459E-17, 0.000000000000000000 ) ) ;
#78 = DIRECTION ( 'NONE',  ( -0.000000000000000000, -1.000000000000000000, -0.000000000000000000 ) ) ;
#79 = DIRECTION ( 'NONE',  ( -0.000000000000000000, -1.000000000000000000, -0.000000000000000000 ) ) ;
#80 = DIRECTION ( 'NONE',  ( -4.898587196589413075E-17, 1.000000000000000000, -0.000000000000000000 ) ) ;
#81 = ORIENTED_EDGE ( 'NONE', *, *, #231, .F. ) ;
#82 = VERTEX_POINT ( 'NONE', #267 ) ;
#83 = CARTESIAN_POINT ( 'NONE',  ( 0.000000000000000000, 0.000000000000000000, 0.000000000000000000 ) ) ;
#84 = DIRECTION ( 'NONE',  ( 0.000000000000000000, -1.000000000000000000, -0.000000000000000000 ) ) ;
#85 =( NAMED_UNIT ( * ) SI_UNIT ( $, .STERADIAN. ) SOLID_ANGLE_UNIT ( ) );
#86 = UNCERTAINTY_MEASURE_WITH_UNIT (LENGTH_MEASURE( 1.000000000000000082E-05 ), #179, 'distance_accuracy_value', 'NONE');
#87 = ORIENTED_EDGE ( 'NONE', *, *, #253, .T. ) ;
#88 = PRESENTATION_LAYER_ASSIGNMENT (  '', '', ( #256 ) ) ;
#89 = DIMENSIONAL_EXPONENTS ( 1.000000000000000000, 0.000000000000000000, 0.000000000000000000, 0.000000000000000000, 0.000000000000000000, 0.000000000000000000, 0.000000000000000000 ) ;
#90 =( NAMED_UNIT ( * ) SI_UNIT ( $, .STERADIAN. ) SOLID_ANGLE_UNIT ( ) );
#91 = CARTESIAN_POINT ( 'NONE',  ( 0.000000000000000000, 2.500000000000000000, 0.000000000000000000 ) ) ;
#92 = STYLED_ITEM ( 'NONE', ( #52 ), #95 ) ;
#93 =( LENGTH_UNIT ( ) NAMED_UNIT ( * ) SI_UNIT ( $, .METRE. ) );
#94 = ORIENTED_EDGE ( 'NONE', *, *, #124, .F. ) ;
#95 = MANIFOLD_SOLID_BREP ( 'Revolve - Cutting Edge', #46 ) ;
#96 = PRESENTATION_STYLE_ASSIGNMENT (( #185 ) ) ;
#97 = CARTESIAN_POINT ( 'NONE',  ( -1.224646799147353207E-16, 5.000000000000000000, 0.000000000000000000 ) ) ;
#98 = CYLINDRICAL_SURFACE ( 'NONE', #122, 0.1875000000000000278 ) ;
#99 = VERTEX_POINT ( 'NONE', #252 ) ;
#100 =( CONVERSION_BASED_UNIT ( 'INCH', #148 ) LENGTH_UNIT ( ) NAMED_UNIT ( #204 ) );
#101 = AXIS2_PLACEMENT_3D ( 'NONE', #97, #192, #304 ) ;
#102 = DIRECTION ( 'NONE',  ( -1.000000000000000000, 0.000000000000000000, 0.000000000000000000 ) ) ;
#103 = ADVANCED_FACE ( 'NONE', ( #174 ), #250, .T. ) ;
#104 = LINE ( 'NONE', #11, #106 ) ;
#105 = STYLED_ITEM ( 'NONE', ( #243 ), #170 ) ;
#106 = VECTOR ( 'NONE', #128, 39.37007874015748143 ) ;
#107 = SURFACE_SIDE_STYLE ('',( #239 ) ) ;
#108 =( CONVERSION_BASED_UNIT ( 'INCH', #114 ) LENGTH_UNIT ( ) NAMED_UNIT ( #26 ) );
#109 = AXIS2_PLACEMENT_3D ( 'NONE', #161, #143, #77 ) ;
#110 = PRODUCT_CONTEXT ( 'NONE', #251, 'mechanical' ) ;
#111 = UNCERTAINTY_MEASURE_WITH_UNIT (LENGTH_MEASURE( 1.000000000000000082E-05 ), #159, 'distance_accuracy_value', 'NONE');
#112 = DIRECTION ( 'NONE',  ( 1.000000000000000000, 0.000000000000000000, 0.000000000000000000 ) ) ;
#113 =( NAMED_UNIT ( * ) PLANE_ANGLE_UNIT ( ) SI_UNIT ( $, .RADIAN. ) );
#114 = LENGTH_MEASURE_WITH_UNIT ( LENGTH_MEASURE( 0.02539999999999999897 ), #176 );
#115 = AXIS2_PLACEMENT_3D ( 'NONE', #293, #4, #7 ) ;
#116 =( NAMED_UNIT ( * ) SI_UNIT ( $, .STERADIAN. ) SOLID_ANGLE_UNIT ( ) );
#117 = EDGE_LOOP ( 'NONE', ( #27, #87, #186, #263 ) ) ;
#118 = DIRECTION ( 'NONE',  ( 0.000000000000000000, -0.000000000000000000, 1.000000000000000000 ) ) ;
#119 = CARTESIAN_POINT ( 'NONE',  ( 0.1874999999999999445, 5.000000000000000000, 2.296212748401288342E-17 ) ) ;
#120 = VECTOR ( 'NONE', #78, 39.37007874015748143 ) ;
#121 = EDGE_LOOP ( 'NONE', ( #211, #244, #242, #125 ) ) ;
#122 = AXIS2_PLACEMENT_3D ( 'NONE', #50, #145, #193 ) ;
#123 = ADVANCED_FACE ( 'NONE', ( #43 ), #200, .T. ) ;
#124 = EDGE_CURVE ( 'NONE', #99, #82, #308, .T. ) ;
#125 = ORIENTED_EDGE ( 'NONE', *, *, #232, .F. ) ;
#126 = LENGTH_MEASURE_WITH_UNIT ( LENGTH_MEASURE( 0.02539999999999999897 ), #146 );
#127 = CARTESIAN_POINT ( 'NONE',  ( 0.000000000000000000, 0.000000000000000000, -0.1875000000000000278 ) ) ;
#128 = DIRECTION ( 'NONE',  ( -4.898587196589412459E-17, 1.000000000000000000, -0.000000000000000000 ) ) ;
#129 = DIRECTION ( 'NONE',  ( -4.898587196589413075E-17, 1.000000000000000000, -0.000000000000000000 ) ) ;
#130 =( LENGTH_UNIT ( ) NAMED_UNIT ( * ) SI_UNIT ( $, .METRE. ) );
#131 = ORIENTED_EDGE ( 'NONE', *, *, #221, .F. ) ;
#132 = AXIS2_PLACEMENT_3D ( 'NONE', #169, #270, #220 ) ;
#133 = UNCERTAINTY_MEASURE_WITH_UNIT (LENGTH_MEASURE( 1.000000000000000082E-05 ), #72, 'distance_accuracy_value', 'NONE');
#134 = SURFACE_SIDE_STYLE ('',( #234 ) ) ;
#135 = FILL_AREA_STYLE_COLOUR ( '', #266 ) ;
#136 = SURFACE_STYLE_FILL_AREA ( #291 ) ;
#137 = ORIENTED_EDGE ( 'NONE', *, *, #141, .T. ) ;
#138 = AXIS2_PLACEMENT_3D ( 'NONE', #213, #147, #3 ) ;
#139 = DIRECTION ( 'NONE',  ( -4.898587196589412459E-17, 1.000000000000000000, -0.000000000000000000 ) ) ;
#140 = ORIENTED_EDGE ( 'NONE', *, *, #222, .F. ) ;
#141 = EDGE_CURVE ( 'NONE', #99, #238, #259, .T. ) ;
#142 = FILL_AREA_STYLE_COLOUR ( '', #283 ) ;
#143 = DIRECTION ( 'NONE',  ( -4.898587196589412459E-17, 1.000000000000000000, 0.000000000000000000 ) ) ;
#144 = AXIS2_PLACEMENT_3D ( 'NONE', #268, #80, #55 ) ;
#145 = DIRECTION ( 'NONE',  ( -0.000000000000000000, -1.000000000000000000, -0.000000000000000000 ) ) ;
#146 =( LENGTH_UNIT ( ) NAMED_UNIT ( * ) SI_UNIT ( $, .METRE. ) );
#147 = DIRECTION ( 'NONE',  ( 4.898587196589412459E-17, -1.000000000000000000, 0.000000000000000000 ) ) ;
#148 = LENGTH_MEASURE_WITH_UNIT ( LENGTH_MEASURE( 0.02539999999999999897 ), #130 );
#149 = ADVANCED_FACE ( 'NONE', ( #206 ), #209, .T. ) ;
#150 = SURFACE_SIDE_STYLE ('',( #59 ) ) ;
#151 = PLANE ( 'NONE',  #138 ) ;
#152 = COLOUR_RGB ( '',1.000000000000000000, 0.000000000000000000, 0.000000000000000000 ) ;
#153 = DIRECTION ( 'NONE',  ( 0.000000000000000000, 0.000000000000000000, -1.000000000000000000 ) ) ;
#154 =( GEOMETRIC_REPRESENTATION_CONTEXT ( 3 ) GLOBAL_UNCERTAINTY_ASSIGNED_CONTEXT ( ( #233 ) ) GLOBAL_UNIT_ASSIGNED_CONTEXT ( ( #100, #223, #248 ) ) REPRESENTATION_CONTEXT ( 'NONE', 'WORKASPACE' ) );
#155 = UNCERTAINTY_MEASURE_WITH_UNIT (LENGTH_MEASURE( 1.000000000000000082E-05 ), #10, 'distance_accuracy_value', 'NONE');
#156 =( NAMED_UNIT ( * ) PLANE_ANGLE_UNIT ( ) SI_UNIT ( $, .RADIAN. ) );
#157 = DIMENSIONAL_EXPONENTS ( 1.000000000000000000, 0.000000000000000000, 0.000000000000000000, 0.000000000000000000, 0.000000000000000000, 0.000000000000000000, 0.000000000000000000 ) ;
#158 = MECHANICAL_DESIGN_GEOMETRIC_PRESENTATION_REPRESENTATION (  '', ( #296 ), #37 ) ;
#159 =( CONVERSION_BASED_UNIT ( 'INCH', #30 ) LENGTH_UNIT ( ) NAMED_UNIT ( #89 ) );
#160 = EDGE_CURVE ( 'NONE', #45, #18, #214, .T. ) ;
#161 = CARTESIAN_POINT ( 'NONE',  ( 2.249639673992786583E-34, 2.500000000000000000, 0.000000000000000000 ) ) ;
#162 = SURFACE_STYLE_USAGE ( .BOTH. , #262 ) ;
#163 = ORIENTED_EDGE ( 'NONE', *, *, #29, .T. ) ;
#164 =( GEOMETRIC_REPRESENTATION_CONTEXT ( 3 ) GLOBAL_UNCERTAINTY_ASSIGNED_CONTEXT ( ( #255 ) ) GLOBAL_UNIT_ASSIGNED_CONTEXT ( ( #108, #156, #258 ) ) REPRESENTATION_CONTEXT ( 'NONE', 'WORKASPACE' ) );
#165 =( NAMED_UNIT ( * ) PLANE_ANGLE_UNIT ( ) SI_UNIT ( $, .RADIAN. ) );
#166 = EDGE_LOOP ( 'NONE', ( #216, #290 ) ) ;
#167 = FILL_AREA_STYLE_COLOUR ( '', #57 ) ;
#168 = AXIS2_PLACEMENT_3D ( 'NONE', #25, #309, #285 ) ;
#169 = CARTESIAN_POINT ( 'NONE',  ( 0.000000000000000000, 0.000000000000000000, 0.000000000000000000 ) ) ;
#170 = ADVANCED_FACE ( 'NONE', ( #237 ), #98, .T. ) ;
#171 = CARTESIAN_POINT ( 'NONE',  ( 0.1875000000000000278, 5.000000000000000000, 2.296212748401288650E-17 ) ) ;
#172 = DIRECTION ( 'NONE',  ( -4.898587196589413075E-17, 1.000000000000000000, -0.000000000000000000 ) ) ;
#173 = CARTESIAN_POINT ( 'NONE',  ( 0.000000000000000000, 2.500000000000000000, 0.000000000000000000 ) ) ;
#174 = FACE_OUTER_BOUND ( 'NONE', #275, .T. ) ;
#175 = CIRCLE ( 'NONE', #51, 0.1875000000000000278 ) ;
#176 =( LENGTH_UNIT ( ) NAMED_UNIT ( * ) SI_UNIT ( $, .METRE. ) );
#177 = AXIS2_PLACEMENT_3D ( 'NONE', #189, #79, #58 ) ;
#178 = ORIENTED_EDGE ( 'NONE', *, *, #232, .T. ) ;
#179 =( CONVERSION_BASED_UNIT ( 'INCH', #229 ) LENGTH_UNIT ( ) NAMED_UNIT ( #70 ) );
#180 = DIMENSIONAL_EXPONENTS ( 1.000000000000000000, 0.000000000000000000, 0.000000000000000000, 0.000000000000000000, 0.000000000000000000, 0.000000000000000000, 0.000000000000000000 ) ;
#181 =( LENGTH_UNIT ( ) NAMED_UNIT ( * ) SI_UNIT ( $, .METRE. ) );
#182 =( GEOMETRIC_REPRESENTATION_CONTEXT ( 3 ) GLOBAL_UNCERTAINTY_ASSIGNED_CONTEXT ( ( #133 ) ) GLOBAL_UNIT_ASSIGNED_CONTEXT ( ( #72, #48, #265 ) ) REPRESENTATION_CONTEXT ( 'NONE', 'WORKASPACE' ) );
#183 = ORIENTED_EDGE ( 'NONE', *, *, #231, .T. ) ;
#184 = AXIS2_PLACEMENT_3D ( 'NONE', #75, #53, #36 ) ;
#185 = SURFACE_STYLE_USAGE ( .BOTH. , #235 ) ;
#186 = ORIENTED_EDGE ( 'NONE', *, *, #269, .F. ) ;
#187 = DIRECTION ( 'NONE',  ( -0.000000000000000000, -1.000000000000000000, -0.000000000000000000 ) ) ;
#188 = FILL_AREA_STYLE ('',( #225 ) ) ;
#189 = CARTESIAN_POINT ( 'NONE',  ( 0.000000000000000000, 0.000000000000000000, 0.000000000000000000 ) ) ;
#190 = PRODUCT_DEFINITION_FORMATION_WITH_SPECIFIED_SOURCE ( 'ANY', '', #63, .NOT_KNOWN. ) ;
#191 = FACE_OUTER_BOUND ( 'NONE', #24, .T. ) ;
#192 = DIRECTION ( 'NONE',  ( -4.898587196589413075E-17, 1.000000000000000000, -0.000000000000000000 ) ) ;
#193 = DIRECTION ( 'NONE',  ( 0.000000000000000000, 0.000000000000000000, -1.000000000000000000 ) ) ;
#194 = MECHANICAL_DESIGN_GEOMETRIC_PRESENTATION_REPRESENTATION (  '', ( #300 ), #212 ) ;
#195 = PRESENTATION_LAYER_ASSIGNMENT (  '', '', ( #92 ) ) ;
#196 = SURFACE_STYLE_USAGE ( .BOTH. , #150 ) ;
#197 = SURFACE_STYLE_USAGE ( .BOTH. , #107 ) ;
#198 = DIRECTION ( 'NONE',  ( 0.000000000000000000, 0.000000000000000000, 1.000000000000000000 ) ) ;
#199 = MANIFOLD_SOLID_BREP ( 'Revolve - Tool Body (Straight Shanked)', #22 ) ;
#200 = CYLINDRICAL_SURFACE ( 'NONE', #168, 0.1875000000000000278 ) ;
#201 = MECHANICAL_DESIGN_GEOMETRIC_PRESENTATION_REPRESENTATION (  '', ( #105 ), #182 ) ;
#202 = FILL_AREA_STYLE ('',( #284 ) ) ;
#203 = COLOUR_RGB ( '',0.7921568627450980005, 0.8196078431372548767, 0.9333333333333333481 ) ;
#204 = DIMENSIONAL_EXPONENTS ( 1.000000000000000000, 0.000000000000000000, 0.000000000000000000, 0.000000000000000000, 0.000000000000000000, 0.000000000000000000, 0.000000000000000000 ) ;
#205 = ORIENTED_EDGE ( 'NONE', *, *, #141, .F. ) ;
#206 = FACE_OUTER_BOUND ( 'NONE', #166, .T. ) ;
#207 = SURFACE_STYLE_FILL_AREA ( #28 ) ;
#208 = ORIENTED_EDGE ( 'NONE', *, *, #222, .T. ) ;
#209 = PLANE ( 'NONE',  #287 ) ;
#210 = MECHANICAL_DESIGN_GEOMETRIC_PRESENTATION_REPRESENTATION (  '', ( #228 ), #164 ) ;
#211 = ORIENTED_EDGE ( 'NONE', *, *, #253, .F. ) ;
#212 =( GEOMETRIC_REPRESENTATION_CONTEXT ( 3 ) GLOBAL_UNCERTAINTY_ASSIGNED_CONTEXT ( ( #155 ) ) GLOBAL_UNIT_ASSIGNED_CONTEXT ( ( #10, #165, #245 ) ) REPRESENTATION_CONTEXT ( 'NONE', 'WORKASPACE' ) );
#213 = CARTESIAN_POINT ( 'NONE',  ( 0.1875000000000000278, 5.000000000000000000, 0.000000000000000000 ) ) ;
#214 = LINE ( 'NONE', #2, #247 ) ;
#215 = APPLICATION_CONTEXT ( 'automotive_design' ) ;
#216 = ORIENTED_EDGE ( 'NONE', *, *, #280, .F. ) ;
#217 = DIRECTION ( 'NONE',  ( -1.000000000000000000, 0.000000000000000000, 0.000000000000000000 ) ) ;
#218 = ORIENTED_EDGE ( 'NONE', *, *, #221, .T. ) ;
#219 = PRESENTATION_LAYER_ASSIGNMENT (  '', '', ( #228 ) ) ;
#220 = DIRECTION ( 'NONE',  ( 0.000000000000000000, 0.000000000000000000, -1.000000000000000000 ) ) ;
#221 = EDGE_CURVE ( 'NONE', #54, #238, #69, .T. ) ;
#222 = EDGE_CURVE ( 'NONE', #82, #54, #104, .T. ) ;
#223 =( NAMED_UNIT ( * ) PLANE_ANGLE_UNIT ( ) SI_UNIT ( $, .RADIAN. ) );
#224 = LINE ( 'NONE', #17, #120 ) ;
#225 = FILL_AREA_STYLE_COLOUR ( '', #203 ) ;
#226 = LENGTH_MEASURE_WITH_UNIT ( LENGTH_MEASURE( 0.02539999999999999897 ), #34 );
#227 = FILL_AREA_STYLE ('',( #135 ) ) ;
#228 = STYLED_ITEM ( 'NONE', ( #277 ), #103 ) ;
#229 = LENGTH_MEASURE_WITH_UNIT ( LENGTH_MEASURE( 0.02539999999999999897 ), #64 );
#230 = EDGE_LOOP ( 'NONE', ( #218, #183 ) ) ;
#231 = EDGE_CURVE ( 'NONE', #238, #54, #301, .T. ) ;
#232 = EDGE_CURVE ( 'NONE', #40, #18, #272, .T. ) ;
#233 = UNCERTAINTY_MEASURE_WITH_UNIT (LENGTH_MEASURE( 1.000000000000000082E-05 ), #100, 'distance_accuracy_value', 'NONE');
#234 = SURFACE_STYLE_FILL_AREA ( #227 ) ;
#235 = SURFACE_SIDE_STYLE ('',( #136 ) ) ;
#236 = CIRCLE ( 'NONE', #271, 0.1875000000000000278 ) ;
#237 = FACE_OUTER_BOUND ( 'NONE', #121, .T. ) ;
#238 = VERTEX_POINT ( 'NONE', #171 ) ;
#239 = SURFACE_STYLE_FILL_AREA ( #188 ) ;
#240 = AXIS2_PLACEMENT_3D ( 'NONE', #83, #198, #112 ) ;
#241 = VECTOR ( 'NONE', #139, 39.37007874015748143 ) ;
#242 = ORIENTED_EDGE ( 'NONE', *, *, #160, .T. ) ;
#243 = PRESENTATION_STYLE_ASSIGNMENT (( #162 ) ) ;
#244 = ORIENTED_EDGE ( 'NONE', *, *, #71, .T. ) ;
#245 =( NAMED_UNIT ( * ) SI_UNIT ( $, .STERADIAN. ) SOLID_ANGLE_UNIT ( ) );
#246 = ADVANCED_FACE ( 'NONE', ( #38 ), #56, .T. ) ;
#247 = VECTOR ( 'NONE', #187, 39.37007874015748143 ) ;
#248 =( NAMED_UNIT ( * ) SI_UNIT ( $, .STERADIAN. ) SOLID_ANGLE_UNIT ( ) );
#249 = CARTESIAN_POINT ( 'NONE',  ( -1.224646799147353207E-16, 5.000000000000000000, 0.000000000000000000 ) ) ;
#250 = PLANE ( 'NONE',  #41 ) ;
#251 = APPLICATION_CONTEXT ( 'automotive_design' ) ;
#252 = CARTESIAN_POINT ( 'NONE',  ( 0.1875000000000000278, 2.500000000000000000, 2.296212748401288650E-17 ) ) ;
#253 = EDGE_CURVE ( 'NONE', #9, #40, #224, .T. ) ;
#254 = CIRCLE ( 'NONE', #184, 0.1875000000000000278 ) ;
#255 = UNCERTAINTY_MEASURE_WITH_UNIT (LENGTH_MEASURE( 1.000000000000000082E-05 ), #108, 'distance_accuracy_value', 'NONE');
#256 = STYLED_ITEM ( 'NONE', ( #278 ), #123 ) ;
#257 = CARTESIAN_POINT ( 'NONE',  ( 0.000000000000000000, 0.000000000000000000, 0.000000000000000000 ) ) ;
#258 =( NAMED_UNIT ( * ) SI_UNIT ( $, .STERADIAN. ) SOLID_ANGLE_UNIT ( ) );
#259 = LINE ( 'NONE', #119, #241 ) ;
#260 = FILL_AREA_STYLE_COLOUR ( '', #76 ) ;
#261 = MECHANICAL_DESIGN_GEOMETRIC_PRESENTATION_REPRESENTATION (  '', ( #256 ), #62 ) ;
#262 = SURFACE_SIDE_STYLE ('',( #207 ) ) ;
#263 = ORIENTED_EDGE ( 'NONE', *, *, #160, .F. ) ;
#264 = CARTESIAN_POINT ( 'NONE',  ( 2.296212748401287726E-17, 0.000000000000000000, 0.1875000000000000278 ) ) ;
#265 =( NAMED_UNIT ( * ) SI_UNIT ( $, .STERADIAN. ) SOLID_ANGLE_UNIT ( ) );
#266 = COLOUR_RGB ( '',1.000000000000000000, 0.000000000000000000, 0.000000000000000000 ) ;
#267 = CARTESIAN_POINT ( 'NONE',  ( -0.1875000000000000278, 2.500000000000000000, 0.000000000000000000 ) ) ;
#268 = CARTESIAN_POINT ( 'NONE',  ( -1.224646799147353207E-16, 5.000000000000000000, 0.000000000000000000 ) ) ;
#269 = EDGE_CURVE ( 'NONE', #18, #40, #23, .T. ) ;
#270 = DIRECTION ( 'NONE',  ( -0.000000000000000000, -1.000000000000000000, -0.000000000000000000 ) ) ;
#271 = AXIS2_PLACEMENT_3D ( 'NONE', #6, #172, #102 ) ;
#272 = CIRCLE ( 'NONE', #132, 0.1875000000000000278 ) ;
#273 = DIRECTION ( 'NONE',  ( -1.000000000000000000, 0.000000000000000000, 0.000000000000000000 ) ) ;
#274 = FACE_OUTER_BOUND ( 'NONE', #35, .T. ) ;
#275 = EDGE_LOOP ( 'NONE', ( #307, #178 ) ) ;
#276 = APPLICATION_PROTOCOL_DEFINITION ( 'draft international standard', 'automotive_design', 1998, #251 ) ;
#277 = PRESENTATION_STYLE_ASSIGNMENT (( #21 ) ) ;
#278 = PRESENTATION_STYLE_ASSIGNMENT (( #305 ) ) ;
#279 = PRODUCT_RELATED_PRODUCT_CATEGORY ( 'part', '', ( #63 ) ) ;
#280 = EDGE_CURVE ( 'NONE', #45, #9, #254, .T. ) ;
#281 = PRESENTATION_LAYER_ASSIGNMENT (  '', '', ( #300 ) ) ;
#282 = UNCERTAINTY_MEASURE_WITH_UNIT (LENGTH_MEASURE( 1.000000000000000082E-05 ), #42, 'distance_accuracy_value', 'NONE');
#283 = COLOUR_RGB ( '',1.000000000000000000, 0.000000000000000000, 0.000000000000000000 ) ;
#284 = FILL_AREA_STYLE_COLOUR ( '', #152 ) ;
#285 = DIRECTION ( 'NONE',  ( 0.000000000000000000, 0.000000000000000000, -1.000000000000000000 ) ) ;
#286 = LENGTH_MEASURE_WITH_UNIT ( LENGTH_MEASURE( 0.02539999999999999897 ), #93 );
#287 = AXIS2_PLACEMENT_3D ( 'NONE', #91, #47, #118 ) ;
#288 = ADVANCED_BREP_SHAPE_REPRESENTATION ( '03405', ( #95, #199, #240 ), #154 ) ;
#289 =( GEOMETRIC_REPRESENTATION_CONTEXT ( 3 ) GLOBAL_UNCERTAINTY_ASSIGNED_CONTEXT ( ( #282 ) ) GLOBAL_UNIT_ASSIGNED_CONTEXT ( ( #42, #113, #90 ) ) REPRESENTATION_CONTEXT ( 'NONE', 'WORKASPACE' ) );
#290 = ORIENTED_EDGE ( 'NONE', *, *, #71, .F. ) ;
#291 = FILL_AREA_STYLE ('',( #260 ) ) ;
#292 = EDGE_LOOP ( 'NONE', ( #205, #31, #208, #81 ) ) ;
#293 = CARTESIAN_POINT ( 'NONE',  ( 1.516480271171051896E-32, 2.500000000000000000, 0.000000000000000000 ) ) ;
#294 = ORIENTED_EDGE ( 'NONE', *, *, #29, .F. ) ;
#295 = FILL_AREA_STYLE ('',( #167 ) ) ;
#296 = STYLED_ITEM ( 'NONE', ( #96 ), #149 ) ;
#297 = FACE_OUTER_BOUND ( 'NONE', #230, .T. ) ;
#298 = PRODUCT_DEFINITION_CONTEXT ( 'detailed design', #215, 'design' ) ;
#299 = CARTESIAN_POINT ( 'NONE',  ( -1.224646799147353207E-16, 5.000000000000000000, 0.000000000000000000 ) ) ;
#300 = STYLED_ITEM ( 'NONE', ( #39 ), #199 ) ;
#301 = CIRCLE ( 'NONE', #16, 0.1875000000000001388 ) ;
#302 = DIRECTION ( 'NONE',  ( -4.898587196589413075E-17, 1.000000000000000000, -0.000000000000000000 ) ) ;
#303 = DIRECTION ( 'NONE',  ( -0.000000000000000000, -1.000000000000000000, -0.000000000000000000 ) ) ;
#304 = DIRECTION ( 'NONE',  ( -1.000000000000000000, 0.000000000000000000, 0.000000000000000000 ) ) ;
#305 = SURFACE_STYLE_USAGE ( .BOTH. , #134 ) ;
#306 = DIMENSIONAL_EXPONENTS ( 1.000000000000000000, 0.000000000000000000, 0.000000000000000000, 0.000000000000000000, 0.000000000000000000, 0.000000000000000000, 0.000000000000000000 ) ;
#307 = ORIENTED_EDGE ( 'NONE', *, *, #269, .T. ) ;
#308 = CIRCLE ( 'NONE', #115, 0.1875000000000000278 ) ;
#309 = DIRECTION ( 'NONE',  ( -0.000000000000000000, -1.000000000000000000, -0.000000000000000000 ) ) ;
ENDSEC;
END-ISO-10303-21;
