ISO-10303-21;
HEADER;
FILE_DESCRIPTION (( 'STEP AP214' ),
    '1' );
FILE_NAME ('49435.STEP',
    '2023-06-30T22:03:30',
    ( '' ),
    ( '' ),
    'SwSTEP 2.0',
    'SolidWorks 2023',
    '' );
FILE_SCHEMA (( 'AUTOMOTIVE_DESIGN' ));
ENDSEC;

DATA;
#1 =( CONVERSION_BASED_UNIT ( 'INCH', #132 ) LENGTH_UNIT ( ) NAMED_UNIT ( #307 ) );
#2 = ORIENTED_EDGE ( 'NONE', *, *, #361, .F. ) ;
#3 = SURFACE_SIDE_STYLE ('',( #353 ) ) ;
#4 = CLOSED_SHELL ( 'NONE', ( #368, #276, #305, #234 ) ) ;
#5 =( LENGTH_UNIT ( ) NAMED_UNIT ( * ) SI_UNIT ( $, .METRE. ) );
#6 = ORIENTED_EDGE ( 'NONE', *, *, #361, .T. ) ;
#7 = SURFACE_STYLE_FILL_AREA ( #142 ) ;
#8 = VERTEX_POINT ( 'NONE', #192 ) ;
#9 = PRESENTATION_STYLE_ASSIGNMENT (( #40 ) ) ;
#10 = AXIS2_PLACEMENT_3D ( 'NONE', #295, #326, #21 ) ;
#11 = SURFACE_STYLE_USAGE ( .BOTH. , #265 ) ;
#12 = VERTEX_POINT ( 'NONE', #256 ) ;
#13 = CARTESIAN_POINT ( 'NONE',  ( 0.000000000000000000, 0.5000000000000000000, 0.000000000000000000 ) ) ;
#14 = LENGTH_MEASURE_WITH_UNIT ( LENGTH_MEASURE( 0.02539999999999999897 ), #20 );
#15 = PRODUCT_DEFINITION ( 'UNKNOWN', '', #46, #81 ) ;
#16 = PRESENTATION_LAYER_ASSIGNMENT (  '', '', ( #235 ) ) ;
#17 = PRESENTATION_LAYER_ASSIGNMENT (  '', '', ( #125 ) ) ;
#18 = DIMENSIONAL_EXPONENTS ( 1.000000000000000000, 0.000000000000000000, 0.000000000000000000, 0.000000000000000000, 0.000000000000000000, 0.000000000000000000, 0.000000000000000000 ) ;
#19 = FILL_AREA_STYLE_COLOUR ( '', #31 ) ;
#20 =( LENGTH_UNIT ( ) NAMED_UNIT ( * ) SI_UNIT ( $, .METRE. ) );
#21 = DIRECTION ( 'NONE',  ( -1.000000000000000000, 0.000000000000000000, 0.000000000000000000 ) ) ;
#22 =( CONVERSION_BASED_UNIT ( 'INCH', #168 ) LENGTH_UNIT ( ) NAMED_UNIT ( #72 ) );
#23 = VERTEX_POINT ( 'NONE', #283 ) ;
#24 = STYLED_ITEM ( 'NONE', ( #140 ), #237 ) ;
#25 = FACE_OUTER_BOUND ( 'NONE', #337, .T. ) ;
#26 = ADVANCED_FACE ( 'NONE', ( #29 ), #279, .T. ) ;
#27 = CARTESIAN_POINT ( 'NONE',  ( 1.224646799147353207E-16, 4.000000000000000000, 0.000000000000000000 ) ) ;
#28 = ORIENTED_EDGE ( 'NONE', *, *, #49, .F. ) ;
#29 = FACE_OUTER_BOUND ( 'NONE', #38, .T. ) ;
#30 =( LENGTH_UNIT ( ) NAMED_UNIT ( * ) SI_UNIT ( $, .METRE. ) );
#31 = COLOUR_RGB ( '',1.000000000000000000, 0.000000000000000000, 0.000000000000000000 ) ;
#32 = CIRCLE ( 'NONE', #311, 0.5000000000000000000 ) ;
#33 = DIRECTION ( 'NONE',  ( 1.000000000000000000, 0.000000000000000000, -1.224646799147353207E-16 ) ) ;
#34 = ORIENTED_EDGE ( 'NONE', *, *, #171, .F. ) ;
#35 = DIRECTION ( 'NONE',  ( 0.000000000000000000, 0.000000000000000000, -1.000000000000000000 ) ) ;
#36 = VECTOR ( 'NONE', #73, 39.37007874015748143 ) ;
#37 =( LENGTH_UNIT ( ) NAMED_UNIT ( * ) SI_UNIT ( $, .METRE. ) );
#38 = EDGE_LOOP ( 'NONE', ( #177, #334, #2, #175, #263 ) ) ;
#39 = UNCERTAINTY_MEASURE_WITH_UNIT (LENGTH_MEASURE( 1.000000000000000082E-05 ), #150, 'distance_accuracy_value', 'NONE');
#40 = SURFACE_STYLE_USAGE ( .BOTH. , #149 ) ;
#41 = STYLED_ITEM ( 'NONE', ( #357 ), #201 ) ;
#42 = CARTESIAN_POINT ( 'NONE',  ( 6.123233995736764803E-17, 1.250000000000000000, 0.4999999999999998335 ) ) ;
#43 = EDGE_CURVE ( 'NONE', #157, #23, #68, .T. ) ;
#44 = SURFACE_STYLE_FILL_AREA ( #184 ) ;
#45 = DIRECTION ( 'NONE',  ( -0.000000000000000000, -1.000000000000000000, -0.000000000000000000 ) ) ;
#46 = PRODUCT_DEFINITION_FORMATION_WITH_SPECIFIED_SOURCE ( 'ANY', '', #321, .NOT_KNOWN. ) ;
#47 = PRESENTATION_STYLE_ASSIGNMENT (( #54 ) ) ;
#48 = DIRECTION ( 'NONE',  ( -0.000000000000000000, -1.000000000000000000, -0.000000000000000000 ) ) ;
#49 = EDGE_CURVE ( 'NONE', #208, #12, #310, .T. ) ;
#50 = DIMENSIONAL_EXPONENTS ( 1.000000000000000000, 0.000000000000000000, 0.000000000000000000, 0.000000000000000000, 0.000000000000000000, 0.000000000000000000, 0.000000000000000000 ) ;
#51 = CIRCLE ( 'NONE', #244, 0.4999999999999997224 ) ;
#52 = PRESENTATION_LAYER_ASSIGNMENT (  '', '', ( #274 ) ) ;
#53 = LINE ( 'NONE', #306, #214 ) ;
#54 = SURFACE_STYLE_USAGE ( .BOTH. , #313 ) ;
#55 = FACE_OUTER_BOUND ( 'NONE', #269, .T. ) ;
#56 = CARTESIAN_POINT ( 'NONE',  ( 4.533498892964098121E-16, 1.250000000000000000, 0.000000000000000000 ) ) ;
#57 =( NAMED_UNIT ( * ) PLANE_ANGLE_UNIT ( ) SI_UNIT ( $, .RADIAN. ) );
#58 = FILL_AREA_STYLE_COLOUR ( '', #366 ) ;
#59 = EDGE_CURVE ( 'NONE', #64, #346, #82, .T. ) ;
#60 = FILL_AREA_STYLE ('',( #94 ) ) ;
#61 = SHAPE_DEFINITION_REPRESENTATION ( #340, #284 ) ;
#62 = EDGE_CURVE ( 'NONE', #157, #290, #335, .T. ) ;
#63 = CARTESIAN_POINT ( 'NONE',  ( 0.000000000000000000, 0.5000000000000000000, 0.000000000000000000 ) ) ;
#64 = VERTEX_POINT ( 'NONE', #163 ) ;
#65 =( NAMED_UNIT ( * ) SI_UNIT ( $, .STERADIAN. ) SOLID_ANGLE_UNIT ( ) );
#66 = PRESENTATION_LAYER_ASSIGNMENT (  '', '', ( #24 ) ) ;
#67 = PRODUCT_RELATED_PRODUCT_CATEGORY ( 'part', '', ( #321 ) ) ;
#68 = CIRCLE ( 'NONE', #100, 0.4999999999999993894 ) ;
#69 = DIRECTION ( 'NONE',  ( -1.203218943206089082E-16, 1.000000000000000000, -0.000000000000000000 ) ) ;
#70 = DIRECTION ( 'NONE',  ( 0.000000000000000000, -0.000000000000000000, 1.000000000000000000 ) ) ;
#71 = ORIENTED_EDGE ( 'NONE', *, *, #62, .T. ) ;
#72 = DIMENSIONAL_EXPONENTS ( 1.000000000000000000, 0.000000000000000000, 0.000000000000000000, 0.000000000000000000, 0.000000000000000000, 0.000000000000000000, 0.000000000000000000 ) ;
#73 = DIRECTION ( 'NONE',  ( -1.203218943206089082E-16, 1.000000000000000000, -0.000000000000000000 ) ) ;
#74 = ORIENTED_EDGE ( 'NONE', *, *, #49, .T. ) ;
#75 = DIRECTION ( 'NONE',  ( -1.000000000000000000, 0.000000000000000000, 0.000000000000000000 ) ) ;
#76 = COLOUR_RGB ( '',1.000000000000000000, 0.000000000000000000, 0.000000000000000000 ) ;
#77 = EDGE_CURVE ( 'NONE', #64, #204, #294, .T. ) ;
#78 = VERTEX_POINT ( 'NONE', #336 ) ;
#79 = COLOUR_RGB ( '',1.000000000000000000, 0.000000000000000000, 0.000000000000000000 ) ;
#80 = FACE_OUTER_BOUND ( 'NONE', #145, .T. ) ;
#81 = PRODUCT_DEFINITION_CONTEXT ( 'detailed design', #205, 'design' ) ;
#82 = LINE ( 'NONE', #108, #176 ) ;
#83 = CARTESIAN_POINT ( 'NONE',  ( 0.000000000000000000, 0.000000000000000000, 0.000000000000000000 ) ) ;
#84 = EDGE_CURVE ( 'NONE', #8, #290, #51, .T. ) ;
#85 = SURFACE_STYLE_USAGE ( .BOTH. , #291 ) ;
#86 = EDGE_LOOP ( 'NONE', ( #356, #120 ) ) ;
#87 =( GEOMETRIC_REPRESENTATION_CONTEXT ( 3 ) GLOBAL_UNCERTAINTY_ASSIGNED_CONTEXT ( ( #293 ) ) GLOBAL_UNIT_ASSIGNED_CONTEXT ( ( #22, #159, #109 ) ) REPRESENTATION_CONTEXT ( 'NONE', 'WORKASPACE' ) );
#88 = CIRCLE ( 'NONE', #10, 0.4999999999999997224 ) ;
#89 = DIRECTION ( 'NONE',  ( -1.000000000000000000, 0.000000000000000000, 0.000000000000000000 ) ) ;
#90 =( CONVERSION_BASED_UNIT ( 'INCH', #135 ) LENGTH_UNIT ( ) NAMED_UNIT ( #18 ) );
#91 =( CONVERSION_BASED_UNIT ( 'INCH', #349 ) LENGTH_UNIT ( ) NAMED_UNIT ( #363 ) );
#92 = ORIENTED_EDGE ( 'NONE', *, *, #62, .F. ) ;
#93 = DIRECTION ( 'NONE',  ( 1.000000000000000000, 0.000000000000000000, 0.000000000000000000 ) ) ;
#94 = FILL_AREA_STYLE_COLOUR ( '', #360 ) ;
#95 = STYLED_ITEM ( 'NONE', ( #372 ), #26 ) ;
#96 = AXIS2_PLACEMENT_3D ( 'NONE', #13, #216, #302 ) ;
#97 = CARTESIAN_POINT ( 'NONE',  ( -6.123233995736766036E-17, 0.5000000000000000000, 0.000000000000000000 ) ) ;
#98 = DIRECTION ( 'NONE',  ( 0.000000000000000000, 0.000000000000000000, -1.000000000000000000 ) ) ;
#99 = UNCERTAINTY_MEASURE_WITH_UNIT (LENGTH_MEASURE( 1.000000000000000082E-05 ), #1, 'distance_accuracy_value', 'NONE');
#100 = AXIS2_PLACEMENT_3D ( 'NONE', #134, #69, #254 ) ;
#101 = AXIS2_PLACEMENT_3D ( 'NONE', #232, #369, #89 ) ;
#102 = DIRECTION ( 'NONE',  ( -1.203218943206089082E-16, 1.000000000000000000, -0.000000000000000000 ) ) ;
#103 = CARTESIAN_POINT ( 'NONE',  ( -0.4999999999999988898, 1.250000000000000000, 0.000000000000000000 ) ) ;
#104 = EDGE_LOOP ( 'NONE', ( #267, #189 ) ) ;
#105 = CARTESIAN_POINT ( 'NONE',  ( -6.123233995736766036E-17, 0.5000000000000000000, 0.000000000000000000 ) ) ;
#106 = CIRCLE ( 'NONE', #249, 0.4999999999999998335 ) ;
#107 = AXIS2_PLACEMENT_3D ( 'NONE', #182, #320, #93 ) ;
#108 = CARTESIAN_POINT ( 'NONE',  ( 0.000000000000000000, 0.000000000000000000, -0.4999999999999999445 ) ) ;
#109 =( NAMED_UNIT ( * ) SI_UNIT ( $, .STERADIAN. ) SOLID_ANGLE_UNIT ( ) );
#110 = MANIFOLD_SOLID_BREP ( 'Revolve - Cutting Edge', #186 ) ;
#111 = CARTESIAN_POINT ( 'NONE',  ( -6.123233995736766036E-17, 0.5000000000000000000, 0.000000000000000000 ) ) ;
#112 = CARTESIAN_POINT ( 'NONE',  ( 1.224646799147353207E-16, 4.000000000000000000, 0.000000000000000000 ) ) ;
#113 = DIRECTION ( 'NONE',  ( -0.000000000000000000, -1.000000000000000000, -0.000000000000000000 ) ) ;
#114 = MECHANICAL_DESIGN_GEOMETRIC_PRESENTATION_REPRESENTATION (  '', ( #24 ), #138 ) ;
#115 = DIRECTION ( 'NONE',  ( -1.000000000000000000, -1.203218943206089082E-16, 0.000000000000000000 ) ) ;
#116 =( NAMED_UNIT ( * ) SI_UNIT ( $, .STERADIAN. ) SOLID_ANGLE_UNIT ( ) );
#117 = EDGE_LOOP ( 'NONE', ( #213, #288, #28, #6 ) ) ;
#118 = AXIS2_PLACEMENT_3D ( 'NONE', #97, #319, #33 ) ;
#119 = FACE_OUTER_BOUND ( 'NONE', #86, .T. ) ;
#120 = ORIENTED_EDGE ( 'NONE', *, *, #188, .F. ) ;
#121 = SPHERICAL_SURFACE ( 'NONE', #231, 0.5000000000000000000 ) ;
#122 =( LENGTH_UNIT ( ) NAMED_UNIT ( * ) SI_UNIT ( $, .METRE. ) );
#123 = STYLED_ITEM ( 'NONE', ( #9 ), #131 ) ;
#124 = UNCERTAINTY_MEASURE_WITH_UNIT (LENGTH_MEASURE( 1.000000000000000082E-05 ), #90, 'distance_accuracy_value', 'NONE');
#125 = STYLED_ITEM ( 'NONE', ( #347 ), #240 ) ;
#126 = PRESENTATION_STYLE_ASSIGNMENT (( #11 ) ) ;
#127 = ORIENTED_EDGE ( 'NONE', *, *, #165, .F. ) ;
#128 = LENGTH_MEASURE_WITH_UNIT ( LENGTH_MEASURE( 0.02539999999999999897 ), #122 );
#129 = EDGE_CURVE ( 'NONE', #204, #261, #53, .T. ) ;
#130 = PLANE ( 'NONE',  #133 ) ;
#131 = ADVANCED_FACE ( 'NONE', ( #25 ), #167, .T. ) ;
#132 = LENGTH_MEASURE_WITH_UNIT ( LENGTH_MEASURE( 0.02539999999999999897 ), #137 );
#133 = AXIS2_PLACEMENT_3D ( 'NONE', #285, #259, #229 ) ;
#134 = CARTESIAN_POINT ( 'NONE',  ( 4.533498892964098121E-16, 1.250000000000000000, 0.000000000000000000 ) ) ;
#135 = LENGTH_MEASURE_WITH_UNIT ( LENGTH_MEASURE( 0.02539999999999999897 ), #260 );
#136 =( CONVERSION_BASED_UNIT ( 'INCH', #314 ) LENGTH_UNIT ( ) NAMED_UNIT ( #242 ) );
#137 =( LENGTH_UNIT ( ) NAMED_UNIT ( * ) SI_UNIT ( $, .METRE. ) );
#138 =( GEOMETRIC_REPRESENTATION_CONTEXT ( 3 ) GLOBAL_UNCERTAINTY_ASSIGNED_CONTEXT ( ( #39 ) ) GLOBAL_UNIT_ASSIGNED_CONTEXT ( ( #150, #147, #116 ) ) REPRESENTATION_CONTEXT ( 'NONE', 'WORKASPACE' ) );
#139 = DIRECTION ( 'NONE',  ( 0.000000000000000000, 0.000000000000000000, -1.000000000000000000 ) ) ;
#140 = PRESENTATION_STYLE_ASSIGNMENT (( #173 ) ) ;
#141 = CARTESIAN_POINT ( 'NONE',  ( 0.000000000000000000, 0.5000000000000000000, 0.000000000000000000 ) ) ;
#142 = FILL_AREA_STYLE ('',( #19 ) ) ;
#143 = APPLICATION_PROTOCOL_DEFINITION ( 'draft international standard', 'automotive_design', 1998, #251 ) ;
#144 = LENGTH_MEASURE_WITH_UNIT ( LENGTH_MEASURE( 0.02539999999999999897 ), #5 );
#145 = EDGE_LOOP ( 'NONE', ( #179, #297, #71, #323 ) ) ;
#146 = CIRCLE ( 'NONE', #96, 0.5000000000000000000 ) ;
#147 =( NAMED_UNIT ( * ) PLANE_ANGLE_UNIT ( ) SI_UNIT ( $, .RADIAN. ) );
#148 = ORIENTED_EDGE ( 'NONE', *, *, #257, .T. ) ;
#149 = SURFACE_SIDE_STYLE ('',( #7 ) ) ;
#150 =( CONVERSION_BASED_UNIT ( 'INCH', #144 ) LENGTH_UNIT ( ) NAMED_UNIT ( #248 ) );
#151 = FILL_AREA_STYLE ('',( #322 ) ) ;
#152 = CARTESIAN_POINT ( 'NONE',  ( 0.5000000000000000000, 0.5000000000000000000, 0.000000000000000000 ) ) ;
#153 = EDGE_CURVE ( 'NONE', #204, #64, #106, .T. ) ;
#154 = ORIENTED_EDGE ( 'NONE', *, *, #153, .F. ) ;
#155 = FACE_OUTER_BOUND ( 'NONE', #104, .T. ) ;
#156 = AXIS2_PLACEMENT_3D ( 'NONE', #105, #160, #243 ) ;
#157 = VERTEX_POINT ( 'NONE', #103 ) ;
#158 = DIRECTION ( 'NONE',  ( -1.000000000000000000, 0.000000000000000000, 0.000000000000000000 ) ) ;
#159 =( NAMED_UNIT ( * ) PLANE_ANGLE_UNIT ( ) SI_UNIT ( $, .RADIAN. ) );
#160 = DIRECTION ( 'NONE',  ( 0.000000000000000000, 0.000000000000000000, 1.000000000000000000 ) ) ;
#161 = FILL_AREA_STYLE ('',( #277 ) ) ;
#162 = MECHANICAL_DESIGN_GEOMETRIC_PRESENTATION_REPRESENTATION (  '', ( #235 ), #351 ) ;
#163 = CARTESIAN_POINT ( 'NONE',  ( 0.000000000000000000, 1.250000000000000000, -0.4999999999999998335 ) ) ;
#164 =( NAMED_UNIT ( * ) PLANE_ANGLE_UNIT ( ) SI_UNIT ( $, .RADIAN. ) );
#165 = EDGE_CURVE ( 'NONE', #261, #78, #146, .T. ) ;
#166 = FILL_AREA_STYLE_COLOUR ( '', #206 ) ;
#167 = PLANE ( 'NONE',  #219 ) ;
#168 = LENGTH_MEASURE_WITH_UNIT ( LENGTH_MEASURE( 0.02539999999999999897 ), #364 );
#169 =( NAMED_UNIT ( * ) SI_UNIT ( $, .STERADIAN. ) SOLID_ANGLE_UNIT ( ) );
#170 = CIRCLE ( 'NONE', #289, 0.5000000000000000000 ) ;
#171 = EDGE_CURVE ( 'NONE', #290, #8, #88, .T. ) ;
#172 = CYLINDRICAL_SURFACE ( 'NONE', #332, 0.4999999999999996114 ) ;
#173 = SURFACE_STYLE_USAGE ( .BOTH. , #3 ) ;
#174 = DIRECTION ( 'NONE',  ( -0.000000000000000000, -1.000000000000000000, -0.000000000000000000 ) ) ;
#175 = ORIENTED_EDGE ( 'NONE', *, *, #373, .F. ) ;
#176 = VECTOR ( 'NONE', #370, 39.37007874015748143 ) ;
#177 = ORIENTED_EDGE ( 'NONE', *, *, #77, .T. ) ;
#178 = UNCERTAINTY_MEASURE_WITH_UNIT (LENGTH_MEASURE( 1.000000000000000082E-05 ), #215, 'distance_accuracy_value', 'NONE');
#179 = ORIENTED_EDGE ( 'NONE', *, *, #209, .F. ) ;
#180 =( NAMED_UNIT ( * ) PLANE_ANGLE_UNIT ( ) SI_UNIT ( $, .RADIAN. ) );
#181 = DIRECTION ( 'NONE',  ( 0.000000000000000000, 1.000000000000000000, 0.000000000000000000 ) ) ;
#182 = CARTESIAN_POINT ( 'NONE',  ( 0.000000000000000000, 0.000000000000000000, 0.000000000000000000 ) ) ;
#183 = VECTOR ( 'NONE', #102, 39.37007874015748143 ) ;
#184 = FILL_AREA_STYLE ('',( #241 ) ) ;
#185 = SPHERICAL_SURFACE ( 'NONE', #156, 0.5000000000000000000 ) ;
#186 = CLOSED_SHELL ( 'NONE', ( #237, #26, #131, #270, #201 ) ) ;
#187 = CIRCLE ( 'NONE', #118, 0.5000000000000000000 ) ;
#188 = EDGE_CURVE ( 'NONE', #23, #157, #345, .T. ) ;
#189 = ORIENTED_EDGE ( 'NONE', *, *, #84, .T. ) ;
#190 = AXIS2_PLACEMENT_3D ( 'NONE', #111, #223, #75 ) ;
#191 = MECHANICAL_DESIGN_GEOMETRIC_PRESENTATION_REPRESENTATION (  '', ( #125 ), #280 ) ;
#192 = CARTESIAN_POINT ( 'NONE',  ( 0.4999999999999999445, 4.000000000000000000, 6.123233995736762338E-17 ) ) ;
#193 = EDGE_LOOP ( 'NONE', ( #308, #271, #301, #348, #127 ) ) ;
#194 =( NAMED_UNIT ( * ) SI_UNIT ( $, .STERADIAN. ) SOLID_ANGLE_UNIT ( ) );
#195 = SURFACE_STYLE_FILL_AREA ( #339 ) ;
#196 = DIRECTION ( 'NONE',  ( -1.203218943206089082E-16, 1.000000000000000000, -0.000000000000000000 ) ) ;
#197 = MECHANICAL_DESIGN_GEOMETRIC_PRESENTATION_REPRESENTATION (  '', ( #123 ), #358 ) ;
#198 =( NAMED_UNIT ( * ) PLANE_ANGLE_UNIT ( ) SI_UNIT ( $, .RADIAN. ) );
#199 = AXIS2_PLACEMENT_3D ( 'NONE', #239, #330, #158 ) ;
#200 = CYLINDRICAL_SURFACE ( 'NONE', #303, 0.4999999999999999445 ) ;
#201 = ADVANCED_FACE ( 'NONE', ( #329 ), #185, .T. ) ;
#202 = DIRECTION ( 'NONE',  ( 1.000000000000000000, 0.000000000000000000, 0.000000000000000000 ) ) ;
#203 = FACE_OUTER_BOUND ( 'NONE', #117, .T. ) ;
#204 = VERTEX_POINT ( 'NONE', #42 ) ;
#205 = APPLICATION_CONTEXT ( 'automotive_design' ) ;
#206 = COLOUR_RGB ( '',0.7921568627450980005, 0.8196078431372548767, 0.9333333333333333481 ) ;
#207 = SURFACE_STYLE_FILL_AREA ( #60 ) ;
#208 = VERTEX_POINT ( 'NONE', #152 ) ;
#209 = EDGE_CURVE ( 'NONE', #23, #8, #218, .T. ) ;
#210 = UNCERTAINTY_MEASURE_WITH_UNIT (LENGTH_MEASURE( 1.000000000000000082E-05 ), #136, 'distance_accuracy_value', 'NONE');
#211 = SURFACE_STYLE_FILL_AREA ( #151 ) ;
#212 = SURFACE_STYLE_USAGE ( .BOTH. , #275 ) ;
#213 = ORIENTED_EDGE ( 'NONE', *, *, #165, .T. ) ;
#214 = VECTOR ( 'NONE', #48, 39.37007874015748143 ) ;
#215 =( CONVERSION_BASED_UNIT ( 'INCH', #128 ) LENGTH_UNIT ( ) NAMED_UNIT ( #50 ) );
#216 = DIRECTION ( 'NONE',  ( -0.000000000000000000, -1.000000000000000000, -0.000000000000000000 ) ) ;
#217 = ORIENTED_EDGE ( 'NONE', *, *, #373, .T. ) ;
#218 = LINE ( 'NONE', #359, #183 ) ;
#219 = AXIS2_PLACEMENT_3D ( 'NONE', #355, #181, #70 ) ;
#220 = MECHANICAL_DESIGN_GEOMETRIC_PRESENTATION_REPRESENTATION (  '', ( #274 ), #255 ) ;
#221 = DIRECTION ( 'NONE',  ( -1.203218943206089082E-16, 1.000000000000000000, -0.000000000000000000 ) ) ;
#222 = EDGE_LOOP ( 'NONE', ( #225, #148, #217, #74 ) ) ;
#223 = DIRECTION ( 'NONE',  ( 0.000000000000000000, 0.000000000000000000, -1.000000000000000000 ) ) ;
#224 = SURFACE_STYLE_USAGE ( .BOTH. , #333 ) ;
#225 = ORIENTED_EDGE ( 'NONE', *, *, #250, .F. ) ;
#226 = COLOUR_RGB ( '',1.000000000000000000, 0.000000000000000000, 0.000000000000000000 ) ;
#227 = DIRECTION ( 'NONE',  ( 0.000000000000000000, 0.000000000000000000, -1.000000000000000000 ) ) ;
#228 = DIRECTION ( 'NONE',  ( 0.000000000000000000, 0.000000000000000000, -1.000000000000000000 ) ) ;
#229 = DIRECTION ( 'NONE',  ( 1.000000000000000000, 1.203218943206089082E-16, 0.000000000000000000 ) ) ;
#230 = PRESENTATION_LAYER_ASSIGNMENT (  '', '', ( #95 ) ) ;
#231 = AXIS2_PLACEMENT_3D ( 'NONE', #233, #343, #202 ) ;
#232 = CARTESIAN_POINT ( 'NONE',  ( 1.224646799147353207E-16, 4.000000000000000000, 0.000000000000000000 ) ) ;
#233 = CARTESIAN_POINT ( 'NONE',  ( -6.123233995736766036E-17, 0.5000000000000000000, 0.000000000000000000 ) ) ;
#234 = ADVANCED_FACE ( 'NONE', ( #155 ), #130, .F. ) ;
#235 = STYLED_ITEM ( 'NONE', ( #47 ), #110 ) ;
#236 = CIRCLE ( 'NONE', #327, 0.5000000000000000000 ) ;
#237 = ADVANCED_FACE ( 'NONE', ( #203 ), #121, .T. ) ;
#238 = FACE_OUTER_BOUND ( 'NONE', #193, .T. ) ;
#239 = CARTESIAN_POINT ( 'NONE',  ( 4.533498892964098121E-16, 1.250000000000000000, 0.000000000000000000 ) ) ;
#240 = MANIFOLD_SOLID_BREP ( 'Revolve - Tool Body (Straight Shanked)', #4 ) ;
#241 = FILL_AREA_STYLE_COLOUR ( '', #226 ) ;
#242 = DIMENSIONAL_EXPONENTS ( 1.000000000000000000, 0.000000000000000000, 0.000000000000000000, 0.000000000000000000, 0.000000000000000000, 0.000000000000000000, 0.000000000000000000 ) ;
#243 = DIRECTION ( 'NONE',  ( 1.000000000000000000, 0.000000000000000000, 0.000000000000000000 ) ) ;
#244 = AXIS2_PLACEMENT_3D ( 'NONE', #27, #221, #304 ) ;
#245 = MECHANICAL_DESIGN_GEOMETRIC_PRESENTATION_REPRESENTATION (  '', ( #41 ), #371 ) ;
#246 = ORIENTED_EDGE ( 'NONE', *, *, #77, .F. ) ;
#247 = CARTESIAN_POINT ( 'NONE',  ( 0.000000000000000000, 0.000000000000000000, 0.000000000000000000 ) ) ;
#248 = DIMENSIONAL_EXPONENTS ( 1.000000000000000000, 0.000000000000000000, 0.000000000000000000, 0.000000000000000000, 0.000000000000000000, 0.000000000000000000, 0.000000000000000000 ) ;
#249 = AXIS2_PLACEMENT_3D ( 'NONE', #278, #45, #362 ) ;
#250 = EDGE_CURVE ( 'NONE', #78, #12, #187, .T. ) ;
#251 = APPLICATION_CONTEXT ( 'automotive_design' ) ;
#252 = SURFACE_STYLE_FILL_AREA ( #161 ) ;
#253 = CARTESIAN_POINT ( 'NONE',  ( 0.000000000000000000, 0.5000000000000000000, 0.000000000000000000 ) ) ;
#254 = DIRECTION ( 'NONE',  ( -1.000000000000000000, 0.000000000000000000, 0.000000000000000000 ) ) ;
#255 =( GEOMETRIC_REPRESENTATION_CONTEXT ( 3 ) GLOBAL_UNCERTAINTY_ASSIGNED_CONTEXT ( ( #124 ) ) GLOBAL_UNIT_ASSIGNED_CONTEXT ( ( #90, #57, #258 ) ) REPRESENTATION_CONTEXT ( 'NONE', 'WORKASPACE' ) );
#256 = CARTESIAN_POINT ( 'NONE',  ( -3.061616997868383018E-17, 0.000000000000000000, 0.000000000000000000 ) ) ;
#257 = EDGE_CURVE ( 'NONE', #78, #346, #236, .T. ) ;
#258 =( NAMED_UNIT ( * ) SI_UNIT ( $, .STERADIAN. ) SOLID_ANGLE_UNIT ( ) );
#259 = DIRECTION ( 'NONE',  ( 1.203218943206089082E-16, -1.000000000000000000, 0.000000000000000000 ) ) ;
#260 =( LENGTH_UNIT ( ) NAMED_UNIT ( * ) SI_UNIT ( $, .METRE. ) );
#261 = VERTEX_POINT ( 'NONE', #292 ) ;
#262 =( NAMED_UNIT ( * ) SI_UNIT ( $, .STERADIAN. ) SOLID_ANGLE_UNIT ( ) );
#263 = ORIENTED_EDGE ( 'NONE', *, *, #59, .F. ) ;
#264 = UNCERTAINTY_MEASURE_WITH_UNIT (LENGTH_MEASURE( 1.000000000000000082E-05 ), #91, 'distance_accuracy_value', 'NONE');
#265 = SURFACE_SIDE_STYLE ('',( #211 ) ) ;
#266 = AXIS2_PLACEMENT_3D ( 'NONE', #312, #113, #281 ) ;
#267 = ORIENTED_EDGE ( 'NONE', *, *, #171, .T. ) ;
#268 =( GEOMETRIC_REPRESENTATION_CONTEXT ( 3 ) GLOBAL_UNCERTAINTY_ASSIGNED_CONTEXT ( ( #210 ) ) GLOBAL_UNIT_ASSIGNED_CONTEXT ( ( #136, #164, #169 ) ) REPRESENTATION_CONTEXT ( 'NONE', 'WORKASPACE' ) );
#269 = EDGE_LOOP ( 'NONE', ( #317, #299, #34, #92 ) ) ;
#270 = ADVANCED_FACE ( 'NONE', ( #238 ), #200, .T. ) ;
#271 = ORIENTED_EDGE ( 'NONE', *, *, #153, .T. ) ;
#272 =( NAMED_UNIT ( * ) PLANE_ANGLE_UNIT ( ) SI_UNIT ( $, .RADIAN. ) );
#273 = AXIS2_PLACEMENT_3D ( 'NONE', #247, #367, #227 ) ;
#274 = STYLED_ITEM ( 'NONE', ( #126 ), #270 ) ;
#275 = SURFACE_SIDE_STYLE ('',( #44 ) ) ;
#276 = ADVANCED_FACE ( 'NONE', ( #119 ), #342, .F. ) ;
#277 = FILL_AREA_STYLE_COLOUR ( '', #76 ) ;
#278 = CARTESIAN_POINT ( 'NONE',  ( 0.000000000000000000, 1.250000000000000000, 0.000000000000000000 ) ) ;
#279 = CYLINDRICAL_SURFACE ( 'NONE', #273, 0.4999999999999999445 ) ;
#280 =( GEOMETRIC_REPRESENTATION_CONTEXT ( 3 ) GLOBAL_UNCERTAINTY_ASSIGNED_CONTEXT ( ( #264 ) ) GLOBAL_UNIT_ASSIGNED_CONTEXT ( ( #91, #198, #262 ) ) REPRESENTATION_CONTEXT ( 'NONE', 'WORKASPACE' ) );
#281 = DIRECTION ( 'NONE',  ( 0.000000000000000000, 0.000000000000000000, -1.000000000000000000 ) ) ;
#282 = CARTESIAN_POINT ( 'NONE',  ( -0.4999999999999996114, 4.000000000000000000, 0.000000000000000000 ) ) ;
#283 = CARTESIAN_POINT ( 'NONE',  ( 0.4999999999999999445, 1.250000000000000000, 6.123233995736762338E-17 ) ) ;
#284 = ADVANCED_BREP_SHAPE_REPRESENTATION ( '49435', ( #110, #240, #107 ), #268 ) ;
#285 = CARTESIAN_POINT ( 'NONE',  ( 0.4999999999999998335, 4.000000000000000000, 0.000000000000000000 ) ) ;
#286 = CARTESIAN_POINT ( 'NONE',  ( 0.000000000000000000, 0.5000000000000000000, -0.5000000000000000000 ) ) ;
#287 = FILL_AREA_STYLE ('',( #58 ) ) ;
#288 = ORIENTED_EDGE ( 'NONE', *, *, #250, .T. ) ;
#289 = AXIS2_PLACEMENT_3D ( 'NONE', #141, #174, #35 ) ;
#290 = VERTEX_POINT ( 'NONE', #282 ) ;
#291 = SURFACE_SIDE_STYLE ('',( #207 ) ) ;
#292 = CARTESIAN_POINT ( 'NONE',  ( 6.123233995736767268E-17, 0.5000000000000000000, 0.5000000000000001110 ) ) ;
#293 = UNCERTAINTY_MEASURE_WITH_UNIT (LENGTH_MEASURE( 1.000000000000000082E-05 ), #22, 'distance_accuracy_value', 'NONE');
#294 = CIRCLE ( 'NONE', #266, 0.4999999999999998335 ) ;
#295 = CARTESIAN_POINT ( 'NONE',  ( 1.224646799147353207E-16, 4.000000000000000000, 0.000000000000000000 ) ) ;
#296 = PRESENTATION_LAYER_ASSIGNMENT (  '', '', ( #41 ) ) ;
#297 = ORIENTED_EDGE ( 'NONE', *, *, #188, .T. ) ;
#298 =( NAMED_UNIT ( * ) PLANE_ANGLE_UNIT ( ) SI_UNIT ( $, .RADIAN. ) );
#299 = ORIENTED_EDGE ( 'NONE', *, *, #209, .T. ) ;
#300 =( NAMED_UNIT ( * ) SI_UNIT ( $, .STERADIAN. ) SOLID_ANGLE_UNIT ( ) );
#301 = ORIENTED_EDGE ( 'NONE', *, *, #59, .T. ) ;
#302 = DIRECTION ( 'NONE',  ( 0.000000000000000000, 0.000000000000000000, -1.000000000000000000 ) ) ;
#303 = AXIS2_PLACEMENT_3D ( 'NONE', #83, #315, #139 ) ;
#304 = DIRECTION ( 'NONE',  ( -1.000000000000000000, 0.000000000000000000, 0.000000000000000000 ) ) ;
#305 = ADVANCED_FACE ( 'NONE', ( #80 ), #344, .T. ) ;
#306 = CARTESIAN_POINT ( 'NONE',  ( 6.123233995736764803E-17, 0.000000000000000000, 0.4999999999999999445 ) ) ;
#307 = DIMENSIONAL_EXPONENTS ( 1.000000000000000000, 0.000000000000000000, 0.000000000000000000, 0.000000000000000000, 0.000000000000000000, 0.000000000000000000, 0.000000000000000000 ) ;
#308 = ORIENTED_EDGE ( 'NONE', *, *, #129, .F. ) ;
#309 = CARTESIAN_POINT ( 'NONE',  ( -0.4999999999999994449, 4.000000000000000000, 0.000000000000000000 ) ) ;
#310 = CIRCLE ( 'NONE', #190, 0.5000000000000000000 ) ;
#311 = AXIS2_PLACEMENT_3D ( 'NONE', #253, #316, #228 ) ;
#312 = CARTESIAN_POINT ( 'NONE',  ( 0.000000000000000000, 1.250000000000000000, 0.000000000000000000 ) ) ;
#313 = SURFACE_SIDE_STYLE ('',( #195 ) ) ;
#314 = LENGTH_MEASURE_WITH_UNIT ( LENGTH_MEASURE( 0.02539999999999999897 ), #30 );
#315 = DIRECTION ( 'NONE',  ( -0.000000000000000000, -1.000000000000000000, -0.000000000000000000 ) ) ;
#316 = DIRECTION ( 'NONE',  ( -0.000000000000000000, -1.000000000000000000, -0.000000000000000000 ) ) ;
#317 = ORIENTED_EDGE ( 'NONE', *, *, #43, .T. ) ;
#318 = APPLICATION_PROTOCOL_DEFINITION ( 'draft international standard', 'automotive_design', 1998, #205 ) ;
#319 = DIRECTION ( 'NONE',  ( 1.224646799147353207E-16, -0.000000000000000000, 1.000000000000000000 ) ) ;
#320 = DIRECTION ( 'NONE',  ( 0.000000000000000000, 0.000000000000000000, 1.000000000000000000 ) ) ;
#321 = PRODUCT ( '49435', '49435', '', ( #350 ) ) ;
#322 = FILL_AREA_STYLE_COLOUR ( '', #79 ) ;
#323 = ORIENTED_EDGE ( 'NONE', *, *, #84, .F. ) ;
#324 =( CONVERSION_BASED_UNIT ( 'INCH', #14 ) LENGTH_UNIT ( ) NAMED_UNIT ( #328 ) );
#325 = UNCERTAINTY_MEASURE_WITH_UNIT (LENGTH_MEASURE( 1.000000000000000082E-05 ), #324, 'distance_accuracy_value', 'NONE');
#326 = DIRECTION ( 'NONE',  ( -1.203218943206089082E-16, 1.000000000000000000, -0.000000000000000000 ) ) ;
#327 = AXIS2_PLACEMENT_3D ( 'NONE', #63, #354, #98 ) ;
#328 = DIMENSIONAL_EXPONENTS ( 1.000000000000000000, 0.000000000000000000, 0.000000000000000000, 0.000000000000000000, 0.000000000000000000, 0.000000000000000000, 0.000000000000000000 ) ;
#329 = FACE_OUTER_BOUND ( 'NONE', #222, .T. ) ;
#330 = DIRECTION ( 'NONE',  ( -1.203218943206089082E-16, 1.000000000000000000, -0.000000000000000000 ) ) ;
#331 = PRESENTATION_LAYER_ASSIGNMENT (  '', '', ( #123 ) ) ;
#332 = AXIS2_PLACEMENT_3D ( 'NONE', #112, #196, #341 ) ;
#333 = SURFACE_SIDE_STYLE ('',( #252 ) ) ;
#334 = ORIENTED_EDGE ( 'NONE', *, *, #129, .T. ) ;
#335 = LINE ( 'NONE', #309, #36 ) ;
#336 = CARTESIAN_POINT ( 'NONE',  ( -0.5000000000000000000, 0.5000000000000000000, 6.123233995736764803E-17 ) ) ;
#337 = EDGE_LOOP ( 'NONE', ( #246, #154 ) ) ;
#338 = DIRECTION ( 'NONE',  ( -1.203218943206089082E-16, 1.000000000000000000, 0.000000000000000000 ) ) ;
#339 = FILL_AREA_STYLE ('',( #166 ) ) ;
#340 = PRODUCT_DEFINITION_SHAPE ( 'NONE', 'NONE',  #15 ) ;
#341 = DIRECTION ( 'NONE',  ( -1.000000000000000000, 0.000000000000000000, 0.000000000000000000 ) ) ;
#342 = PLANE ( 'NONE',  #352 ) ;
#343 = DIRECTION ( 'NONE',  ( 0.000000000000000000, 0.000000000000000000, 1.000000000000000000 ) ) ;
#344 = CYLINDRICAL_SURFACE ( 'NONE', #101, 0.4999999999999996114 ) ;
#345 = CIRCLE ( 'NONE', #199, 0.4999999999999993894 ) ;
#346 = VERTEX_POINT ( 'NONE', #286 ) ;
#347 = PRESENTATION_STYLE_ASSIGNMENT (( #85 ) ) ;
#348 = ORIENTED_EDGE ( 'NONE', *, *, #257, .F. ) ;
#349 = LENGTH_MEASURE_WITH_UNIT ( LENGTH_MEASURE( 0.02539999999999999897 ), #37 );
#350 = PRODUCT_CONTEXT ( 'NONE', #251, 'mechanical' ) ;
#351 =( GEOMETRIC_REPRESENTATION_CONTEXT ( 3 ) GLOBAL_UNCERTAINTY_ASSIGNED_CONTEXT ( ( #99 ) ) GLOBAL_UNIT_ASSIGNED_CONTEXT ( ( #1, #180, #194 ) ) REPRESENTATION_CONTEXT ( 'NONE', 'WORKASPACE' ) );
#352 = AXIS2_PLACEMENT_3D ( 'NONE', #56, #338, #115 ) ;
#353 = SURFACE_STYLE_FILL_AREA ( #287 ) ;
#354 = DIRECTION ( 'NONE',  ( -0.000000000000000000, -1.000000000000000000, -0.000000000000000000 ) ) ;
#355 = CARTESIAN_POINT ( 'NONE',  ( 0.000000000000000000, 1.250000000000000000, 0.000000000000000000 ) ) ;
#356 = ORIENTED_EDGE ( 'NONE', *, *, #43, .F. ) ;
#357 = PRESENTATION_STYLE_ASSIGNMENT (( #212 ) ) ;
#358 =( GEOMETRIC_REPRESENTATION_CONTEXT ( 3 ) GLOBAL_UNCERTAINTY_ASSIGNED_CONTEXT ( ( #178 ) ) GLOBAL_UNIT_ASSIGNED_CONTEXT ( ( #215, #298, #65 ) ) REPRESENTATION_CONTEXT ( 'NONE', 'WORKASPACE' ) );
#359 = CARTESIAN_POINT ( 'NONE',  ( 0.4999999999999997224, 4.000000000000000000, 6.123233995736761105E-17 ) ) ;
#360 = COLOUR_RGB ( '',0.7921568627450980005, 0.8196078431372548767, 0.9333333333333333481 ) ;
#361 = EDGE_CURVE ( 'NONE', #208, #261, #32, .T. ) ;
#362 = DIRECTION ( 'NONE',  ( 0.000000000000000000, 0.000000000000000000, -1.000000000000000000 ) ) ;
#363 = DIMENSIONAL_EXPONENTS ( 1.000000000000000000, 0.000000000000000000, 0.000000000000000000, 0.000000000000000000, 0.000000000000000000, 0.000000000000000000, 0.000000000000000000 ) ;
#364 =( LENGTH_UNIT ( ) NAMED_UNIT ( * ) SI_UNIT ( $, .METRE. ) );
#365 = MECHANICAL_DESIGN_GEOMETRIC_PRESENTATION_REPRESENTATION (  '', ( #95 ), #87 ) ;
#366 = COLOUR_RGB ( '',1.000000000000000000, 0.000000000000000000, 0.000000000000000000 ) ;
#367 = DIRECTION ( 'NONE',  ( -0.000000000000000000, -1.000000000000000000, -0.000000000000000000 ) ) ;
#368 = ADVANCED_FACE ( 'NONE', ( #55 ), #172, .T. ) ;
#369 = DIRECTION ( 'NONE',  ( -1.203218943206089082E-16, 1.000000000000000000, -0.000000000000000000 ) ) ;
#370 = DIRECTION ( 'NONE',  ( -0.000000000000000000, -1.000000000000000000, -0.000000000000000000 ) ) ;
#371 =( GEOMETRIC_REPRESENTATION_CONTEXT ( 3 ) GLOBAL_UNCERTAINTY_ASSIGNED_CONTEXT ( ( #325 ) ) GLOBAL_UNIT_ASSIGNED_CONTEXT ( ( #324, #272, #300 ) ) REPRESENTATION_CONTEXT ( 'NONE', 'WORKASPACE' ) );
#372 = PRESENTATION_STYLE_ASSIGNMENT (( #224 ) ) ;
#373 = EDGE_CURVE ( 'NONE', #346, #208, #170, .T. ) ;
ENDSEC;
END-ISO-10303-21;
