ISO-10303-21;
HEADER;
FILE_DESCRIPTION (( 'STEP AP214' ),
    '1' );
FILE_NAME ('83842.STEP',
    '2023-07-05T16:17:09',
    ( '' ),
    ( '' ),
    'SwSTEP 2.0',
    'SolidWorks 2023',
    '' );
FILE_SCHEMA (( 'AUTOMOTIVE_DESIGN' ));
ENDSEC;

DATA;
#1 = DIRECTION ( 'NONE',  ( 0.000000000000000000, 0.000000000000000000, 1.000000000000000000 ) ) ;
#2 = SHAPE_DEFINITION_REPRESENTATION ( #9, #212 ) ;
#3 = ORIENTED_EDGE ( 'NONE', *, *, #39, .T. ) ;
#4 = CLOSED_SHELL ( 'NONE', ( #111, #126, #186 ) ) ;
#5 =( GEOMETRIC_REPRESENTATION_CONTEXT ( 3 ) GLOBAL_UNCERTAINTY_ASSIGNED_CONTEXT ( ( #253 ) ) GLOBAL_UNIT_ASSIGNED_CONTEXT ( ( #131, #170, #252 ) ) REPRESENTATION_CONTEXT ( 'NONE', 'WORKASPACE' ) );
#6 = DIRECTION ( 'NONE',  ( -2.423395209008266085E-18, -1.000000000000000000, -0.000000000000000000 ) ) ;
#7 = EDGE_CURVE ( 'NONE', #41, #105, #32, .T. ) ;
#8 = CARTESIAN_POINT ( 'NONE',  ( -6.123233995736766036E-17, 2.500000000000000000, 0.000000000000000000 ) ) ;
#9 = PRODUCT_DEFINITION_SHAPE ( 'NONE', 'NONE',  #177 ) ;
#10 = DIRECTION ( 'NONE',  ( -1.000000000000000000, -1.478510563588688038E-16, 0.000000000000000000 ) ) ;
#11 = STYLED_ITEM ( 'NONE', ( #110 ), #126 ) ;
#12 =( GEOMETRIC_REPRESENTATION_CONTEXT ( 3 ) GLOBAL_UNCERTAINTY_ASSIGNED_CONTEXT ( ( #250 ) ) GLOBAL_UNIT_ASSIGNED_CONTEXT ( ( #31, #115, #34 ) ) REPRESENTATION_CONTEXT ( 'NONE', 'WORKASPACE' ) );
#13 =( CONVERSION_BASED_UNIT ( 'INCH', #194 ) LENGTH_UNIT ( ) NAMED_UNIT ( #202 ) );
#14 = SURFACE_STYLE_USAGE ( .BOTH. , #235 ) ;
#15 = DIRECTION ( 'NONE',  ( 2.423395209008266085E-18, 1.000000000000000000, 0.000000000000000000 ) ) ;
#16 = VERTEX_POINT ( 'NONE', #218 ) ;
#17 = EDGE_LOOP ( 'NONE', ( #245, #37 ) ) ;
#18 = APPLICATION_CONTEXT ( 'automotive_design' ) ;
#19 = CIRCLE ( 'NONE', #118, 0.1874999999999997502 ) ;
#20 = SURFACE_STYLE_FILL_AREA ( #119 ) ;
#21 = CARTESIAN_POINT ( 'NONE',  ( 0.000000000000000000, 0.000000000000000000, 0.000000000000000000 ) ) ;
#22 = APPLICATION_PROTOCOL_DEFINITION ( 'draft international standard', 'automotive_design', 1998, #61 ) ;
#23 = DIRECTION ( 'NONE',  ( -1.478510563588688038E-16, 1.000000000000000000, -0.000000000000000000 ) ) ;
#24 = AXIS2_PLACEMENT_3D ( 'NONE', #84, #23, #185 ) ;
#25 = PRESENTATION_LAYER_ASSIGNMENT (  '', '', ( #243 ) ) ;
#26 = SURFACE_STYLE_USAGE ( .BOTH. , #70 ) ;
#27 = CARTESIAN_POINT ( 'NONE',  ( 9.540926019717583636E-17, 39.37007874015748143, 0.000000000000000000 ) ) ;
#28 = CARTESIAN_POINT ( 'NONE',  ( 7.870206804039944582E-19, 0.3247595264191635578, 0.000000000000000000 ) ) ;
#29 = EDGE_CURVE ( 'NONE', #95, #255, #75, .T. ) ;
#30 = FACE_OUTER_BOUND ( 'NONE', #184, .T. ) ;
#31 =( CONVERSION_BASED_UNIT ( 'INCH', #137 ) LENGTH_UNIT ( ) NAMED_UNIT ( #51 ) );
#32 = CIRCLE ( 'NONE', #24, 0.1874999999999997502 ) ;
#33 = COLOUR_RGB ( '',1.000000000000000000, 0.000000000000000000, 0.000000000000000000 ) ;
#34 =( NAMED_UNIT ( * ) SI_UNIT ( $, .STERADIAN. ) SOLID_ANGLE_UNIT ( ) );
#35 = ORIENTED_EDGE ( 'NONE', *, *, #29, .T. ) ;
#36 = CARTESIAN_POINT ( 'NONE',  ( 0.1874999999999999722, 2.500000000000000000, 2.296212748401286801E-17 ) ) ;
#37 = ORIENTED_EDGE ( 'NONE', *, *, #134, .F. ) ;
#38 =( LENGTH_UNIT ( ) NAMED_UNIT ( * ) SI_UNIT ( $, .METRE. ) );
#39 = EDGE_CURVE ( 'NONE', #16, #255, #197, .T. ) ;
#40 = CONICAL_SURFACE ( 'NONE', #146, 22.73032555864674364, 0.5235987755983000369 ) ;
#41 = VERTEX_POINT ( 'NONE', #144 ) ;
#42 = CARTESIAN_POINT ( 'NONE',  ( 0.1874999999999999722, 0.3247595264191635578, 2.296212748401286801E-17 ) ) ;
#43 =( GEOMETRIC_REPRESENTATION_CONTEXT ( 3 ) GLOBAL_UNCERTAINTY_ASSIGNED_CONTEXT ( ( #50 ) ) GLOBAL_UNIT_ASSIGNED_CONTEXT ( ( #71, #149, #67 ) ) REPRESENTATION_CONTEXT ( 'NONE', 'WORKASPACE' ) );
#44 = ORIENTED_EDGE ( 'NONE', *, *, #39, .F. ) ;
#45 = PRESENTATION_STYLE_ASSIGNMENT (( #26 ) ) ;
#46 = DIRECTION ( 'NONE',  ( -1.478510563588688038E-16, 1.000000000000000000, -0.000000000000000000 ) ) ;
#47 = PRESENTATION_LAYER_ASSIGNMENT (  '', '', ( #85 ) ) ;
#48 = FILL_AREA_STYLE ('',( #248 ) ) ;
#49 =( LENGTH_UNIT ( ) NAMED_UNIT ( * ) SI_UNIT ( $, .METRE. ) );
#50 = UNCERTAINTY_MEASURE_WITH_UNIT (LENGTH_MEASURE( 1.000000000000000082E-05 ), #71, 'distance_accuracy_value', 'NONE');
#51 = DIMENSIONAL_EXPONENTS ( 1.000000000000000000, 0.000000000000000000, 0.000000000000000000, 0.000000000000000000, 0.000000000000000000, 0.000000000000000000, 0.000000000000000000 ) ;
#52 = PRESENTATION_STYLE_ASSIGNMENT (( #14 ) ) ;
#53 = PRODUCT ( '83842', '83842', '', ( #127 ) ) ;
#54 = DIRECTION ( 'NONE',  ( -1.000000000000000000, 0.000000000000000000, 0.000000000000000000 ) ) ;
#55 = ORIENTED_EDGE ( 'NONE', *, *, #134, .T. ) ;
#56 = CIRCLE ( 'NONE', #143, 0.1875000000000000555 ) ;
#57 = PLANE ( 'NONE',  #154 ) ;
#58 = CARTESIAN_POINT ( 'NONE',  ( -6.123233995736764803E-17, 2.500000000000000000, 0.000000000000000000 ) ) ;
#59 = COLOUR_RGB ( '',1.000000000000000000, 0.000000000000000000, 0.000000000000000000 ) ;
#60 = CARTESIAN_POINT ( 'NONE',  ( -6.123233995736766036E-17, 2.500000000000000000, 0.000000000000000000 ) ) ;
#61 = APPLICATION_CONTEXT ( 'automotive_design' ) ;
#62 = DIRECTION ( 'NONE',  ( -1.478510563588688038E-16, 1.000000000000000000, -0.000000000000000000 ) ) ;
#63 = CARTESIAN_POINT ( 'NONE',  ( -0.1874999999999994726, 0.3247595264191634468, 0.000000000000000000 ) ) ;
#64 = AXIS2_PLACEMENT_3D ( 'NONE', #58, #193, #138 ) ;
#65 = ORIENTED_EDGE ( 'NONE', *, *, #201, .T. ) ;
#66 = LENGTH_MEASURE_WITH_UNIT ( LENGTH_MEASURE( 0.02539999999999999897 ), #49 );
#67 =( NAMED_UNIT ( * ) SI_UNIT ( $, .STERADIAN. ) SOLID_ANGLE_UNIT ( ) );
#68 = AXIS2_PLACEMENT_3D ( 'NONE', #77, #133, #93 ) ;
#69 = MANIFOLD_SOLID_BREP ( 'Revolve - Cutting Edge', #4 ) ;
#70 = SURFACE_SIDE_STYLE ('',( #246 ) ) ;
#71 =( CONVERSION_BASED_UNIT ( 'INCH', #251 ) LENGTH_UNIT ( ) NAMED_UNIT ( #247 ) );
#72 =( GEOMETRIC_REPRESENTATION_CONTEXT ( 3 ) GLOBAL_UNCERTAINTY_ASSIGNED_CONTEXT ( ( #256 ) ) GLOBAL_UNIT_ASSIGNED_CONTEXT ( ( #160, #103, #178 ) ) REPRESENTATION_CONTEXT ( 'NONE', 'WORKASPACE' ) );
#73 = FILL_AREA_STYLE_COLOUR ( '', #205 ) ;
#74 = SURFACE_STYLE_FILL_AREA ( #230 ) ;
#75 = CIRCLE ( 'NONE', #238, 0.1874999999999999722 ) ;
#76 = PRESENTATION_STYLE_ASSIGNMENT (( #116 ) ) ;
#77 = CARTESIAN_POINT ( 'NONE',  ( 0.1874999999999999722, 2.500000000000000000, 0.000000000000000000 ) ) ;
#78 = CARTESIAN_POINT ( 'NONE',  ( 0.000000000000000000, 0.000000000000000000, 0.000000000000000000 ) ) ;
#79 = CYLINDRICAL_SURFACE ( 'NONE', #100, 0.1874999999999998890 ) ;
#80 = AXIS2_PLACEMENT_3D ( 'NONE', #228, #15, #97 ) ;
#81 = LENGTH_MEASURE_WITH_UNIT ( LENGTH_MEASURE( 0.02539999999999999897 ), #121 );
#82 = DIRECTION ( 'NONE',  ( -2.423395209008266085E-18, -1.000000000000000000, -0.000000000000000000 ) ) ;
#83 = DIRECTION ( 'NONE',  ( 0.5000000000000009992, 0.8660254037844380415, 6.123233995736778362E-17 ) ) ;
#84 = CARTESIAN_POINT ( 'NONE',  ( 2.603792618961250911E-16, 0.3247595264191634468, 0.000000000000000000 ) ) ;
#85 = STYLED_ITEM ( 'NONE', ( #52 ), #239 ) ;
#86 = CARTESIAN_POINT ( 'NONE',  ( -0.1875000000000001110, 2.500000000000000000, 0.000000000000000000 ) ) ;
#87 = LINE ( 'NONE', #164, #190 ) ;
#88 = ADVANCED_FACE ( 'NONE', ( #262 ), #79, .T. ) ;
#89 = SURFACE_SIDE_STYLE ('',( #168 ) ) ;
#90 =( GEOMETRIC_REPRESENTATION_CONTEXT ( 3 ) GLOBAL_UNCERTAINTY_ASSIGNED_CONTEXT ( ( #114 ) ) GLOBAL_UNIT_ASSIGNED_CONTEXT ( ( #13, #98, #182 ) ) REPRESENTATION_CONTEXT ( 'NONE', 'WORKASPACE' ) );
#91 = DIMENSIONAL_EXPONENTS ( 1.000000000000000000, 0.000000000000000000, 0.000000000000000000, 0.000000000000000000, 0.000000000000000000, 0.000000000000000000, 0.000000000000000000 ) ;
#92 = FILL_AREA_STYLE_COLOUR ( '', #258 ) ;
#93 = DIRECTION ( 'NONE',  ( 1.000000000000000000, 1.478510563588688038E-16, 0.000000000000000000 ) ) ;
#94 = EDGE_CURVE ( 'NONE', #105, #41, #19, .T. ) ;
#95 = VERTEX_POINT ( 'NONE', #240 ) ;
#96 =( GEOMETRIC_REPRESENTATION_CONTEXT ( 3 ) GLOBAL_UNCERTAINTY_ASSIGNED_CONTEXT ( ( #169 ) ) GLOBAL_UNIT_ASSIGNED_CONTEXT ( ( #198, #222, #141 ) ) REPRESENTATION_CONTEXT ( 'NONE', 'WORKASPACE' ) );
#97 = DIRECTION ( 'NONE',  ( -1.000000000000000000, 0.000000000000000000, 0.000000000000000000 ) ) ;
#98 =( NAMED_UNIT ( * ) PLANE_ANGLE_UNIT ( ) SI_UNIT ( $, .RADIAN. ) );
#99 = LINE ( 'NONE', #195, #108 ) ;
#100 = AXIS2_PLACEMENT_3D ( 'NONE', #60, #216, #179 ) ;
#101 = FACE_OUTER_BOUND ( 'NONE', #236, .T. ) ;
#102 = APPLICATION_PROTOCOL_DEFINITION ( 'draft international standard', 'automotive_design', 1998, #18 ) ;
#103 =( NAMED_UNIT ( * ) PLANE_ANGLE_UNIT ( ) SI_UNIT ( $, .RADIAN. ) );
#104 = CARTESIAN_POINT ( 'NONE',  ( 7.870206804039944582E-19, 0.3247595264191635578, 0.000000000000000000 ) ) ;
#105 = VERTEX_POINT ( 'NONE', #63 ) ;
#106 = VERTEX_POINT ( 'NONE', #86 ) ;
#107 = ORIENTED_EDGE ( 'NONE', *, *, #217, .T. ) ;
#108 = VECTOR ( 'NONE', #176, 39.37007874015748143 ) ;
#109 = AXIS2_PLACEMENT_3D ( 'NONE', #78, #1, #219 ) ;
#110 = PRESENTATION_STYLE_ASSIGNMENT (( #166 ) ) ;
#111 = ADVANCED_FACE ( 'NONE', ( #192 ), #40, .T. ) ;
#112 = DIRECTION ( 'NONE',  ( 1.000000000000000000, 0.000000000000000000, 0.000000000000000000 ) ) ;
#113 = MECHANICAL_DESIGN_GEOMETRIC_PRESENTATION_REPRESENTATION (  '', ( #232 ), #72 ) ;
#114 = UNCERTAINTY_MEASURE_WITH_UNIT (LENGTH_MEASURE( 1.000000000000000082E-05 ), #13, 'distance_accuracy_value', 'NONE');
#115 =( NAMED_UNIT ( * ) PLANE_ANGLE_UNIT ( ) SI_UNIT ( $, .RADIAN. ) );
#116 = SURFACE_STYLE_USAGE ( .BOTH. , #173 ) ;
#117 = ORIENTED_EDGE ( 'NONE', *, *, #7, .T. ) ;
#118 = AXIS2_PLACEMENT_3D ( 'NONE', #220, #265, #159 ) ;
#119 = FILL_AREA_STYLE ('',( #142 ) ) ;
#120 = ADVANCED_FACE ( 'NONE', ( #30 ), #225, .T. ) ;
#121 =( LENGTH_UNIT ( ) NAMED_UNIT ( * ) SI_UNIT ( $, .METRE. ) );
#122 = DIRECTION ( 'NONE',  ( 1.000000000000000000, 0.000000000000000000, 0.000000000000000000 ) ) ;
#123 = EDGE_LOOP ( 'NONE', ( #242, #3, #55 ) ) ;
#124 = CARTESIAN_POINT ( 'NONE',  ( -0.1874999999999999445, 2.500000000000000000, 0.000000000000000000 ) ) ;
#125 = ORIENTED_EDGE ( 'NONE', *, *, #263, .F. ) ;
#126 = ADVANCED_FACE ( 'NONE', ( #203 ), #147, .T. ) ;
#127 = PRODUCT_CONTEXT ( 'NONE', #61, 'mechanical' ) ;
#128 = EDGE_LOOP ( 'NONE', ( #152, #107 ) ) ;
#129 = FILL_AREA_STYLE ('',( #92 ) ) ;
#130 = COLOUR_RGB ( '',0.7921568627450980005, 0.8196078431372548767, 0.9333333333333333481 ) ;
#131 =( CONVERSION_BASED_UNIT ( 'INCH', #66 ) LENGTH_UNIT ( ) NAMED_UNIT ( #91 ) );
#132 = MECHANICAL_DESIGN_GEOMETRIC_PRESENTATION_REPRESENTATION (  '', ( #243 ), #5 ) ;
#133 = DIRECTION ( 'NONE',  ( 1.478510563588688038E-16, -1.000000000000000000, 0.000000000000000000 ) ) ;
#134 = EDGE_CURVE ( 'NONE', #255, #95, #221, .T. ) ;
#135 = ORIENTED_EDGE ( 'NONE', *, *, #7, .F. ) ;
#136 = PRESENTATION_LAYER_ASSIGNMENT (  '', '', ( #232 ) ) ;
#137 = LENGTH_MEASURE_WITH_UNIT ( LENGTH_MEASURE( 0.02539999999999999897 ), #38 );
#138 = DIRECTION ( 'NONE',  ( -1.000000000000000000, 0.000000000000000000, 0.000000000000000000 ) ) ;
#139 = CONICAL_SURFACE ( 'NONE', #80, 22.73032555864674364, 0.5235987755983000369 ) ;
#140 = ORIENTED_EDGE ( 'NONE', *, *, #163, .T. ) ;
#141 =( NAMED_UNIT ( * ) SI_UNIT ( $, .STERADIAN. ) SOLID_ANGLE_UNIT ( ) );
#142 = FILL_AREA_STYLE_COLOUR ( '', #130 ) ;
#143 = AXIS2_PLACEMENT_3D ( 'NONE', #213, #259, #54 ) ;
#144 = CARTESIAN_POINT ( 'NONE',  ( 0.1874999999999999722, 0.3247595264191634468, 2.296212748401286801E-17 ) ) ;
#145 = DIRECTION ( 'NONE',  ( -1.000000000000000000, 0.000000000000000000, 0.000000000000000000 ) ) ;
#146 = AXIS2_PLACEMENT_3D ( 'NONE', #27, #189, #145 ) ;
#147 = PLANE ( 'NONE',  #209 ) ;
#148 = VECTOR ( 'NONE', #83, 39.37007874015748143 ) ;
#149 =( NAMED_UNIT ( * ) PLANE_ANGLE_UNIT ( ) SI_UNIT ( $, .RADIAN. ) );
#150 = AXIS2_PLACEMENT_3D ( 'NONE', #8, #46, #249 ) ;
#151 = FILL_AREA_STYLE_COLOUR ( '', #33 ) ;
#152 = ORIENTED_EDGE ( 'NONE', *, *, #207, .T. ) ;
#153 = ORIENTED_EDGE ( 'NONE', *, *, #94, .T. ) ;
#154 = AXIS2_PLACEMENT_3D ( 'NONE', #237, #254, #10 ) ;
#155 = FACE_OUTER_BOUND ( 'NONE', #156, .T. ) ;
#156 = EDGE_LOOP ( 'NONE', ( #44, #140, #35 ) ) ;
#157 = CIRCLE ( 'NONE', #64, 0.1875000000000000555 ) ;
#158 = MECHANICAL_DESIGN_GEOMETRIC_PRESENTATION_REPRESENTATION (  '', ( #11 ), #43 ) ;
#159 = DIRECTION ( 'NONE',  ( -1.000000000000000000, 0.000000000000000000, 0.000000000000000000 ) ) ;
#160 =( CONVERSION_BASED_UNIT ( 'INCH', #241 ) LENGTH_UNIT ( ) NAMED_UNIT ( #171 ) );
#161 = ORIENTED_EDGE ( 'NONE', *, *, #263, .T. ) ;
#162 =( LENGTH_UNIT ( ) NAMED_UNIT ( * ) SI_UNIT ( $, .METRE. ) );
#163 = EDGE_CURVE ( 'NONE', #16, #95, #87, .T. ) ;
#164 = CARTESIAN_POINT ( 'NONE',  ( 0.000000000000000000, 0.000000000000000000, 0.000000000000000000 ) ) ;
#165 = PRESENTATION_LAYER_ASSIGNMENT (  '', '', ( #181 ) ) ;
#166 = SURFACE_STYLE_USAGE ( .BOTH. , #89 ) ;
#167 = ADVANCED_FACE ( 'NONE', ( #101 ), #57, .F. ) ;
#168 = SURFACE_STYLE_FILL_AREA ( #129 ) ;
#169 = UNCERTAINTY_MEASURE_WITH_UNIT (LENGTH_MEASURE( 1.000000000000000082E-05 ), #198, 'distance_accuracy_value', 'NONE');
#170 =( NAMED_UNIT ( * ) PLANE_ANGLE_UNIT ( ) SI_UNIT ( $, .RADIAN. ) );
#171 = DIMENSIONAL_EXPONENTS ( 1.000000000000000000, 0.000000000000000000, 0.000000000000000000, 0.000000000000000000, 0.000000000000000000, 0.000000000000000000, 0.000000000000000000 ) ;
#172 = LINE ( 'NONE', #124, #234 ) ;
#173 = SURFACE_SIDE_STYLE ('',( #210 ) ) ;
#174 = VERTEX_POINT ( 'NONE', #36 ) ;
#175 = AXIS2_PLACEMENT_3D ( 'NONE', #28, #6, #112 ) ;
#176 = DIRECTION ( 'NONE',  ( -1.478510563588688038E-16, 1.000000000000000000, -0.000000000000000000 ) ) ;
#177 = PRODUCT_DEFINITION ( 'UNKNOWN', '', #260, #244 ) ;
#178 =( NAMED_UNIT ( * ) SI_UNIT ( $, .STERADIAN. ) SOLID_ANGLE_UNIT ( ) );
#179 = DIRECTION ( 'NONE',  ( -1.000000000000000000, 0.000000000000000000, 0.000000000000000000 ) ) ;
#180 = CLOSED_SHELL ( 'NONE', ( #120, #167, #88, #233 ) ) ;
#181 = STYLED_ITEM ( 'NONE', ( #76 ), #186 ) ;
#182 =( NAMED_UNIT ( * ) SI_UNIT ( $, .STERADIAN. ) SOLID_ANGLE_UNIT ( ) );
#183 = PRESENTATION_STYLE_ASSIGNMENT (( #200 ) ) ;
#184 = EDGE_LOOP ( 'NONE', ( #153, #65, #211, #125 ) ) ;
#185 = DIRECTION ( 'NONE',  ( -1.000000000000000000, 0.000000000000000000, 0.000000000000000000 ) ) ;
#186 = ADVANCED_FACE ( 'NONE', ( #155 ), #139, .T. ) ;
#187 = CARTESIAN_POINT ( 'NONE',  ( 7.870206804039943619E-19, 0.3247595264191635578, 0.000000000000000000 ) ) ;
#188 =( LENGTH_UNIT ( ) NAMED_UNIT ( * ) SI_UNIT ( $, .METRE. ) );
#189 = DIRECTION ( 'NONE',  ( 2.423395209008266085E-18, 1.000000000000000000, 0.000000000000000000 ) ) ;
#190 = VECTOR ( 'NONE', #206, 39.37007874015748143 ) ;
#191 = PRODUCT_RELATED_PRODUCT_CATEGORY ( 'part', '', ( #53 ) ) ;
#192 = FACE_OUTER_BOUND ( 'NONE', #123, .T. ) ;
#193 = DIRECTION ( 'NONE',  ( -1.478510563588688038E-16, 1.000000000000000000, -0.000000000000000000 ) ) ;
#194 = LENGTH_MEASURE_WITH_UNIT ( LENGTH_MEASURE( 0.02539999999999999897 ), #208 );
#195 = CARTESIAN_POINT ( 'NONE',  ( 0.1874999999999998057, 2.500000000000000000, 2.296212748401285877E-17 ) ) ;
#196 = ORIENTED_EDGE ( 'NONE', *, *, #94, .F. ) ;
#197 = LINE ( 'NONE', #21, #148 ) ;
#198 =( CONVERSION_BASED_UNIT ( 'INCH', #81 ) LENGTH_UNIT ( ) NAMED_UNIT ( #229 ) );
#199 = ORIENTED_EDGE ( 'NONE', *, *, #217, .F. ) ;
#200 = SURFACE_STYLE_USAGE ( .BOTH. , #223 ) ;
#201 = EDGE_CURVE ( 'NONE', #41, #174, #99, .T. ) ;
#202 = DIMENSIONAL_EXPONENTS ( 1.000000000000000000, 0.000000000000000000, 0.000000000000000000, 0.000000000000000000, 0.000000000000000000, 0.000000000000000000, 0.000000000000000000 ) ;
#203 = FACE_OUTER_BOUND ( 'NONE', #17, .T. ) ;
#204 = DIRECTION ( 'NONE',  ( -1.000000000000000000, 2.423395209008266085E-18, 0.000000000000000000 ) ) ;
#205 = COLOUR_RGB ( '',0.7921568627450980005, 0.8196078431372548767, 0.9333333333333333481 ) ;
#206 = DIRECTION ( 'NONE',  ( -0.5000000000000009992, 0.8660254037844380415, 0.000000000000000000 ) ) ;
#207 = EDGE_CURVE ( 'NONE', #106, #174, #56, .T. ) ;
#208 =( LENGTH_UNIT ( ) NAMED_UNIT ( * ) SI_UNIT ( $, .METRE. ) );
#209 = AXIS2_PLACEMENT_3D ( 'NONE', #187, #227, #204 ) ;
#210 = SURFACE_STYLE_FILL_AREA ( #214 ) ;
#211 = ORIENTED_EDGE ( 'NONE', *, *, #207, .F. ) ;
#212 = ADVANCED_BREP_SHAPE_REPRESENTATION ( '83842', ( #69, #239, #109 ), #96 ) ;
#213 = CARTESIAN_POINT ( 'NONE',  ( -6.123233995736764803E-17, 2.500000000000000000, 0.000000000000000000 ) ) ;
#214 = FILL_AREA_STYLE ('',( #151 ) ) ;
#215 = MECHANICAL_DESIGN_GEOMETRIC_PRESENTATION_REPRESENTATION (  '', ( #181 ), #12 ) ;
#216 = DIRECTION ( 'NONE',  ( -1.478510563588688038E-16, 1.000000000000000000, -0.000000000000000000 ) ) ;
#217 = EDGE_CURVE ( 'NONE', #174, #106, #157, .T. ) ;
#218 = CARTESIAN_POINT ( 'NONE',  ( 0.000000000000000000, 0.000000000000000000, 0.000000000000000000 ) ) ;
#219 = DIRECTION ( 'NONE',  ( 1.000000000000000000, 0.000000000000000000, 0.000000000000000000 ) ) ;
#220 = CARTESIAN_POINT ( 'NONE',  ( 2.603792618961250911E-16, 0.3247595264191634468, 0.000000000000000000 ) ) ;
#221 = CIRCLE ( 'NONE', #175, 0.1874999999999999722 ) ;
#222 =( NAMED_UNIT ( * ) PLANE_ANGLE_UNIT ( ) SI_UNIT ( $, .RADIAN. ) );
#223 = SURFACE_SIDE_STYLE ('',( #20 ) ) ;
#224 = ORIENTED_EDGE ( 'NONE', *, *, #201, .F. ) ;
#225 = CYLINDRICAL_SURFACE ( 'NONE', #150, 0.1874999999999998890 ) ;
#226 = MECHANICAL_DESIGN_GEOMETRIC_PRESENTATION_REPRESENTATION (  '', ( #85 ), #90 ) ;
#227 = DIRECTION ( 'NONE',  ( 2.423395209008266085E-18, 1.000000000000000000, 0.000000000000000000 ) ) ;
#228 = CARTESIAN_POINT ( 'NONE',  ( 9.540926019717583636E-17, 39.37007874015748143, 0.000000000000000000 ) ) ;
#229 = DIMENSIONAL_EXPONENTS ( 1.000000000000000000, 0.000000000000000000, 0.000000000000000000, 0.000000000000000000, 0.000000000000000000, 0.000000000000000000, 0.000000000000000000 ) ;
#230 = FILL_AREA_STYLE ('',( #73 ) ) ;
#231 = PLANE ( 'NONE',  #68 ) ;
#232 = STYLED_ITEM ( 'NONE', ( #183 ), #69 ) ;
#233 = ADVANCED_FACE ( 'NONE', ( #261 ), #231, .F. ) ;
#234 = VECTOR ( 'NONE', #62, 39.37007874015748143 ) ;
#235 = SURFACE_SIDE_STYLE ('',( #74 ) ) ;
#236 = EDGE_LOOP ( 'NONE', ( #196, #135 ) ) ;
#237 = CARTESIAN_POINT ( 'NONE',  ( 2.603792618961250911E-16, 0.3247595264191635578, 0.000000000000000000 ) ) ;
#238 = AXIS2_PLACEMENT_3D ( 'NONE', #104, #82, #122 ) ;
#239 = MANIFOLD_SOLID_BREP ( 'Revolve - Tool Body (Pointed)', #180 ) ;
#240 = CARTESIAN_POINT ( 'NONE',  ( -0.1874999999999999722, 0.3247595264191635578, 0.000000000000000000 ) ) ;
#241 = LENGTH_MEASURE_WITH_UNIT ( LENGTH_MEASURE( 0.02539999999999999897 ), #162 );
#242 = ORIENTED_EDGE ( 'NONE', *, *, #163, .F. ) ;
#243 = STYLED_ITEM ( 'NONE', ( #45 ), #111 ) ;
#244 = PRODUCT_DEFINITION_CONTEXT ( 'detailed design', #18, 'design' ) ;
#245 = ORIENTED_EDGE ( 'NONE', *, *, #29, .F. ) ;
#246 = SURFACE_STYLE_FILL_AREA ( #48 ) ;
#247 = DIMENSIONAL_EXPONENTS ( 1.000000000000000000, 0.000000000000000000, 0.000000000000000000, 0.000000000000000000, 0.000000000000000000, 0.000000000000000000, 0.000000000000000000 ) ;
#248 = FILL_AREA_STYLE_COLOUR ( '', #59 ) ;
#249 = DIRECTION ( 'NONE',  ( -1.000000000000000000, 0.000000000000000000, 0.000000000000000000 ) ) ;
#250 = UNCERTAINTY_MEASURE_WITH_UNIT (LENGTH_MEASURE( 1.000000000000000082E-05 ), #31, 'distance_accuracy_value', 'NONE');
#251 = LENGTH_MEASURE_WITH_UNIT ( LENGTH_MEASURE( 0.02539999999999999897 ), #188 );
#252 =( NAMED_UNIT ( * ) SI_UNIT ( $, .STERADIAN. ) SOLID_ANGLE_UNIT ( ) );
#253 = UNCERTAINTY_MEASURE_WITH_UNIT (LENGTH_MEASURE( 1.000000000000000082E-05 ), #131, 'distance_accuracy_value', 'NONE');
#254 = DIRECTION ( 'NONE',  ( -1.478510563588688038E-16, 1.000000000000000000, 0.000000000000000000 ) ) ;
#255 = VERTEX_POINT ( 'NONE', #42 ) ;
#256 = UNCERTAINTY_MEASURE_WITH_UNIT (LENGTH_MEASURE( 1.000000000000000082E-05 ), #160, 'distance_accuracy_value', 'NONE');
#257 = EDGE_LOOP ( 'NONE', ( #224, #117, #161, #199 ) ) ;
#258 = COLOUR_RGB ( '',1.000000000000000000, 0.000000000000000000, 0.000000000000000000 ) ;
#259 = DIRECTION ( 'NONE',  ( -1.478510563588688038E-16, 1.000000000000000000, -0.000000000000000000 ) ) ;
#260 = PRODUCT_DEFINITION_FORMATION_WITH_SPECIFIED_SOURCE ( 'ANY', '', #53, .NOT_KNOWN. ) ;
#261 = FACE_OUTER_BOUND ( 'NONE', #128, .T. ) ;
#262 = FACE_OUTER_BOUND ( 'NONE', #257, .T. ) ;
#263 = EDGE_CURVE ( 'NONE', #105, #106, #172, .T. ) ;
#264 = PRESENTATION_LAYER_ASSIGNMENT (  '', '', ( #11 ) ) ;
#265 = DIRECTION ( 'NONE',  ( -1.478510563588688038E-16, 1.000000000000000000, -0.000000000000000000 ) ) ;
ENDSEC;
END-ISO-10303-21;
