ISO-10303-21;
HEADER;
FILE_DESCRIPTION (( 'STEP AP214' ),
    '1' );
FILE_NAME ('44247.STEP',
    '2023-06-22T19:46:46',
    ( '' ),
    ( '' ),
    'SwSTEP 2.0',
    'SolidWorks 2023',
    '' );
FILE_SCHEMA (( 'AUTOMOTIVE_DESIGN' ));
ENDSEC;

DATA;
#1 = FILL_AREA_STYLE_COLOUR ( '', #25 ) ;
#2 = ADVANCED_FACE ( 'NONE', ( #133 ), #18, .F. ) ;
#3 = APPLICATION_CONTEXT ( 'automotive_design' ) ;
#4 = AXIS2_PLACEMENT_3D ( 'NONE', #139, #23, #121 ) ;
#5 = AXIS2_PLACEMENT_3D ( 'NONE', #120, #256, #124 ) ;
#6 =( NAMED_UNIT ( * ) PLANE_ANGLE_UNIT ( ) SI_UNIT ( $, .RADIAN. ) );
#7 = VECTOR ( 'NONE', #62, 39.37007874015748143 ) ;
#8 = SURFACE_STYLE_USAGE ( .BOTH. , #218 ) ;
#9 = ORIENTED_EDGE ( 'NONE', *, *, #138, .F. ) ;
#10 = CYLINDRICAL_SURFACE ( 'NONE', #214, 0.1875000000000000555 ) ;
#11 = DIRECTION ( 'NONE',  ( 0.000000000000000000, 0.000000000000000000, 1.000000000000000000 ) ) ;
#12 = CARTESIAN_POINT ( 'NONE',  ( 0.000000000000000000, 0.000000000000000000, -0.1875000000000000278 ) ) ;
#13 = STYLED_ITEM ( 'NONE', ( #34 ), #193 ) ;
#14 = LENGTH_MEASURE_WITH_UNIT ( LENGTH_MEASURE( 0.02539999999999999897 ), #154 );
#15 = VERTEX_POINT ( 'NONE', #21 ) ;
#16 = CARTESIAN_POINT ( 'NONE',  ( 0.000000000000000000, 0.000000000000000000, 0.000000000000000000 ) ) ;
#17 =( NAMED_UNIT ( * ) PLANE_ANGLE_UNIT ( ) SI_UNIT ( $, .RADIAN. ) );
#18 = PLANE ( 'NONE',  #26 ) ;
#19 = MECHANICAL_DESIGN_GEOMETRIC_PRESENTATION_REPRESENTATION (  '', ( #272 ), #95 ) ;
#20 = DIRECTION ( 'NONE',  ( 0.000000000000000000, 1.000000000000000000, 0.000000000000000000 ) ) ;
#21 = CARTESIAN_POINT ( 'NONE',  ( -0.1875000000000001943, 3.500000000000000000, 0.000000000000000000 ) ) ;
#22 = CARTESIAN_POINT ( 'NONE',  ( -6.123233995736759873E-17, 3.500000000000000000, 0.000000000000000000 ) ) ;
#23 = DIRECTION ( 'NONE',  ( -3.061616997868380553E-17, 1.000000000000000000, -0.000000000000000000 ) ) ;
#24 = DIRECTION ( 'NONE',  ( -0.000000000000000000, -1.000000000000000000, -0.000000000000000000 ) ) ;
#25 = COLOUR_RGB ( '',1.000000000000000000, 0.000000000000000000, 0.000000000000000000 ) ;
#26 = AXIS2_PLACEMENT_3D ( 'NONE', #109, #65, #283 ) ;
#27 = PRESENTATION_LAYER_ASSIGNMENT (  '', '', ( #99 ) ) ;
#28 = EDGE_CURVE ( 'NONE', #249, #66, #72, .T. ) ;
#29 = EDGE_CURVE ( 'NONE', #46, #247, #61, .T. ) ;
#30 = ORIENTED_EDGE ( 'NONE', *, *, #89, .F. ) ;
#31 = PLANE ( 'NONE',  #243 ) ;
#32 = EDGE_CURVE ( 'NONE', #229, #15, #78, .T. ) ;
#33 = AXIS2_PLACEMENT_3D ( 'NONE', #22, #116, #212 ) ;
#34 = PRESENTATION_STYLE_ASSIGNMENT (( #115 ) ) ;
#35 = AXIS2_PLACEMENT_3D ( 'NONE', #16, #275, #128 ) ;
#36 = ORIENTED_EDGE ( 'NONE', *, *, #134, .T. ) ;
#37 = CARTESIAN_POINT ( 'NONE',  ( 0.000000000000000000, 0.000000000000000000, 0.000000000000000000 ) ) ;
#38 = ORIENTED_EDGE ( 'NONE', *, *, #289, .T. ) ;
#39 = EDGE_LOOP ( 'NONE', ( #244, #208, #36, #48 ) ) ;
#40 = DIRECTION ( 'NONE',  ( 1.000000000000000000, 3.061616997868380553E-17, 0.000000000000000000 ) ) ;
#41 =( CONVERSION_BASED_UNIT ( 'INCH', #84 ) LENGTH_UNIT ( ) NAMED_UNIT ( #237 ) );
#42 = MANIFOLD_SOLID_BREP ( 'Revolve - Cutting Edge', #238 ) ;
#43 = ORIENTED_EDGE ( 'NONE', *, *, #28, .T. ) ;
#44 = PRESENTATION_STYLE_ASSIGNMENT (( #113 ) ) ;
#45 = MECHANICAL_DESIGN_GEOMETRIC_PRESENTATION_REPRESENTATION (  '', ( #239 ), #168 ) ;
#46 = VERTEX_POINT ( 'NONE', #260 ) ;
#47 =( NAMED_UNIT ( * ) SI_UNIT ( $, .STERADIAN. ) SOLID_ANGLE_UNIT ( ) );
#48 = ORIENTED_EDGE ( 'NONE', *, *, #32, .F. ) ;
#49 = CIRCLE ( 'NONE', #242, 0.1875000000000001110 ) ;
#50 = SURFACE_SIDE_STYLE ('',( #258 ) ) ;
#51 = CYLINDRICAL_SURFACE ( 'NONE', #33, 0.1875000000000000833 ) ;
#52 = CARTESIAN_POINT ( 'NONE',  ( 0.000000000000000000, 0.000000000000000000, -0.1875000000000000555 ) ) ;
#53 = DIRECTION ( 'NONE',  ( -3.061616997868380553E-17, 1.000000000000000000, -0.000000000000000000 ) ) ;
#54 = PRESENTATION_LAYER_ASSIGNMENT (  '', '', ( #272 ) ) ;
#55 = LENGTH_MEASURE_WITH_UNIT ( LENGTH_MEASURE( 0.02539999999999999897 ), #97 );
#56 = COLOUR_RGB ( '',1.000000000000000000, 0.000000000000000000, 0.000000000000000000 ) ;
#57 = FILL_AREA_STYLE_COLOUR ( '', #266 ) ;
#58 = ADVANCED_FACE ( 'NONE', ( #263 ), #51, .T. ) ;
#59 = DIRECTION ( 'NONE',  ( -0.000000000000000000, -1.000000000000000000, -0.000000000000000000 ) ) ;
#60 = DIRECTION ( 'NONE',  ( 1.000000000000000000, 0.000000000000000000, 0.000000000000000000 ) ) ;
#61 = CIRCLE ( 'NONE', #253, 0.1875000000000000555 ) ;
#62 = DIRECTION ( 'NONE',  ( -3.061616997868380553E-17, 1.000000000000000000, -0.000000000000000000 ) ) ;
#63 = CARTESIAN_POINT ( 'NONE',  ( 0.1875000000000000555, 3.500000000000000000, 2.296212748401288342E-17 ) ) ;
#64 = DIRECTION ( 'NONE',  ( 0.000000000000000000, 0.000000000000000000, -1.000000000000000000 ) ) ;
#65 = DIRECTION ( 'NONE',  ( -3.061616997868380553E-17, 1.000000000000000000, 0.000000000000000000 ) ) ;
#66 = VERTEX_POINT ( 'NONE', #307 ) ;
#67 = COLOUR_RGB ( '',1.000000000000000000, 0.000000000000000000, 0.000000000000000000 ) ;
#68 = FILL_AREA_STYLE_COLOUR ( '', #223 ) ;
#69 = ORIENTED_EDGE ( 'NONE', *, *, #171, .T. ) ;
#70 = DIRECTION ( 'NONE',  ( -0.000000000000000000, -1.000000000000000000, -0.000000000000000000 ) ) ;
#71 = FILL_AREA_STYLE ('',( #211 ) ) ;
#72 = LINE ( 'NONE', #278, #265 ) ;
#73 = CIRCLE ( 'NONE', #231, 0.1875000000000000278 ) ;
#74 = DIRECTION ( 'NONE',  ( -1.000000000000000000, 0.000000000000000000, 0.000000000000000000 ) ) ;
#75 =( GEOMETRIC_REPRESENTATION_CONTEXT ( 3 ) GLOBAL_UNCERTAINTY_ASSIGNED_CONTEXT ( ( #294 ) ) GLOBAL_UNIT_ASSIGNED_CONTEXT ( ( #201, #17, #108 ) ) REPRESENTATION_CONTEXT ( 'NONE', 'WORKASPACE' ) );
#76 = EDGE_CURVE ( 'NONE', #87, #176, #94, .T. ) ;
#77 = UNCERTAINTY_MEASURE_WITH_UNIT (LENGTH_MEASURE( 1.000000000000000082E-05 ), #41, 'distance_accuracy_value', 'NONE');
#78 = CIRCLE ( 'NONE', #117, 0.1875000000000001110 ) ;
#79 = DIRECTION ( 'NONE',  ( -0.000000000000000000, -1.000000000000000000, -0.000000000000000000 ) ) ;
#80 = SURFACE_STYLE_USAGE ( .BOTH. , #50 ) ;
#81 =( NAMED_UNIT ( * ) SI_UNIT ( $, .STERADIAN. ) SOLID_ANGLE_UNIT ( ) );
#82 = SHAPE_DEFINITION_REPRESENTATION ( #203, #215 ) ;
#83 = FILL_AREA_STYLE ('',( #57 ) ) ;
#84 = LENGTH_MEASURE_WITH_UNIT ( LENGTH_MEASURE( 0.02539999999999999897 ), #301 );
#85 = ADVANCED_FACE ( 'NONE', ( #288 ), #143, .T. ) ;
#86 =( LENGTH_UNIT ( ) NAMED_UNIT ( * ) SI_UNIT ( $, .METRE. ) );
#87 = VERTEX_POINT ( 'NONE', #286 ) ;
#88 = CARTESIAN_POINT ( 'NONE',  ( 0.000000000000000000, 0.000000000000000000, 0.000000000000000000 ) ) ;
#89 = EDGE_CURVE ( 'NONE', #247, #46, #149, .T. ) ;
#90 = CIRCLE ( 'NONE', #202, 0.1875000000000000278 ) ;
#91 = DIRECTION ( 'NONE',  ( -3.061616997868380553E-17, 1.000000000000000000, -0.000000000000000000 ) ) ;
#92 = DIRECTION ( 'NONE',  ( -1.000000000000000000, 0.000000000000000000, 0.000000000000000000 ) ) ;
#93 = PLANE ( 'NONE',  #300 ) ;
#94 = LINE ( 'NONE', #52, #271 ) ;
#95 =( GEOMETRIC_REPRESENTATION_CONTEXT ( 3 ) GLOBAL_UNCERTAINTY_ASSIGNED_CONTEXT ( ( #184 ) ) GLOBAL_UNIT_ASSIGNED_CONTEXT ( ( #241, #254, #282 ) ) REPRESENTATION_CONTEXT ( 'NONE', 'WORKASPACE' ) );
#96 = DIMENSIONAL_EXPONENTS ( 1.000000000000000000, 0.000000000000000000, 0.000000000000000000, 0.000000000000000000, 0.000000000000000000, 0.000000000000000000, 0.000000000000000000 ) ;
#97 =( LENGTH_UNIT ( ) NAMED_UNIT ( * ) SI_UNIT ( $, .METRE. ) );
#98 = EDGE_CURVE ( 'NONE', #176, #66, #73, .T. ) ;
#99 = STYLED_ITEM ( 'NONE', ( #110 ), #158 ) ;
#100 =( NAMED_UNIT ( * ) SI_UNIT ( $, .STERADIAN. ) SOLID_ANGLE_UNIT ( ) );
#101 = LENGTH_MEASURE_WITH_UNIT ( LENGTH_MEASURE( 0.02539999999999999897 ), #298 );
#102 = DIRECTION ( 'NONE',  ( -0.000000000000000000, -1.000000000000000000, -0.000000000000000000 ) ) ;
#103 = PRODUCT ( '44247', '44247', '', ( #255 ) ) ;
#104 = DIRECTION ( 'NONE',  ( 0.000000000000000000, 0.000000000000000000, -1.000000000000000000 ) ) ;
#105 = CYLINDRICAL_SURFACE ( 'NONE', #35, 0.1875000000000000555 ) ;
#106 = LENGTH_MEASURE_WITH_UNIT ( LENGTH_MEASURE( 0.02539999999999999897 ), #227 );
#107 = UNCERTAINTY_MEASURE_WITH_UNIT (LENGTH_MEASURE( 1.000000000000000082E-05 ), #137, 'distance_accuracy_value', 'NONE');
#108 =( NAMED_UNIT ( * ) SI_UNIT ( $, .STERADIAN. ) SOLID_ANGLE_UNIT ( ) );
#109 = CARTESIAN_POINT ( 'NONE',  ( 8.787654976534311230E-35, 1.500000000000000222, 0.000000000000000000 ) ) ;
#110 = PRESENTATION_STYLE_ASSIGNMENT (( #267 ) ) ;
#111 = CARTESIAN_POINT ( 'NONE',  ( -0.1875000000000001388, 3.500000000000000000, 0.000000000000000000 ) ) ;
#112 =( NAMED_UNIT ( * ) SI_UNIT ( $, .STERADIAN. ) SOLID_ANGLE_UNIT ( ) );
#113 = SURFACE_STYLE_USAGE ( .BOTH. , #157 ) ;
#114 = ORIENTED_EDGE ( 'NONE', *, *, #171, .F. ) ;
#115 = SURFACE_STYLE_USAGE ( .BOTH. , #259 ) ;
#116 = DIRECTION ( 'NONE',  ( -3.061616997868380553E-17, 1.000000000000000000, -0.000000000000000000 ) ) ;
#117 = AXIS2_PLACEMENT_3D ( 'NONE', #305, #91, #182 ) ;
#118 = PRODUCT_DEFINITION ( 'UNKNOWN', '', #186, #126 ) ;
#119 = CARTESIAN_POINT ( 'NONE',  ( 0.000000000000000000, 0.000000000000000000, 0.000000000000000000 ) ) ;
#120 = CARTESIAN_POINT ( 'NONE',  ( 0.000000000000000000, 1.500000000000000222, 0.000000000000000000 ) ) ;
#121 = DIRECTION ( 'NONE',  ( -1.000000000000000000, 0.000000000000000000, 0.000000000000000000 ) ) ;
#122 = SURFACE_STYLE_FILL_AREA ( #240 ) ;
#123 = ORIENTED_EDGE ( 'NONE', *, *, #98, .F. ) ;
#124 = DIRECTION ( 'NONE',  ( 0.000000000000000000, 0.000000000000000000, -1.000000000000000000 ) ) ;
#125 = MECHANICAL_DESIGN_GEOMETRIC_PRESENTATION_REPRESENTATION (  '', ( #13 ), #191 ) ;
#126 = PRODUCT_DEFINITION_CONTEXT ( 'detailed design', #3, 'design' ) ;
#127 = PRESENTATION_STYLE_ASSIGNMENT (( #8 ) ) ;
#128 = DIRECTION ( 'NONE',  ( 0.000000000000000000, 0.000000000000000000, -1.000000000000000000 ) ) ;
#129 = ORIENTED_EDGE ( 'NONE', *, *, #76, .F. ) ;
#130 = ORIENTED_EDGE ( 'NONE', *, *, #29, .T. ) ;
#131 = DIRECTION ( 'NONE',  ( 0.000000000000000000, 0.000000000000000000, -1.000000000000000000 ) ) ;
#132 = CARTESIAN_POINT ( 'NONE',  ( 0.1875000000000000278, 3.500000000000000000, 2.296212748401288342E-17 ) ) ;
#133 = FACE_OUTER_BOUND ( 'NONE', #135, .T. ) ;
#134 = EDGE_CURVE ( 'NONE', #46, #15, #161, .T. ) ;
#135 = EDGE_LOOP ( 'NONE', ( #166, #30 ) ) ;
#136 = DIMENSIONAL_EXPONENTS ( 1.000000000000000000, 0.000000000000000000, 0.000000000000000000, 0.000000000000000000, 0.000000000000000000, 0.000000000000000000, 0.000000000000000000 ) ;
#137 =( CONVERSION_BASED_UNIT ( 'INCH', #106 ) LENGTH_UNIT ( ) NAMED_UNIT ( #96 ) );
#138 = EDGE_CURVE ( 'NONE', #15, #229, #49, .T. ) ;
#139 = CARTESIAN_POINT ( 'NONE',  ( -6.123233995736759873E-17, 3.500000000000000000, 0.000000000000000000 ) ) ;
#140 = CARTESIAN_POINT ( 'NONE',  ( -6.123233995736759873E-17, 3.500000000000000000, 0.000000000000000000 ) ) ;
#141 = MANIFOLD_SOLID_BREP ( 'Revolve - Tool Body (Straight Shanked)', #167 ) ;
#142 =( GEOMETRIC_REPRESENTATION_CONTEXT ( 3 ) GLOBAL_UNCERTAINTY_ASSIGNED_CONTEXT ( ( #107 ) ) GLOBAL_UNIT_ASSIGNED_CONTEXT ( ( #137, #234, #112 ) ) REPRESENTATION_CONTEXT ( 'NONE', 'WORKASPACE' ) );
#143 = CYLINDRICAL_SURFACE ( 'NONE', #4, 0.1875000000000000833 ) ;
#144 = LENGTH_MEASURE_WITH_UNIT ( LENGTH_MEASURE( 0.02539999999999999897 ), #86 );
#145 = UNCERTAINTY_MEASURE_WITH_UNIT (LENGTH_MEASURE( 1.000000000000000082E-05 ), #177, 'distance_accuracy_value', 'NONE');
#146 = CIRCLE ( 'NONE', #5, 0.1875000000000000555 ) ;
#147 = CARTESIAN_POINT ( 'NONE',  ( 0.000000000000000000, 1.500000000000000222, 0.000000000000000000 ) ) ;
#148 = EDGE_CURVE ( 'NONE', #87, #249, #146, .T. ) ;
#149 = CIRCLE ( 'NONE', #190, 0.1875000000000000555 ) ;
#150 = LINE ( 'NONE', #132, #7 ) ;
#151 = DIRECTION ( 'NONE',  ( -3.061616997868380553E-17, 1.000000000000000000, -0.000000000000000000 ) ) ;
#152 = STYLED_ITEM ( 'NONE', ( #44 ), #42 ) ;
#153 =( GEOMETRIC_REPRESENTATION_CONTEXT ( 3 ) GLOBAL_UNCERTAINTY_ASSIGNED_CONTEXT ( ( #195 ) ) GLOBAL_UNIT_ASSIGNED_CONTEXT ( ( #248, #198, #100 ) ) REPRESENTATION_CONTEXT ( 'NONE', 'WORKASPACE' ) );
#154 =( LENGTH_UNIT ( ) NAMED_UNIT ( * ) SI_UNIT ( $, .METRE. ) );
#155 = FILL_AREA_STYLE ('',( #68 ) ) ;
#156 = DIMENSIONAL_EXPONENTS ( 1.000000000000000000, 0.000000000000000000, 0.000000000000000000, 0.000000000000000000, 0.000000000000000000, 0.000000000000000000, 0.000000000000000000 ) ;
#157 = SURFACE_SIDE_STYLE ('',( #251 ) ) ;
#158 = ADVANCED_FACE ( 'NONE', ( #308 ), #10, .T. ) ;
#159 = SURFACE_STYLE_FILL_AREA ( #71 ) ;
#160 = PRESENTATION_LAYER_ASSIGNMENT (  '', '', ( #285 ) ) ;
#161 = LINE ( 'NONE', #111, #172 ) ;
#162 = ADVANCED_FACE ( 'NONE', ( #204 ), #31, .F. ) ;
#163 = MECHANICAL_DESIGN_GEOMETRIC_PRESENTATION_REPRESENTATION (  '', ( #152 ), #142 ) ;
#164 = PRESENTATION_LAYER_ASSIGNMENT (  '', '', ( #239 ) ) ;
#165 =( NAMED_UNIT ( * ) PLANE_ANGLE_UNIT ( ) SI_UNIT ( $, .RADIAN. ) );
#166 = ORIENTED_EDGE ( 'NONE', *, *, #29, .F. ) ;
#167 = CLOSED_SHELL ( 'NONE', ( #85, #2, #58, #162 ) ) ;
#168 =( GEOMETRIC_REPRESENTATION_CONTEXT ( 3 ) GLOBAL_UNCERTAINTY_ASSIGNED_CONTEXT ( ( #145 ) ) GLOBAL_UNIT_ASSIGNED_CONTEXT ( ( #177, #165, #293 ) ) REPRESENTATION_CONTEXT ( 'NONE', 'WORKASPACE' ) );
#169 = DIRECTION ( 'NONE',  ( 0.000000000000000000, 0.000000000000000000, -1.000000000000000000 ) ) ;
#170 = DIRECTION ( 'NONE',  ( 0.000000000000000000, -1.000000000000000000, -0.000000000000000000 ) ) ;
#171 = EDGE_CURVE ( 'NONE', #66, #176, #90, .T. ) ;
#172 = VECTOR ( 'NONE', #213, 39.37007874015748143 ) ;
#173 = PRESENTATION_LAYER_ASSIGNMENT (  '', '', ( #13 ) ) ;
#174 = SURFACE_STYLE_FILL_AREA ( #83 ) ;
#175 = LENGTH_MEASURE_WITH_UNIT ( LENGTH_MEASURE( 0.02539999999999999897 ), #226 );
#176 = VERTEX_POINT ( 'NONE', #12 ) ;
#177 =( CONVERSION_BASED_UNIT ( 'INCH', #14 ) LENGTH_UNIT ( ) NAMED_UNIT ( #187 ) );
#178 = AXIS2_PLACEMENT_3D ( 'NONE', #37, #170, #104 ) ;
#179 = ORIENTED_EDGE ( 'NONE', *, *, #28, .F. ) ;
#180 = EDGE_LOOP ( 'NONE', ( #252, #43, #123, #129 ) ) ;
#181 = EDGE_LOOP ( 'NONE', ( #200, #230 ) ) ;
#182 = DIRECTION ( 'NONE',  ( -1.000000000000000000, 0.000000000000000000, 0.000000000000000000 ) ) ;
#183 = ADVANCED_FACE ( 'NONE', ( #270 ), #222, .T. ) ;
#184 = UNCERTAINTY_MEASURE_WITH_UNIT (LENGTH_MEASURE( 1.000000000000000082E-05 ), #241, 'distance_accuracy_value', 'NONE');
#185 = CARTESIAN_POINT ( 'NONE',  ( 0.000000000000000000, 1.500000000000000222, 0.000000000000000000 ) ) ;
#186 = PRODUCT_DEFINITION_FORMATION_WITH_SPECIFIED_SOURCE ( 'ANY', '', #103, .NOT_KNOWN. ) ;
#187 = DIMENSIONAL_EXPONENTS ( 1.000000000000000000, 0.000000000000000000, 0.000000000000000000, 0.000000000000000000, 0.000000000000000000, 0.000000000000000000, 0.000000000000000000 ) ;
#188 = ADVANCED_FACE ( 'NONE', ( #245 ), #93, .T. ) ;
#189 = SURFACE_SIDE_STYLE ('',( #122 ) ) ;
#190 = AXIS2_PLACEMENT_3D ( 'NONE', #284, #53, #74 ) ;
#191 =( GEOMETRIC_REPRESENTATION_CONTEXT ( 3 ) GLOBAL_UNCERTAINTY_ASSIGNED_CONTEXT ( ( #77 ) ) GLOBAL_UNIT_ASSIGNED_CONTEXT ( ( #41, #250, #47 ) ) REPRESENTATION_CONTEXT ( 'NONE', 'WORKASPACE' ) );
#192 = FILL_AREA_STYLE_COLOUR ( '', #56 ) ;
#193 = ADVANCED_FACE ( 'NONE', ( #235 ), #105, .T. ) ;
#194 = PRESENTATION_STYLE_ASSIGNMENT (( #80 ) ) ;
#195 = UNCERTAINTY_MEASURE_WITH_UNIT (LENGTH_MEASURE( 1.000000000000000082E-05 ), #248, 'distance_accuracy_value', 'NONE');
#196 = SURFACE_STYLE_USAGE ( .BOTH. , #216 ) ;
#197 = CARTESIAN_POINT ( 'NONE',  ( 0.000000000000000000, 0.000000000000000000, 0.000000000000000000 ) ) ;
#198 =( NAMED_UNIT ( * ) PLANE_ANGLE_UNIT ( ) SI_UNIT ( $, .RADIAN. ) );
#199 = APPLICATION_PROTOCOL_DEFINITION ( 'draft international standard', 'automotive_design', 1998, #3 ) ;
#200 = ORIENTED_EDGE ( 'NONE', *, *, #138, .T. ) ;
#201 =( CONVERSION_BASED_UNIT ( 'INCH', #175 ) LENGTH_UNIT ( ) NAMED_UNIT ( #264 ) );
#202 = AXIS2_PLACEMENT_3D ( 'NONE', #221, #79, #169 ) ;
#203 = PRODUCT_DEFINITION_SHAPE ( 'NONE', 'NONE',  #118 ) ;
#204 = FACE_OUTER_BOUND ( 'NONE', #181, .T. ) ;
#205 = CARTESIAN_POINT ( 'NONE',  ( 0.1875000000000000555, 1.500000000000000222, 2.296212748401288342E-17 ) ) ;
#206 = CARTESIAN_POINT ( 'NONE',  ( 0.000000000000000000, 1.500000000000000222, 0.000000000000000000 ) ) ;
#207 = ORIENTED_EDGE ( 'NONE', *, *, #148, .F. ) ;
#208 = ORIENTED_EDGE ( 'NONE', *, *, #89, .T. ) ;
#209 = PRESENTATION_LAYER_ASSIGNMENT (  '', '', ( #152 ) ) ;
#210 = DIRECTION ( 'NONE',  ( -0.000000000000000000, -1.000000000000000000, -0.000000000000000000 ) ) ;
#211 = FILL_AREA_STYLE_COLOUR ( '', #67 ) ;
#212 = DIRECTION ( 'NONE',  ( -1.000000000000000000, 0.000000000000000000, 0.000000000000000000 ) ) ;
#213 = DIRECTION ( 'NONE',  ( -3.061616997868380553E-17, 1.000000000000000000, -0.000000000000000000 ) ) ;
#214 = AXIS2_PLACEMENT_3D ( 'NONE', #197, #59, #131 ) ;
#215 = ADVANCED_BREP_SHAPE_REPRESENTATION ( '44247', ( #42, #141, #268 ), #75 ) ;
#216 = SURFACE_SIDE_STYLE ('',( #269 ) ) ;
#217 = MECHANICAL_DESIGN_GEOMETRIC_PRESENTATION_REPRESENTATION (  '', ( #99 ), #224 ) ;
#218 = SURFACE_SIDE_STYLE ('',( #174 ) ) ;
#219 = APPLICATION_PROTOCOL_DEFINITION ( 'draft international standard', 'automotive_design', 1998, #228 ) ;
#220 = EDGE_LOOP ( 'NONE', ( #292, #69 ) ) ;
#221 = CARTESIAN_POINT ( 'NONE',  ( 0.000000000000000000, 0.000000000000000000, 0.000000000000000000 ) ) ;
#222 = PLANE ( 'NONE',  #178 ) ;
#223 = COLOUR_RGB ( '',0.7921568627450980005, 0.8196078431372548767, 0.9333333333333333481 ) ;
#224 =( GEOMETRIC_REPRESENTATION_CONTEXT ( 3 ) GLOBAL_UNCERTAINTY_ASSIGNED_CONTEXT ( ( #233 ) ) GLOBAL_UNIT_ASSIGNED_CONTEXT ( ( #291, #6, #81 ) ) REPRESENTATION_CONTEXT ( 'NONE', 'WORKASPACE' ) );
#225 = CARTESIAN_POINT ( 'NONE',  ( 0.1875000000000000555, 3.500000000000000000, 0.000000000000000000 ) ) ;
#226 =( LENGTH_UNIT ( ) NAMED_UNIT ( * ) SI_UNIT ( $, .METRE. ) );
#227 =( LENGTH_UNIT ( ) NAMED_UNIT ( * ) SI_UNIT ( $, .METRE. ) );
#228 = APPLICATION_CONTEXT ( 'automotive_design' ) ;
#229 = VERTEX_POINT ( 'NONE', #63 ) ;
#230 = ORIENTED_EDGE ( 'NONE', *, *, #32, .T. ) ;
#231 = AXIS2_PLACEMENT_3D ( 'NONE', #119, #70, #306 ) ;
#232 = CIRCLE ( 'NONE', #303, 0.1875000000000000555 ) ;
#233 = UNCERTAINTY_MEASURE_WITH_UNIT (LENGTH_MEASURE( 1.000000000000000082E-05 ), #291, 'distance_accuracy_value', 'NONE');
#234 =( NAMED_UNIT ( * ) PLANE_ANGLE_UNIT ( ) SI_UNIT ( $, .RADIAN. ) );
#235 = FACE_OUTER_BOUND ( 'NONE', #304, .T. ) ;
#236 = FILL_AREA_STYLE_COLOUR ( '', #309 ) ;
#237 = DIMENSIONAL_EXPONENTS ( 1.000000000000000000, 0.000000000000000000, 0.000000000000000000, 0.000000000000000000, 0.000000000000000000, 0.000000000000000000, 0.000000000000000000 ) ;
#238 = CLOSED_SHELL ( 'NONE', ( #158, #188, #193, #183 ) ) ;
#239 = STYLED_ITEM ( 'NONE', ( #194 ), #141 ) ;
#240 = FILL_AREA_STYLE ('',( #192 ) ) ;
#241 =( CONVERSION_BASED_UNIT ( 'INCH', #144 ) LENGTH_UNIT ( ) NAMED_UNIT ( #156 ) );
#242 = AXIS2_PLACEMENT_3D ( 'NONE', #140, #262, #92 ) ;
#243 = AXIS2_PLACEMENT_3D ( 'NONE', #225, #296, #40 ) ;
#244 = ORIENTED_EDGE ( 'NONE', *, *, #273, .F. ) ;
#245 = FACE_OUTER_BOUND ( 'NONE', #246, .T. ) ;
#246 = EDGE_LOOP ( 'NONE', ( #207, #276 ) ) ;
#247 = VERTEX_POINT ( 'NONE', #205 ) ;
#248 =( CONVERSION_BASED_UNIT ( 'INCH', #101 ) LENGTH_UNIT ( ) NAMED_UNIT ( #136 ) );
#249 = VERTEX_POINT ( 'NONE', #299 ) ;
#250 =( NAMED_UNIT ( * ) PLANE_ANGLE_UNIT ( ) SI_UNIT ( $, .RADIAN. ) );
#251 = SURFACE_STYLE_FILL_AREA ( #155 ) ;
#252 = ORIENTED_EDGE ( 'NONE', *, *, #148, .T. ) ;
#253 = AXIS2_PLACEMENT_3D ( 'NONE', #206, #151, #261 ) ;
#254 =( NAMED_UNIT ( * ) PLANE_ANGLE_UNIT ( ) SI_UNIT ( $, .RADIAN. ) );
#255 = PRODUCT_CONTEXT ( 'NONE', #228, 'mechanical' ) ;
#256 = DIRECTION ( 'NONE',  ( -0.000000000000000000, -1.000000000000000000, -0.000000000000000000 ) ) ;
#257 = ORIENTED_EDGE ( 'NONE', *, *, #134, .F. ) ;
#258 = SURFACE_STYLE_FILL_AREA ( #281 ) ;
#259 = SURFACE_SIDE_STYLE ('',( #159 ) ) ;
#260 = CARTESIAN_POINT ( 'NONE',  ( -0.1875000000000000555, 1.500000000000000222, 0.000000000000000000 ) ) ;
#261 = DIRECTION ( 'NONE',  ( -1.000000000000000000, 0.000000000000000000, 0.000000000000000000 ) ) ;
#262 = DIRECTION ( 'NONE',  ( -3.061616997868380553E-17, 1.000000000000000000, -0.000000000000000000 ) ) ;
#263 = FACE_OUTER_BOUND ( 'NONE', #39, .T. ) ;
#264 = DIMENSIONAL_EXPONENTS ( 1.000000000000000000, 0.000000000000000000, 0.000000000000000000, 0.000000000000000000, 0.000000000000000000, 0.000000000000000000, 0.000000000000000000 ) ;
#265 = VECTOR ( 'NONE', #210, 39.37007874015748143 ) ;
#266 = COLOUR_RGB ( '',1.000000000000000000, 0.000000000000000000, 0.000000000000000000 ) ;
#267 = SURFACE_STYLE_USAGE ( .BOTH. , #189 ) ;
#268 = AXIS2_PLACEMENT_3D ( 'NONE', #88, #11, #60 ) ;
#269 = SURFACE_STYLE_FILL_AREA ( #277 ) ;
#270 = FACE_OUTER_BOUND ( 'NONE', #220, .T. ) ;
#271 = VECTOR ( 'NONE', #24, 39.37007874015748143 ) ;
#272 = STYLED_ITEM ( 'NONE', ( #295 ), #188 ) ;
#273 = EDGE_CURVE ( 'NONE', #247, #229, #150, .T. ) ;
#274 = ORIENTED_EDGE ( 'NONE', *, *, #76, .T. ) ;
#275 = DIRECTION ( 'NONE',  ( -0.000000000000000000, -1.000000000000000000, -0.000000000000000000 ) ) ;
#276 = ORIENTED_EDGE ( 'NONE', *, *, #289, .F. ) ;
#277 = FILL_AREA_STYLE ('',( #1 ) ) ;
#278 = CARTESIAN_POINT ( 'NONE',  ( 2.296212748401288034E-17, 0.000000000000000000, 0.1875000000000000555 ) ) ;
#279 = EDGE_LOOP ( 'NONE', ( #130, #297, #9, #257 ) ) ;
#280 = DIRECTION ( 'NONE',  ( 0.000000000000000000, -0.000000000000000000, 1.000000000000000000 ) ) ;
#281 = FILL_AREA_STYLE ('',( #236 ) ) ;
#282 =( NAMED_UNIT ( * ) SI_UNIT ( $, .STERADIAN. ) SOLID_ANGLE_UNIT ( ) );
#283 = DIRECTION ( 'NONE',  ( -1.000000000000000000, -3.061616997868380553E-17, 0.000000000000000000 ) ) ;
#284 = CARTESIAN_POINT ( 'NONE',  ( 0.000000000000000000, 1.500000000000000222, 0.000000000000000000 ) ) ;
#285 = STYLED_ITEM ( 'NONE', ( #127 ), #183 ) ;
#286 = CARTESIAN_POINT ( 'NONE',  ( 0.000000000000000000, 1.500000000000000222, -0.1875000000000000555 ) ) ;
#287 = PRODUCT_RELATED_PRODUCT_CATEGORY ( 'part', '', ( #103 ) ) ;
#288 = FACE_OUTER_BOUND ( 'NONE', #279, .T. ) ;
#289 = EDGE_CURVE ( 'NONE', #249, #87, #232, .T. ) ;
#290 = MECHANICAL_DESIGN_GEOMETRIC_PRESENTATION_REPRESENTATION (  '', ( #285 ), #153 ) ;
#291 =( CONVERSION_BASED_UNIT ( 'INCH', #55 ) LENGTH_UNIT ( ) NAMED_UNIT ( #302 ) );
#292 = ORIENTED_EDGE ( 'NONE', *, *, #98, .T. ) ;
#293 =( NAMED_UNIT ( * ) SI_UNIT ( $, .STERADIAN. ) SOLID_ANGLE_UNIT ( ) );
#294 = UNCERTAINTY_MEASURE_WITH_UNIT (LENGTH_MEASURE( 1.000000000000000082E-05 ), #201, 'distance_accuracy_value', 'NONE');
#295 = PRESENTATION_STYLE_ASSIGNMENT (( #196 ) ) ;
#296 = DIRECTION ( 'NONE',  ( 3.061616997868380553E-17, -1.000000000000000000, 0.000000000000000000 ) ) ;
#297 = ORIENTED_EDGE ( 'NONE', *, *, #273, .T. ) ;
#298 =( LENGTH_UNIT ( ) NAMED_UNIT ( * ) SI_UNIT ( $, .METRE. ) );
#299 = CARTESIAN_POINT ( 'NONE',  ( 2.296212748401288034E-17, 1.500000000000000222, 0.1875000000000000555 ) ) ;
#300 = AXIS2_PLACEMENT_3D ( 'NONE', #185, #20, #280 ) ;
#301 =( LENGTH_UNIT ( ) NAMED_UNIT ( * ) SI_UNIT ( $, .METRE. ) );
#302 = DIMENSIONAL_EXPONENTS ( 1.000000000000000000, 0.000000000000000000, 0.000000000000000000, 0.000000000000000000, 0.000000000000000000, 0.000000000000000000, 0.000000000000000000 ) ;
#303 = AXIS2_PLACEMENT_3D ( 'NONE', #147, #102, #64 ) ;
#304 = EDGE_LOOP ( 'NONE', ( #179, #38, #274, #114 ) ) ;
#305 = CARTESIAN_POINT ( 'NONE',  ( -6.123233995736759873E-17, 3.500000000000000000, 0.000000000000000000 ) ) ;
#306 = DIRECTION ( 'NONE',  ( 0.000000000000000000, 0.000000000000000000, -1.000000000000000000 ) ) ;
#307 = CARTESIAN_POINT ( 'NONE',  ( 2.296212748401287726E-17, 0.000000000000000000, 0.1875000000000000278 ) ) ;
#308 = FACE_OUTER_BOUND ( 'NONE', #180, .T. ) ;
#309 = COLOUR_RGB ( '',0.7921568627450980005, 0.8196078431372548767, 0.9333333333333333481 ) ;
ENDSEC;
END-ISO-10303-21;
