ISO-10303-21;
HEADER;
FILE_DESCRIPTION (( 'STEP AP214' ),
    '1' );
FILE_NAME ('Micro_SBMM-020-316.STEP',
    '2021-09-02T17:04:57',
    ( '' ),
    ( '' ),
    'SwSTEP 2.0',
    'SolidWorks 2020',
    '' );
FILE_SCHEMA (( 'AUTOMOTIVE_DESIGN' ));
ENDSEC;

DATA;
#1 = PRODUCT_CONTEXT ( 'NONE', #66, 'mechanical' ) ;
#2 = DIRECTION ( 'NONE',  ( 1.000000000000000000, 0.0000000000000000000, 0.0000000000000000000 ) ) ;
#3 = EDGE_CURVE ( 'NONE', #287, #74, #229, .T. ) ;
#4 = ORIENTED_EDGE ( 'NONE', *, *, #33, .T. ) ;
#5 = VECTOR ( 'NONE', #188, 39.37007874015748143 ) ;
#6 = EDGE_CURVE ( 'NONE', #102, #248, #99, .T. ) ;
#7 = DIRECTION ( 'NONE',  ( 0.0000000000000000000, 0.0000000000000000000, 1.000000000000000000 ) ) ;
#8 = SURFACE_STYLE_USAGE ( .BOTH. , #148 ) ;
#9 = LINE ( 'NONE', #283, #159 ) ;
#10 = DIRECTION ( 'NONE',  ( -0.0000000000000000000, -0.0000000000000000000, -1.000000000000000000 ) ) ;
#11 = CIRCLE ( 'NONE', #156, 0.02559049999999998132 ) ;
#12 = ADVANCED_FACE ( 'NONE', ( #203 ), #238, .T. ) ;
#13 = CARTESIAN_POINT ( 'NONE',  ( 0.1031099999999991745, 1.262733314600825725E-17, 2.952755999999999936 ) ) ;
#14 = SURFACE_SIDE_STYLE ('',( #331 ) ) ;
#15 =( NAMED_UNIT ( * ) PLANE_ANGLE_UNIT ( ) SI_UNIT ( $, .RADIAN. ) );
#16 = EDGE_CURVE ( 'NONE', #266, #323, #334, .T. ) ;
#17 = COLOUR_RGB ( '',0.7921568627450980005, 0.8196078431372548767, 0.9333333333333333481 ) ;
#18 = COLOUR_RGB ( '',0.7921568627450980005, 0.8196078431372548767, 0.9333333333333333481 ) ;
#19 = CYLINDRICAL_SURFACE ( 'NONE', #249, 0.02559049999999995356 ) ;
#20 = AXIS2_PLACEMENT_3D ( 'NONE', #121, #147, #82 ) ;
#21 = AXIS2_PLACEMENT_3D ( 'NONE', #104, #218, #103 ) ;
#22 = CARTESIAN_POINT ( 'NONE',  ( 0.1031099999999991745, 1.354581824536882559E-17, 2.952755999999999936 ) ) ;
#23 = EDGE_LOOP ( 'NONE', ( #247, #149, #32, #264 ) ) ;
#24 = DIRECTION ( 'NONE',  ( -0.0000000000000000000, -0.0000000000000000000, -1.000000000000000000 ) ) ;
#25 = ORIENTED_EDGE ( 'NONE', *, *, #245, .T. ) ;
#26 = EDGE_CURVE ( 'NONE', #211, #102, #230, .T. ) ;
#27 = ORIENTED_EDGE ( 'NONE', *, *, #143, .F. ) ;
#28 = EDGE_CURVE ( 'NONE', #248, #189, #295, .T. ) ;
#29 = AXIS2_PLACEMENT_3D ( 'NONE', #158, #262, #137 ) ;
#30 = ORIENTED_EDGE ( 'NONE', *, *, #157, .T. ) ;
#31 = ADVANCED_BREP_SHAPE_REPRESENTATION ( 'Micro_SBMM-020-316', ( #174, #318 ), #233 ) ;
#32 = ORIENTED_EDGE ( 'NONE', *, *, #87, .T. ) ;
#33 = EDGE_CURVE ( 'NONE', #211, #213, #152, .T. ) ;
#34 = DIRECTION ( 'NONE',  ( -1.000000000000000000, 0.0000000000000000000, 0.0000000000000000000 ) ) ;
#35 = CARTESIAN_POINT ( 'NONE',  ( 0.02559049999999998132, 3.133932391358031704E-18, 0.06928860975630385388 ) ) ;
#36 = DIRECTION ( 'NONE',  ( 0.0000000000000000000, 0.0000000000000000000, 1.000000000000000000 ) ) ;
#37 = DIRECTION ( 'NONE',  ( -0.0000000000000000000, -0.0000000000000000000, -1.000000000000000000 ) ) ;
#38 = VERTEX_POINT ( 'NONE', #88 ) ;
#39 = ORIENTED_EDGE ( 'NONE', *, *, #308, .F. ) ;
#40 = AXIS2_PLACEMENT_3D ( 'NONE', #115, #123, #292 ) ;
#41 = CARTESIAN_POINT ( 'NONE',  ( -0.02559049999999995356, 0.0000000000000000000, 0.0000000000000000000 ) ) ;
#42 = FACE_OUTER_BOUND ( 'NONE', #191, .T. ) ;
#43 = CARTESIAN_POINT ( 'NONE',  ( 0.0000000000000000000, 0.0000000000000000000, 1.784218148936167481 ) ) ;
#44 = AXIS2_PLACEMENT_3D ( 'NONE', #224, #10, #83 ) ;
#45 = ORIENTED_EDGE ( 'NONE', *, *, #16, .F. ) ;
#46 = AXIS2_PLACEMENT_3D ( 'NONE', #77, #190, #261 ) ;
#47 = CARTESIAN_POINT ( 'NONE',  ( 3.133932391358032860E-18, -0.02559049999999999173, 0.06928860975630385388 ) ) ;
#48 = PRODUCT_DEFINITION_FORMATION_WITH_SPECIFIED_SOURCE ( 'ANY', '', #145, .NOT_KNOWN. ) ;
#49 = EDGE_LOOP ( 'NONE', ( #39, #25, #187, #108 ) ) ;
#50 =( LENGTH_UNIT ( ) NAMED_UNIT ( * ) SI_UNIT ( $, .METRE. ) );
#51 = ORIENTED_EDGE ( 'NONE', *, *, #217, .F. ) ;
#52 = LINE ( 'NONE', #240, #5 ) ;
#53 = ORIENTED_EDGE ( 'NONE', *, *, #301, .T. ) ;
#54 = SHAPE_DEFINITION_REPRESENTATION ( #201, #31 ) ;
#55 = DIRECTION ( 'NONE',  ( -1.000000000000000000, 0.0000000000000000000, 0.0000000000000000000 ) ) ;
#56 = CARTESIAN_POINT ( 'NONE',  ( 0.1299209999999997867, 0.0000000000000000000, 1.784218148936167481 ) ) ;
#57 = DIRECTION ( 'NONE',  ( -1.000000000000000000, 0.0000000000000000000, 0.0000000000000000000 ) ) ;
#58 = PRESENTATION_LAYER_ASSIGNMENT (  '', '', ( #317 ) ) ;
#59 = DIRECTION ( 'NONE',  ( -0.0000000000000000000, -0.0000000000000000000, -1.000000000000000000 ) ) ;
#60 = PRODUCT_RELATED_PRODUCT_CATEGORY ( 'part', '', ( #145 ) ) ;
#61 = EDGE_LOOP ( 'NONE', ( #288, #284, #339, #231, #241 ) ) ;
#62 = CARTESIAN_POINT ( 'NONE',  ( 0.0000000000000000000, 0.0000000000000000000, 0.03937000000000000915 ) ) ;
#63 = AXIS2_PLACEMENT_3D ( 'NONE', #97, #280, #258 ) ;
#64 = ADVANCED_FACE ( 'NONE', ( #167 ), #197, .T. ) ;
#65 = SPHERICAL_SURFACE ( 'NONE', #165, 0.03936999999999999528 ) ;
#66 = APPLICATION_CONTEXT ( 'automotive_design' ) ;
#67 = DIRECTION ( 'NONE',  ( 1.000000000000000000, 0.0000000000000000000, 0.0000000000000000000 ) ) ;
#68 = DIRECTION ( 'NONE',  ( -1.000000000000000000, 0.0000000000000000000, 0.0000000000000000000 ) ) ;
#69 = AXIS2_PLACEMENT_3D ( 'NONE', #129, #281, #180 ) ;
#70 = DIRECTION ( 'NONE',  ( 0.0000000000000000000, 0.0000000000000000000, 1.000000000000000000 ) ) ;
#71 = DIRECTION ( 'NONE',  ( -0.7071067811865486830, 0.0000000000000000000, -0.7071067811865462405 ) ) ;
#72 = ORIENTED_EDGE ( 'NONE', *, *, #6, .F. ) ;
#73 = DIRECTION ( 'NONE',  ( -0.0000000000000000000, -0.0000000000000000000, -1.000000000000000000 ) ) ;
#74 = VERTEX_POINT ( 'NONE', #202 ) ;
#75 = DIRECTION ( 'NONE',  ( -0.0000000000000000000, -0.0000000000000000000, -1.000000000000000000 ) ) ;
#76 = VERTEX_POINT ( 'NONE', #172 ) ;
#77 = CARTESIAN_POINT ( 'NONE',  ( 0.0000000000000000000, 0.0000000000000000000, 2.937755999999999368 ) ) ;
#78 = ORIENTED_EDGE ( 'NONE', *, *, #3, .F. ) ;
#79 = CARTESIAN_POINT ( 'NONE',  ( -0.1031099999999991745, 0.0000000000000000000, 2.952755999999999936 ) ) ;
#80 = PRESENTATION_STYLE_ASSIGNMENT (( #8 ) ) ;
#81 = AXIS2_PLACEMENT_3D ( 'NONE', #43, #70, #257 ) ;
#82 = DIRECTION ( 'NONE',  ( 1.000000000000000000, 0.0000000000000000000, 0.0000000000000000000 ) ) ;
#83 = DIRECTION ( 'NONE',  ( -1.000000000000000000, 0.0000000000000000000, 0.0000000000000000000 ) ) ;
#84 = ADVANCED_FACE ( 'NONE', ( #171 ), #91, .T. ) ;
#85 = DIRECTION ( 'NONE',  ( -0.0000000000000000000, -0.0000000000000000000, -1.000000000000000000 ) ) ;
#86 = CARTESIAN_POINT ( 'NONE',  ( 0.0000000000000000000, 0.0000000000000000000, 0.0000000000000000000 ) ) ;
#87 = EDGE_CURVE ( 'NONE', #246, #287, #294, .T. ) ;
#88 = CARTESIAN_POINT ( 'NONE',  ( 0.1181100000000000344, 1.446430334472939084E-17, 2.937755999999999368 ) ) ;
#89 = CLOSED_SHELL ( 'NONE', ( #275, #64, #12, #320, #179, #84, #274, #175, #119, #140, #198 ) ) ;
#90 = CIRCLE ( 'NONE', #312, 0.1031099999999991745 ) ;
#91 = CYLINDRICAL_SURFACE ( 'NONE', #239, 0.1181100000000000344 ) ;
#92 =( CONVERSION_BASED_UNIT ( 'INCH', #176 ) LENGTH_UNIT ( ) NAMED_UNIT ( #219 ) );
#93 = UNCERTAINTY_MEASURE_WITH_UNIT (LENGTH_MEASURE( 1.000000000000000082E-05 ), #342, 'distance_accuracy_value', 'NONE');
#94 = CARTESIAN_POINT ( 'NONE',  ( -0.02559049999999998132, 0.0000000000000000000, 0.06928860975630385388 ) ) ;
#95 = AXIS2_PLACEMENT_3D ( 'NONE', #273, #315, #57 ) ;
#96 = FILL_AREA_STYLE_COLOUR ( '', #17 ) ;
#97 = CARTESIAN_POINT ( 'NONE',  ( 0.0000000000000000000, 0.0000000000000000000, 0.6299209999999999532 ) ) ;
#98 = DIRECTION ( 'NONE',  ( -0.0000000000000000000, -0.0000000000000000000, -1.000000000000000000 ) ) ;
#99 = CIRCLE ( 'NONE', #164, 0.02559049999999998132 ) ;
#100 = CIRCLE ( 'NONE', #46, 0.1181100000000000344 ) ;
#101 = LINE ( 'NONE', #79, #268 ) ;
#102 = VERTEX_POINT ( 'NONE', #35 ) ;
#103 = DIRECTION ( 'NONE',  ( 1.000000000000000000, 0.0000000000000000000, 0.0000000000000000000 ) ) ;
#104 = CARTESIAN_POINT ( 'NONE',  ( 0.0000000000000000000, 0.0000000000000000000, 2.937755999999999368 ) ) ;
#105 = ORIENTED_EDGE ( 'NONE', *, *, #6, .T. ) ;
#106 = VECTOR ( 'NONE', #131, 39.37007874015748143 ) ;
#107 = PLANE ( 'NONE',  #225 ) ;
#108 = ORIENTED_EDGE ( 'NONE', *, *, #237, .T. ) ;
#109 = EDGE_CURVE ( 'NONE', #189, #211, #11, .T. ) ;
#110 = ORIENTED_EDGE ( 'NONE', *, *, #143, .T. ) ;
#111 = LENGTH_MEASURE_WITH_UNIT ( LENGTH_MEASURE( 0.02539999999999999897 ), #120 );
#112 = CARTESIAN_POINT ( 'NONE',  ( 0.0000000000000000000, 0.0000000000000000000, 2.952755999999999936 ) ) ;
#113 = EDGE_CURVE ( 'NONE', #76, #74, #9, .T. ) ;
#114 = CIRCLE ( 'NONE', #29, 0.02559049999999992234 ) ;
#115 = CARTESIAN_POINT ( 'NONE',  ( 0.0000000000000000000, 0.0000000000000000000, 0.03937000000000000915 ) ) ;
#116 = DIMENSIONAL_EXPONENTS ( 1.000000000000000000, 0.0000000000000000000, 0.0000000000000000000, 0.0000000000000000000, 0.0000000000000000000, 0.0000000000000000000, 0.0000000000000000000 ) ;
#117 = ORIENTED_EDGE ( 'NONE', *, *, #133, .F. ) ;
#118 = EDGE_CURVE ( 'NONE', #76, #246, #208, .T. ) ;
#119 = ADVANCED_FACE ( 'NONE', ( #256 ), #134, .T. ) ;
#120 =( LENGTH_UNIT ( ) NAMED_UNIT ( * ) SI_UNIT ( $, .METRE. ) );
#121 = CARTESIAN_POINT ( 'NONE',  ( 0.0000000000000000000, 0.0000000000000000000, 1.784218148936167481 ) ) ;
#122 = DIRECTION ( 'NONE',  ( 1.000000000000000000, 0.0000000000000000000, 0.0000000000000000000 ) ) ;
#123 = DIRECTION ( 'NONE',  ( 1.000000000000000000, 0.0000000000000000000, 0.0000000000000000000 ) ) ;
#124 = AXIS2_PLACEMENT_3D ( 'NONE', #250, #327, #2 ) ;
#125 = VECTOR ( 'NONE', #75, 39.37007874015748143 ) ;
#126 = FILL_AREA_STYLE ('',( #96 ) ) ;
#127 = PRESENTATION_STYLE_ASSIGNMENT (( #332 ) ) ;
#128 = VECTOR ( 'NONE', #154, 39.37007874015748143 ) ;
#129 = CARTESIAN_POINT ( 'NONE',  ( 0.0000000000000000000, 0.0000000000000000000, 0.03937000000000000915 ) ) ;
#130 = EDGE_CURVE ( 'NONE', #323, #266, #90, .T. ) ;
#131 = DIRECTION ( 'NONE',  ( -0.0000000000000000000, -0.0000000000000000000, -1.000000000000000000 ) ) ;
#132 = CARTESIAN_POINT ( 'NONE',  ( 0.0000000000000000000, 0.0000000000000000000, 1.653542999999999985 ) ) ;
#133 = EDGE_CURVE ( 'NONE', #246, #102, #255, .T. ) ;
#134 = CONICAL_SURFACE ( 'NONE', #81, 0.1299209999999997867, 0.09013951093658498226 ) ;
#135 = LENGTH_MEASURE_WITH_UNIT ( LENGTH_MEASURE( 0.02539999999999999897 ), #50 );
#136 = ORIENTED_EDGE ( 'NONE', *, *, #3, .T. ) ;
#137 = DIRECTION ( 'NONE',  ( -1.000000000000000000, 0.0000000000000000000, 0.0000000000000000000 ) ) ;
#138 = EDGE_LOOP ( 'NONE', ( #270, #199, #78, #194 ) ) ;
#139 = EDGE_LOOP ( 'NONE', ( #163, #110, #226, #296 ) ) ;
#140 = ADVANCED_FACE ( 'NONE', ( #42 ), #65, .T. ) ;
#141 = AXIS2_PLACEMENT_3D ( 'NONE', #232, #302, #68 ) ;
#142 =( NAMED_UNIT ( * ) SI_UNIT ( $, .STERADIAN. ) SOLID_ANGLE_UNIT ( ) );
#143 = EDGE_CURVE ( 'NONE', #323, #38, #333, .T. ) ;
#144 = DIRECTION ( 'NONE',  ( 0.09001749462147055902, 0.0000000000000000000, 0.9959401842791932857 ) ) ;
#145 = PRODUCT ( 'Micro_SBMM-020-316', 'Micro_SBMM-020-316', '', ( #1 ) ) ;
#146 = CONICAL_SURFACE ( 'NONE', #306, 0.1031099999999991745, 0.7853981633974500554 ) ;
#147 = DIRECTION ( 'NONE',  ( 0.0000000000000000000, 0.0000000000000000000, 1.000000000000000000 ) ) ;
#148 = SURFACE_SIDE_STYLE ('',( #321 ) ) ;
#149 = ORIENTED_EDGE ( 'NONE', *, *, #301, .F. ) ;
#150 = ORIENTED_EDGE ( 'NONE', *, *, #304, .T. ) ;
#151 = DIRECTION ( 'NONE',  ( 0.0000000000000000000, 0.0000000000000000000, 1.000000000000000000 ) ) ;
#152 = CIRCLE ( 'NONE', #336, 0.03936999999999999528 ) ;
#153 = PRESENTATION_LAYER_ASSIGNMENT (  '', '', ( #325 ) ) ;
#154 = DIRECTION ( 'NONE',  ( -0.0000000000000000000, -0.0000000000000000000, -1.000000000000000000 ) ) ;
#155 = DIRECTION ( 'NONE',  ( 1.000000000000000000, 0.0000000000000000000, 0.0000000000000000000 ) ) ;
#156 = AXIS2_PLACEMENT_3D ( 'NONE', #200, #37, #252 ) ;
#157 = EDGE_CURVE ( 'NONE', #248, #213, #170, .T. ) ;
#158 = CARTESIAN_POINT ( 'NONE',  ( 0.0000000000000000000, 0.0000000000000000000, 0.6299209999999999532 ) ) ;
#159 = VECTOR ( 'NONE', #183, 39.37007874015748854 ) ;
#160 = CYLINDRICAL_SURFACE ( 'NONE', #316, 0.02559049999999995356 ) ;
#161 = EDGE_LOOP ( 'NONE', ( #27, #45, #150, #277 ) ) ;
#162 = ORIENTED_EDGE ( 'NONE', *, *, #109, .T. ) ;
#163 = ORIENTED_EDGE ( 'NONE', *, *, #130, .F. ) ;
#164 = AXIS2_PLACEMENT_3D ( 'NONE', #253, #85, #34 ) ;
#165 = AXIS2_PLACEMENT_3D ( 'NONE', #62, #155, #207 ) ;
#166 = ORIENTED_EDGE ( 'NONE', *, *, #308, .T. ) ;
#167 = FACE_OUTER_BOUND ( 'NONE', #228, .T. ) ;
#168 = ORIENTED_EDGE ( 'NONE', *, *, #26, .T. ) ;
#169 = APPLICATION_PROTOCOL_DEFINITION ( 'draft international standard', 'automotive_design', 1998, #66 ) ;
#170 = CIRCLE ( 'NONE', #69, 0.03936999999999999528 ) ;
#171 = FACE_OUTER_BOUND ( 'NONE', #49, .T. ) ;
#172 = CARTESIAN_POINT ( 'NONE',  ( -0.02559049999999992234, 8.799117868043706652E-18, 0.6299209999999999532 ) ) ;
#173 = VERTEX_POINT ( 'NONE', #234 ) ;
#174 = MANIFOLD_SOLID_BREP ( 'Cut-Revolve3', #89 ) ;
#175 = ADVANCED_FACE ( 'NONE', ( #329 ), #271, .T. ) ;
#176 = LENGTH_MEASURE_WITH_UNIT ( LENGTH_MEASURE( 0.02539999999999999897 ), #279 );
#177 = VECTOR ( 'NONE', #144, 39.37007874015748854 ) ;
#178 = PRODUCT_DEFINITION_CONTEXT ( 'detailed design', #328, 'design' ) ;
#179 = ADVANCED_FACE ( 'NONE', ( #298 ), #235, .T. ) ;
#180 = DIRECTION ( 'NONE',  ( -1.224646799147352961E-16, 1.000000000000000000, 0.0000000000000000000 ) ) ;
#181 = CARTESIAN_POINT ( 'NONE',  ( 0.02559049999999995356, 3.133932391358028623E-18, 0.0000000000000000000 ) ) ;
#182 = EDGE_CURVE ( 'NONE', #76, #189, #278, .T. ) ;
#183 = DIRECTION ( 'NONE',  ( -0.09001749462147055902, 1.102396366554480072E-17, 0.9959401842791932857 ) ) ;
#184 = CIRCLE ( 'NONE', #21, 0.1181100000000000344 ) ;
#185 = CARTESIAN_POINT ( 'NONE',  ( 0.0000000000000000000, 0.0000000000000000000, 2.952755999999999936 ) ) ;
#186 = CARTESIAN_POINT ( 'NONE',  ( 0.0000000000000000000, 0.0000000000000000000, 2.952755999999999936 ) ) ;
#187 = ORIENTED_EDGE ( 'NONE', *, *, #217, .T. ) ;
#188 = DIRECTION ( 'NONE',  ( -0.0000000000000000000, -0.0000000000000000000, -1.000000000000000000 ) ) ;
#189 = VERTEX_POINT ( 'NONE', #94 ) ;
#190 = DIRECTION ( 'NONE',  ( 0.0000000000000000000, 0.0000000000000000000, -1.000000000000000000 ) ) ;
#191 = EDGE_LOOP ( 'NONE', ( #319, #345, #162, #4 ) ) ;
#192 = DIRECTION ( 'NONE',  ( -1.000000000000000000, 0.0000000000000000000, 0.0000000000000000000 ) ) ;
#193 = FACE_OUTER_BOUND ( 'NONE', #139, .T. ) ;
#194 = ORIENTED_EDGE ( 'NONE', *, *, #87, .F. ) ;
#195 = AXIS2_PLACEMENT_3D ( 'NONE', #112, #7, #269 ) ;
#196 = FILL_AREA_STYLE ('',( #326 ) ) ;
#197 = SPHERICAL_SURFACE ( 'NONE', #40, 0.03936999999999999528 ) ;
#198 = ADVANCED_FACE ( 'NONE', ( #300 ), #160, .T. ) ;
#199 = ORIENTED_EDGE ( 'NONE', *, *, #113, .T. ) ;
#200 = CARTESIAN_POINT ( 'NONE',  ( 0.0000000000000000000, 0.0000000000000000000, 0.06928860975630385388 ) ) ;
#201 = PRODUCT_DEFINITION_SHAPE ( 'NONE', 'NONE',  #285 ) ;
#202 = CARTESIAN_POINT ( 'NONE',  ( -0.1181100000000000344, 0.0000000000000000000, 1.653542999999999985 ) ) ;
#203 = FACE_OUTER_BOUND ( 'NONE', #138, .T. ) ;
#204 = AXIS2_PLACEMENT_3D ( 'NONE', #132, #286, #335 ) ;
#205 = MECHANICAL_DESIGN_GEOMETRIC_PRESENTATION_REPRESENTATION (  '', ( #325 ), #209 ) ;
#206 = UNCERTAINTY_MEASURE_WITH_UNIT (LENGTH_MEASURE( 1.000000000000000082E-05 ), #223, 'distance_accuracy_value', 'NONE');
#207 = DIRECTION ( 'NONE',  ( 0.0000000000000000000, 1.000000000000000000, 0.0000000000000000000 ) ) ;
#208 = CIRCLE ( 'NONE', #63, 0.02559049999999992234 ) ;
#209 =( GEOMETRIC_REPRESENTATION_CONTEXT ( 3 ) GLOBAL_UNCERTAINTY_ASSIGNED_CONTEXT ( ( #206 ) ) GLOBAL_UNIT_ASSIGNED_CONTEXT ( ( #223, #291, #293 ) ) REPRESENTATION_CONTEXT ( 'NONE', 'WORKASPACE' ) );
#210 = FACE_OUTER_BOUND ( 'NONE', #215, .T. ) ;
#211 = VERTEX_POINT ( 'NONE', #307 ) ;
#212 = CARTESIAN_POINT ( 'NONE',  ( 0.1181100000000000344, 1.446430334472939084E-17, 1.653542999999999985 ) ) ;
#213 = VERTEX_POINT ( 'NONE', #236 ) ;
#214 = CARTESIAN_POINT ( 'NONE',  ( 0.1181100000000000344, 1.446430334472939084E-17, 2.952755999999999936 ) ) ;
#215 = EDGE_LOOP ( 'NONE', ( #337, #310 ) ) ;
#216 = VECTOR ( 'NONE', #330, 39.37007874015748854 ) ;
#217 = EDGE_CURVE ( 'NONE', #173, #74, #52, .T. ) ;
#218 = DIRECTION ( 'NONE',  ( 0.0000000000000000000, 0.0000000000000000000, -1.000000000000000000 ) ) ;
#219 = DIMENSIONAL_EXPONENTS ( 1.000000000000000000, 0.0000000000000000000, 0.0000000000000000000, 0.0000000000000000000, 0.0000000000000000000, 0.0000000000000000000, 0.0000000000000000000 ) ;
#220 = ORIENTED_EDGE ( 'NONE', *, *, #182, .T. ) ;
#221 = DIRECTION ( 'NONE',  ( 0.0000000000000000000, 0.0000000000000000000, 1.000000000000000000 ) ) ;
#222 = EDGE_LOOP ( 'NONE', ( #117, #53, #220, #344, #72 ) ) ;
#223 =( CONVERSION_BASED_UNIT ( 'INCH', #111 ) LENGTH_UNIT ( ) NAMED_UNIT ( #251 ) );
#224 = CARTESIAN_POINT ( 'NONE',  ( 0.0000000000000000000, 0.0000000000000000000, 0.06928860975630385388 ) ) ;
#225 = AXIS2_PLACEMENT_3D ( 'NONE', #263, #221, #289 ) ;
#226 = ORIENTED_EDGE ( 'NONE', *, *, #260, .F. ) ;
#227 = CARTESIAN_POINT ( 'NONE',  ( 0.0000000000000000000, 0.0000000000000000000, 0.03937000000000000915 ) ) ;
#228 = EDGE_LOOP ( 'NONE', ( #168, #105, #30, #290 ) ) ;
#229 = CIRCLE ( 'NONE', #124, 0.1181100000000000344 ) ;
#230 = CIRCLE ( 'NONE', #44, 0.02559049999999998132 ) ;
#231 = ORIENTED_EDGE ( 'NONE', *, *, #109, .F. ) ;
#232 = CARTESIAN_POINT ( 'NONE',  ( 0.0000000000000000000, 0.0000000000000000000, 2.952755999999999936 ) ) ;
#233 =( GEOMETRIC_REPRESENTATION_CONTEXT ( 3 ) GLOBAL_UNCERTAINTY_ASSIGNED_CONTEXT ( ( #93 ) ) GLOBAL_UNIT_ASSIGNED_CONTEXT ( ( #342, #267, #142 ) ) REPRESENTATION_CONTEXT ( 'NONE', 'WORKASPACE' ) );
#234 = CARTESIAN_POINT ( 'NONE',  ( -0.1181100000000000344, 0.0000000000000000000, 2.937755999999999368 ) ) ;
#235 = CYLINDRICAL_SURFACE ( 'NONE', #324, 0.1181100000000000344 ) ;
#236 = CARTESIAN_POINT ( 'NONE',  ( 0.0000000000000000000, 2.410717224121564242E-18, 1.707404996040164512E-17 ) ) ;
#237 = EDGE_CURVE ( 'NONE', #74, #287, #343, .T. ) ;
#238 = CONICAL_SURFACE ( 'NONE', #20, 0.1299209999999997867, 0.09013951093658498226 ) ;
#239 = AXIS2_PLACEMENT_3D ( 'NONE', #297, #59, #55 ) ;
#240 = CARTESIAN_POINT ( 'NONE',  ( -0.1181100000000000344, 0.0000000000000000000, 2.952755999999999936 ) ) ;
#241 = ORIENTED_EDGE ( 'NONE', *, *, #182, .F. ) ;
#242 = LINE ( 'NONE', #214, #125 ) ;
#243 = CARTESIAN_POINT ( 'NONE',  ( 0.0000000000000000000, 0.0000000000000000000, 0.0000000000000000000 ) ) ;
#244 = FACE_OUTER_BOUND ( 'NONE', #61, .T. ) ;
#245 = EDGE_CURVE ( 'NONE', #38, #173, #100, .T. ) ;
#246 = VERTEX_POINT ( 'NONE', #340 ) ;
#247 = ORIENTED_EDGE ( 'NONE', *, *, #113, .F. ) ;
#248 = VERTEX_POINT ( 'NONE', #47 ) ;
#249 = AXIS2_PLACEMENT_3D ( 'NONE', #243, #24, #311 ) ;
#250 = CARTESIAN_POINT ( 'NONE',  ( 0.0000000000000000000, 0.0000000000000000000, 1.653542999999999985 ) ) ;
#251 = DIMENSIONAL_EXPONENTS ( 1.000000000000000000, 0.0000000000000000000, 0.0000000000000000000, 0.0000000000000000000, 0.0000000000000000000, 0.0000000000000000000, 0.0000000000000000000 ) ;
#252 = DIRECTION ( 'NONE',  ( -1.000000000000000000, 0.0000000000000000000, 0.0000000000000000000 ) ) ;
#253 = CARTESIAN_POINT ( 'NONE',  ( 0.0000000000000000000, 0.0000000000000000000, 0.06928860975630385388 ) ) ;
#254 = MECHANICAL_DESIGN_GEOMETRIC_PRESENTATION_REPRESENTATION (  '', ( #317 ), #282 ) ;
#255 = LINE ( 'NONE', #181, #106 ) ;
#256 = FACE_OUTER_BOUND ( 'NONE', #23, .T. ) ;
#257 = DIRECTION ( 'NONE',  ( 1.000000000000000000, 0.0000000000000000000, 0.0000000000000000000 ) ) ;
#258 = DIRECTION ( 'NONE',  ( -1.000000000000000000, 0.0000000000000000000, 0.0000000000000000000 ) ) ;
#259 = CARTESIAN_POINT ( 'NONE',  ( 0.0000000000000000000, 0.0000000000000000000, 2.952755999999999936 ) ) ;
#260 = EDGE_CURVE ( 'NONE', #173, #38, #184, .T. ) ;
#261 = DIRECTION ( 'NONE',  ( 1.000000000000000000, 0.0000000000000000000, 0.0000000000000000000 ) ) ;
#262 = DIRECTION ( 'NONE',  ( -0.0000000000000000000, -0.0000000000000000000, -1.000000000000000000 ) ) ;
#263 = CARTESIAN_POINT ( 'NONE',  ( 0.0000000000000000000, 0.0000000000000000000, 2.952755999999999936 ) ) ;
#264 = ORIENTED_EDGE ( 'NONE', *, *, #237, .F. ) ;
#265 = DIRECTION ( 'NONE',  ( 0.0000000000000000000, 0.0000000000000000000, -1.000000000000000000 ) ) ;
#266 = VERTEX_POINT ( 'NONE', #313 ) ;
#267 =( NAMED_UNIT ( * ) PLANE_ANGLE_UNIT ( ) SI_UNIT ( $, .RADIAN. ) );
#268 = VECTOR ( 'NONE', #71, 39.37007874015748854 ) ;
#269 = DIRECTION ( 'NONE',  ( 1.000000000000000000, 0.0000000000000000000, 0.0000000000000000000 ) ) ;
#270 = ORIENTED_EDGE ( 'NONE', *, *, #118, .F. ) ;
#271 = CONICAL_SURFACE ( 'NONE', #141, 0.1031099999999991745, 0.7853981633974500554 ) ;
#272 = APPLICATION_PROTOCOL_DEFINITION ( 'draft international standard', 'automotive_design', 1998, #328 ) ;
#273 = CARTESIAN_POINT ( 'NONE',  ( 0.0000000000000000000, 0.0000000000000000000, 0.06928860975630385388 ) ) ;
#274 = ADVANCED_FACE ( 'NONE', ( #210 ), #107, .T. ) ;
#275 = ADVANCED_FACE ( 'NONE', ( #244 ), #19, .T. ) ;
#276 = DIRECTION ( 'NONE',  ( -1.000000000000000000, 0.0000000000000000000, 0.0000000000000000000 ) ) ;
#277 = ORIENTED_EDGE ( 'NONE', *, *, #245, .F. ) ;
#278 = LINE ( 'NONE', #41, #128 ) ;
#279 =( LENGTH_UNIT ( ) NAMED_UNIT ( * ) SI_UNIT ( $, .METRE. ) );
#280 = DIRECTION ( 'NONE',  ( -0.0000000000000000000, -0.0000000000000000000, -1.000000000000000000 ) ) ;
#281 = DIRECTION ( 'NONE',  ( 1.000000000000000000, 1.224646799147353207E-16, -0.0000000000000000000 ) ) ;
#282 =( GEOMETRIC_REPRESENTATION_CONTEXT ( 3 ) GLOBAL_UNCERTAINTY_ASSIGNED_CONTEXT ( ( #299 ) ) GLOBAL_UNIT_ASSIGNED_CONTEXT ( ( #92, #15, #303 ) ) REPRESENTATION_CONTEXT ( 'NONE', 'WORKASPACE' ) );
#283 = CARTESIAN_POINT ( 'NONE',  ( -0.1299209999999997867, 1.591073367920230343E-17, 1.784218148936167481 ) ) ;
#284 = ORIENTED_EDGE ( 'NONE', *, *, #133, .T. ) ;
#285 = PRODUCT_DEFINITION ( 'UNKNOWN', '', #48, #178 ) ;
#286 = DIRECTION ( 'NONE',  ( 0.0000000000000000000, 0.0000000000000000000, 1.000000000000000000 ) ) ;
#287 = VERTEX_POINT ( 'NONE', #212 ) ;
#288 = ORIENTED_EDGE ( 'NONE', *, *, #118, .T. ) ;
#289 = DIRECTION ( 'NONE',  ( 1.000000000000000000, 0.0000000000000000000, -0.0000000000000000000 ) ) ;
#290 = ORIENTED_EDGE ( 'NONE', *, *, #33, .F. ) ;
#291 =( NAMED_UNIT ( * ) PLANE_ANGLE_UNIT ( ) SI_UNIT ( $, .RADIAN. ) );
#292 = DIRECTION ( 'NONE',  ( 0.0000000000000000000, 1.000000000000000000, 0.0000000000000000000 ) ) ;
#293 =( NAMED_UNIT ( * ) SI_UNIT ( $, .STERADIAN. ) SOLID_ANGLE_UNIT ( ) );
#294 = LINE ( 'NONE', #56, #177 ) ;
#295 = CIRCLE ( 'NONE', #95, 0.02559049999999998132 ) ;
#296 = ORIENTED_EDGE ( 'NONE', *, *, #304, .F. ) ;
#297 = CARTESIAN_POINT ( 'NONE',  ( 0.0000000000000000000, 0.0000000000000000000, 2.952755999999999936 ) ) ;
#298 = FACE_OUTER_BOUND ( 'NONE', #341, .T. ) ;
#299 = UNCERTAINTY_MEASURE_WITH_UNIT (LENGTH_MEASURE( 1.000000000000000082E-05 ), #92, 'distance_accuracy_value', 'NONE');
#300 = FACE_OUTER_BOUND ( 'NONE', #222, .T. ) ;
#301 = EDGE_CURVE ( 'NONE', #246, #76, #114, .T. ) ;
#302 = DIRECTION ( 'NONE',  ( 0.0000000000000000000, 0.0000000000000000000, -1.000000000000000000 ) ) ;
#303 =( NAMED_UNIT ( * ) SI_UNIT ( $, .STERADIAN. ) SOLID_ANGLE_UNIT ( ) );
#304 = EDGE_CURVE ( 'NONE', #266, #173, #101, .T. ) ;
#305 = DIRECTION ( 'NONE',  ( -1.000000000000000000, 0.0000000000000000000, 0.0000000000000000000 ) ) ;
#306 = AXIS2_PLACEMENT_3D ( 'NONE', #186, #265, #309 ) ;
#307 = CARTESIAN_POINT ( 'NONE',  ( 0.0000000000000000000, 0.02559049999999999173, 0.06928860975630385388 ) ) ;
#308 = EDGE_CURVE ( 'NONE', #38, #287, #242, .T. ) ;
#309 = DIRECTION ( 'NONE',  ( -1.000000000000000000, 0.0000000000000000000, 0.0000000000000000000 ) ) ;
#310 = ORIENTED_EDGE ( 'NONE', *, *, #130, .T. ) ;
#311 = DIRECTION ( 'NONE',  ( -1.000000000000000000, 0.0000000000000000000, 0.0000000000000000000 ) ) ;
#312 = AXIS2_PLACEMENT_3D ( 'NONE', #185, #151, #67 ) ;
#313 = CARTESIAN_POINT ( 'NONE',  ( -0.1031099999999991745, 0.0000000000000000000, 2.952755999999999936 ) ) ;
#314 = ORIENTED_EDGE ( 'NONE', *, *, #260, .T. ) ;
#315 = DIRECTION ( 'NONE',  ( -0.0000000000000000000, -0.0000000000000000000, -1.000000000000000000 ) ) ;
#316 = AXIS2_PLACEMENT_3D ( 'NONE', #338, #73, #192 ) ;
#317 = STYLED_ITEM ( 'NONE', ( #127 ), #174 ) ;
#318 = AXIS2_PLACEMENT_3D ( 'NONE', #86, #36, #122 ) ;
#319 = ORIENTED_EDGE ( 'NONE', *, *, #157, .F. ) ;
#320 = ADVANCED_FACE ( 'NONE', ( #193 ), #146, .T. ) ;
#321 = SURFACE_STYLE_FILL_AREA ( #196 ) ;
#322 = DIRECTION ( 'NONE',  ( 0.0000000000000000000, 0.0000000000000000000, 1.000000000000000000 ) ) ;
#323 = VERTEX_POINT ( 'NONE', #22 ) ;
#324 = AXIS2_PLACEMENT_3D ( 'NONE', #259, #98, #305 ) ;
#325 = STYLED_ITEM ( 'NONE', ( #80 ), #31 ) ;
#326 = FILL_AREA_STYLE_COLOUR ( '', #18 ) ;
#327 = DIRECTION ( 'NONE',  ( 0.0000000000000000000, 0.0000000000000000000, 1.000000000000000000 ) ) ;
#328 = APPLICATION_CONTEXT ( 'automotive_design' ) ;
#329 = FACE_OUTER_BOUND ( 'NONE', #161, .T. ) ;
#330 = DIRECTION ( 'NONE',  ( 0.7071067811865486830, 8.659560562354947649E-17, -0.7071067811865462405 ) ) ;
#331 = SURFACE_STYLE_FILL_AREA ( #126 ) ;
#332 = SURFACE_STYLE_USAGE ( .BOTH. , #14 ) ;
#333 = LINE ( 'NONE', #13, #216 ) ;
#334 = CIRCLE ( 'NONE', #195, 0.1031099999999991745 ) ;
#335 = DIRECTION ( 'NONE',  ( 1.000000000000000000, 0.0000000000000000000, 0.0000000000000000000 ) ) ;
#336 = AXIS2_PLACEMENT_3D ( 'NONE', #227, #276, #322 ) ;
#337 = ORIENTED_EDGE ( 'NONE', *, *, #16, .T. ) ;
#338 = CARTESIAN_POINT ( 'NONE',  ( 0.0000000000000000000, 0.0000000000000000000, 0.0000000000000000000 ) ) ;
#339 = ORIENTED_EDGE ( 'NONE', *, *, #26, .F. ) ;
#340 = CARTESIAN_POINT ( 'NONE',  ( 0.02559049999999992234, 0.0000000000000000000, 0.6299209999999999532 ) ) ;
#341 = EDGE_LOOP ( 'NONE', ( #314, #166, #136, #51 ) ) ;
#342 =( CONVERSION_BASED_UNIT ( 'INCH', #135 ) LENGTH_UNIT ( ) NAMED_UNIT ( #116 ) );
#343 = CIRCLE ( 'NONE', #204, 0.1181100000000000344 ) ;
#344 = ORIENTED_EDGE ( 'NONE', *, *, #28, .F. ) ;
#345 = ORIENTED_EDGE ( 'NONE', *, *, #28, .T. ) ;
ENDSEC;
END-ISO-10303-21;
