ISO-10303-21;
HEADER;
FILE_DESCRIPTION (( 'STEP AP214' ),
    '1' );
FILE_NAME ('Micro_SFL-187-44.STEP',
    '2021-09-02T04:50:48',
    ( '' ),
    ( '' ),
    'SwSTEP 2.0',
    'SolidWorks 2020',
    '' );
FILE_SCHEMA (( 'AUTOMOTIVE_DESIGN' ));
ENDSEC;

DATA;
#1 = PLANE ( 'NONE',  #124 ) ;
#2 = DIRECTION ( 'NONE',  ( -1.000000000000000000, 0.0000000000000000000, 0.0000000000000000000 ) ) ;
#3 = FACE_OUTER_BOUND ( 'NONE', #184, .T. ) ;
#4 = CARTESIAN_POINT ( 'NONE',  ( -0.09365624999999999645, 0.0000000000000000000, 2.293916535652885596E-17 ) ) ;
#5 = CIRCLE ( 'NONE', #255, 0.1099999999999996397 ) ;
#6 = DIRECTION ( 'NONE',  ( -1.224646799147353207E-16, -0.0000000000000000000, -1.000000000000000000 ) ) ;
#7 = EDGE_CURVE ( 'NONE', #261, #186, #250, .T. ) ;
#8 = ORIENTED_EDGE ( 'NONE', *, *, #43, .F. ) ;
#9 = DIRECTION ( 'NONE',  ( -1.000000000000000000, 0.0000000000000000000, 0.0000000000000000000 ) ) ;
#10 = CARTESIAN_POINT ( 'NONE',  ( 0.0000000000000000000, 0.0000000000000000000, 2.000000000000000000 ) ) ;
#11 = CARTESIAN_POINT ( 'NONE',  ( -0.09365624999999999645, 0.0000000000000000000, 1.146958267826442798E-17 ) ) ;
#12 = CARTESIAN_POINT ( 'NONE',  ( -0.1249999999999999167, 0.0000000000000000000, 0.6777592395336415887 ) ) ;
#13 = DIRECTION ( 'NONE',  ( -0.0000000000000000000, -0.0000000000000000000, -1.000000000000000000 ) ) ;
#14 = EDGE_CURVE ( 'NONE', #274, #177, #125, .T. ) ;
#15 = PRODUCT_CONTEXT ( 'NONE', #168, 'mechanical' ) ;
#16 = AXIS2_PLACEMENT_3D ( 'NONE', #201, #246, #172 ) ;
#17 = ORIENTED_EDGE ( 'NONE', *, *, #118, .F. ) ;
#18 = ORIENTED_EDGE ( 'NONE', *, *, #42, .F. ) ;
#19 = ORIENTED_EDGE ( 'NONE', *, *, #43, .T. ) ;
#20 = UNCERTAINTY_MEASURE_WITH_UNIT (LENGTH_MEASURE( 1.000000000000000082E-05 ), #114, 'distance_accuracy_value', 'NONE');
#21 = AXIS2_PLACEMENT_3D ( 'NONE', #288, #84, #154 ) ;
#22 =( GEOMETRIC_REPRESENTATION_CONTEXT ( 3 ) GLOBAL_UNCERTAINTY_ASSIGNED_CONTEXT ( ( #110 ) ) GLOBAL_UNIT_ASSIGNED_CONTEXT ( ( #62, #216, #239 ) ) REPRESENTATION_CONTEXT ( 'NONE', 'WORKASPACE' ) );
#23 = PRODUCT_DEFINITION_FORMATION_WITH_SPECIFIED_SOURCE ( 'ANY', '', #52, .NOT_KNOWN. ) ;
#24 = FACE_OUTER_BOUND ( 'NONE', #113, .T. ) ;
#25 = AXIS2_PLACEMENT_3D ( 'NONE', #166, #64, #136 ) ;
#26 = CARTESIAN_POINT ( 'NONE',  ( 0.1099999999999996397, 1.347111479062084158E-17, 2.000000000000000000 ) ) ;
#27 = EDGE_CURVE ( 'NONE', #107, #244, #71, .T. ) ;
#28 = EDGE_LOOP ( 'NONE', ( #202, #68, #18, #155 ) ) ;
#29 = FACE_OUTER_BOUND ( 'NONE', #227, .T. ) ;
#30 = DIRECTION ( 'NONE',  ( -1.000000000000000000, 0.0000000000000000000, 0.0000000000000000000 ) ) ;
#31 = ORIENTED_EDGE ( 'NONE', *, *, #146, .T. ) ;
#32 = FACE_OUTER_BOUND ( 'NONE', #293, .T. ) ;
#33 = DIRECTION ( 'NONE',  ( 0.7071067811865434649, 8.659560562354883554E-17, -0.7071067811865515695 ) ) ;
#34 = CARTESIAN_POINT ( 'NONE',  ( 1.404618771449245766E-33, 0.0000000000000000000, 1.146958267826442798E-17 ) ) ;
#35 = EDGE_CURVE ( 'NONE', #107, #85, #292, .T. ) ;
#36 = VERTEX_POINT ( 'NONE', #163 ) ;
#37 = AXIS2_PLACEMENT_3D ( 'NONE', #197, #101, #240 ) ;
#38 = STYLED_ITEM ( 'NONE', ( #271 ), #75 ) ;
#39 = ORIENTED_EDGE ( 'NONE', *, *, #14, .T. ) ;
#40 = ORIENTED_EDGE ( 'NONE', *, *, #70, .F. ) ;
#41 = UNCERTAINTY_MEASURE_WITH_UNIT (LENGTH_MEASURE( 1.000000000000000082E-05 ), #151, 'distance_accuracy_value', 'NONE');
#42 = EDGE_CURVE ( 'NONE', #85, #36, #48, .T. ) ;
#43 = EDGE_CURVE ( 'NONE', #274, #244, #94, .T. ) ;
#44 = DIMENSIONAL_EXPONENTS ( 1.000000000000000000, 0.0000000000000000000, 0.0000000000000000000, 0.0000000000000000000, 0.0000000000000000000, 0.0000000000000000000, 0.0000000000000000000 ) ;
#45 = DIMENSIONAL_EXPONENTS ( 1.000000000000000000, 0.0000000000000000000, 0.0000000000000000000, 0.0000000000000000000, 0.0000000000000000000, 0.0000000000000000000, 0.0000000000000000000 ) ;
#46 = CIRCLE ( 'NONE', #258, 0.09365624999999999645 ) ;
#47 = DIMENSIONAL_EXPONENTS ( 1.000000000000000000, 0.0000000000000000000, 0.0000000000000000000, 0.0000000000000000000, 0.0000000000000000000, 0.0000000000000000000, 0.0000000000000000000 ) ;
#48 = CIRCLE ( 'NONE', #234, 0.1250000000000000000 ) ;
#49 = CYLINDRICAL_SURFACE ( 'NONE', #196, 0.09365624999999999645 ) ;
#50 = DIRECTION ( 'NONE',  ( 0.1736481776669313581, 0.0000000000000000000, 0.9848077530122077983 ) ) ;
#51 = ORIENTED_EDGE ( 'NONE', *, *, #242, .F. ) ;
#52 = PRODUCT ( 'Micro_SFL-187-44', 'Micro_SFL-187-44', '', ( #15 ) ) ;
#53 = EDGE_CURVE ( 'NONE', #177, #107, #225, .T. ) ;
#54 = CARTESIAN_POINT ( 'NONE',  ( 0.0000000000000000000, 0.0000000000000000000, 2.000000000000000000 ) ) ;
#55 = LENGTH_MEASURE_WITH_UNIT ( LENGTH_MEASURE( 0.02539999999999999897 ), #59 );
#56 = ORIENTED_EDGE ( 'NONE', *, *, #229, .F. ) ;
#57 = LENGTH_MEASURE_WITH_UNIT ( LENGTH_MEASURE( 0.02539999999999999897 ), #175 );
#58 = AXIS2_PLACEMENT_3D ( 'NONE', #34, #205, #294 ) ;
#59 =( LENGTH_UNIT ( ) NAMED_UNIT ( * ) SI_UNIT ( $, .METRE. ) );
#60 = EDGE_CURVE ( 'NONE', #244, #36, #112, .T. ) ;
#61 = ORIENTED_EDGE ( 'NONE', *, *, #118, .T. ) ;
#62 =( CONVERSION_BASED_UNIT ( 'INCH', #55 ) LENGTH_UNIT ( ) NAMED_UNIT ( #44 ) );
#63 = CARTESIAN_POINT ( 'NONE',  ( 0.0000000000000000000, 0.0000000000000000000, 2.000000000000000000 ) ) ;
#64 = DIRECTION ( 'NONE',  ( 0.0000000000000000000, 0.0000000000000000000, -1.000000000000000000 ) ) ;
#65 = CONICAL_SURFACE ( 'NONE', #21, 0.09365624999999999645, 0.1745329251994338637 ) ;
#66 = ORIENTED_EDGE ( 'NONE', *, *, #53, .F. ) ;
#67 =( NAMED_UNIT ( * ) SI_UNIT ( $, .STERADIAN. ) SOLID_ANGLE_UNIT ( ) );
#68 = ORIENTED_EDGE ( 'NONE', *, *, #60, .T. ) ;
#69 = SURFACE_SIDE_STYLE ('',( #268 ) ) ;
#70 = EDGE_CURVE ( 'NONE', #186, #261, #291, .T. ) ;
#71 = CIRCLE ( 'NONE', #25, 0.1250000000000000000 ) ;
#72 = AXIS2_PLACEMENT_3D ( 'NONE', #208, #117, #206 ) ;
#73 = AXIS2_PLACEMENT_3D ( 'NONE', #54, #236, #200 ) ;
#74 = ADVANCED_FACE ( 'NONE', ( #285 ), #265, .T. ) ;
#75 = ADVANCED_BREP_SHAPE_REPRESENTATION ( 'Micro_SFL-187-44', ( #102, #72 ), #182 ) ;
#76 = DIRECTION ( 'NONE',  ( 0.0000000000000000000, 0.0000000000000000000, 1.000000000000000000 ) ) ;
#77 = DIRECTION ( 'NONE',  ( -1.000000000000000000, 0.0000000000000000000, 1.224646799147352961E-16 ) ) ;
#78 = CARTESIAN_POINT ( 'NONE',  ( -0.1250000000000000000, 0.0000000000000000000, 1.984999999999999432 ) ) ;
#79 = ORIENTED_EDGE ( 'NONE', *, *, #7, .T. ) ;
#80 = AXIS2_PLACEMENT_3D ( 'NONE', #157, #6, #30 ) ;
#81 = DIRECTION ( 'NONE',  ( 0.0000000000000000000, 0.0000000000000000000, -1.000000000000000000 ) ) ;
#82 = DIRECTION ( 'NONE',  ( -1.000000000000000000, 0.0000000000000000000, 1.224646799147352961E-16 ) ) ;
#83 = LINE ( 'NONE', #170, #266 ) ;
#84 = DIRECTION ( 'NONE',  ( 1.224646799147353207E-16, 0.0000000000000000000, 1.000000000000000000 ) ) ;
#85 = VERTEX_POINT ( 'NONE', #12 ) ;
#86 = CARTESIAN_POINT ( 'NONE',  ( 0.0000000000000000000, 0.0000000000000000000, 0.0000000000000000000 ) ) ;
#87 = CARTESIAN_POINT ( 'NONE',  ( 0.09365625000000006584, 0.0000000000000000000, 0.5000000000000000000 ) ) ;
#88 = VECTOR ( 'NONE', #13, 39.37007874015748143 ) ;
#89 = VERTEX_POINT ( 'NONE', #134 ) ;
#90 = ORIENTED_EDGE ( 'NONE', *, *, #60, .F. ) ;
#91 = APPLICATION_PROTOCOL_DEFINITION ( 'draft international standard', 'automotive_design', 1998, #168 ) ;
#92 = EDGE_LOOP ( 'NONE', ( #79, #161 ) ) ;
#93 = AXIS2_PLACEMENT_3D ( 'NONE', #199, #105, #130 ) ;
#94 = LINE ( 'NONE', #26, #115 ) ;
#95 = ADVANCED_FACE ( 'NONE', ( #160 ), #181, .T. ) ;
#96 = VECTOR ( 'NONE', #109, 39.37007874015748143 ) ;
#97 = EDGE_CURVE ( 'NONE', #223, #85, #222, .T. ) ;
#98 = COLOUR_RGB ( '',0.7921568627450980005, 0.8196078431372548767, 0.9333333333333333481 ) ;
#99 = CARTESIAN_POINT ( 'NONE',  ( 0.0000000000000000000, 0.0000000000000000000, 0.0000000000000000000 ) ) ;
#100 = EDGE_CURVE ( 'NONE', #89, #36, #176, .T. ) ;
#101 = DIRECTION ( 'NONE',  ( 1.224646799147353207E-16, 0.0000000000000000000, 1.000000000000000000 ) ) ;
#102 = MANIFOLD_SOLID_BREP ( 'Cut-Revolve1', #297 ) ;
#103 = ORIENTED_EDGE ( 'NONE', *, *, #27, .F. ) ;
#104 = AXIS2_PLACEMENT_3D ( 'NONE', #10, #263, #2 ) ;
#105 = DIRECTION ( 'NONE',  ( 0.0000000000000000000, 0.0000000000000000000, -1.000000000000000000 ) ) ;
#106 = FILL_AREA_STYLE_COLOUR ( '', #296 ) ;
#107 = VERTEX_POINT ( 'NONE', #78 ) ;
#108 = DIRECTION ( 'NONE',  ( 1.000000000000000000, 0.0000000000000000000, -0.0000000000000000000 ) ) ;
#109 = DIRECTION ( 'NONE',  ( -0.7071067811865434649, 0.0000000000000000000, -0.7071067811865515695 ) ) ;
#110 = UNCERTAINTY_MEASURE_WITH_UNIT (LENGTH_MEASURE( 1.000000000000000082E-05 ), #62, 'distance_accuracy_value', 'NONE');
#111 = DIRECTION ( 'NONE',  ( -1.000000000000000000, 0.0000000000000000000, 1.224646799147352961E-16 ) ) ;
#112 = LINE ( 'NONE', #127, #187 ) ;
#113 = EDGE_LOOP ( 'NONE', ( #31, #129, #226, #56 ) ) ;
#114 =( CONVERSION_BASED_UNIT ( 'INCH', #159 ) LENGTH_UNIT ( ) NAMED_UNIT ( #47 ) );
#115 = VECTOR ( 'NONE', #33, 39.37007874015748143 ) ;
#116 = ORIENTED_EDGE ( 'NONE', *, *, #42, .T. ) ;
#117 = DIRECTION ( 'NONE',  ( 0.0000000000000000000, 0.0000000000000000000, 1.000000000000000000 ) ) ;
#118 = EDGE_CURVE ( 'NONE', #244, #107, #212, .T. ) ;
#119 = ORIENTED_EDGE ( 'NONE', *, *, #53, .T. ) ;
#120 =( NAMED_UNIT ( * ) PLANE_ANGLE_UNIT ( ) SI_UNIT ( $, .RADIAN. ) );
#121 = DIRECTION ( 'NONE',  ( 1.000000000000000000, 0.0000000000000000000, 0.0000000000000000000 ) ) ;
#122 = VECTOR ( 'NONE', #256, 39.37007874015748143 ) ;
#123 = EDGE_CURVE ( 'NONE', #89, #223, #148, .T. ) ;
#124 = AXIS2_PLACEMENT_3D ( 'NONE', #99, #221, #108 ) ;
#125 = CIRCLE ( 'NONE', #203, 0.1099999999999996397 ) ;
#126 = DIRECTION ( 'NONE',  ( 1.000000000000000000, 0.0000000000000000000, 0.0000000000000000000 ) ) ;
#127 = CARTESIAN_POINT ( 'NONE',  ( 0.1250000000000000000, 1.530808498934191509E-17, 2.000000000000000000 ) ) ;
#128 = DIRECTION ( 'NONE',  ( -1.224646799147353207E-16, -0.0000000000000000000, -1.000000000000000000 ) ) ;
#129 = ORIENTED_EDGE ( 'NONE', *, *, #242, .T. ) ;
#130 = DIRECTION ( 'NONE',  ( -1.000000000000000000, 0.0000000000000000000, 0.0000000000000000000 ) ) ;
#131 = DIRECTION ( 'NONE',  ( 0.0000000000000000000, 0.0000000000000000000, -1.000000000000000000 ) ) ;
#132 = AXIS2_PLACEMENT_3D ( 'NONE', #237, #178, #82 ) ;
#133 = CARTESIAN_POINT ( 'NONE',  ( 8.300156832874184869E-17, 0.0000000000000000000, 0.6777592395336415887 ) ) ;
#134 = CARTESIAN_POINT ( 'NONE',  ( 0.09365625000000006584, 0.0000000000000000000, 0.5000000000000000000 ) ) ;
#135 = CARTESIAN_POINT ( 'NONE',  ( 0.09365624999999999645, 1.146958267826442798E-17, 0.0000000000000000000 ) ) ;
#136 = DIRECTION ( 'NONE',  ( 1.000000000000000000, 0.0000000000000000000, 0.0000000000000000000 ) ) ;
#137 = ORIENTED_EDGE ( 'NONE', *, *, #146, .F. ) ;
#138 = PRESENTATION_LAYER_ASSIGNMENT (  '', '', ( #38 ) ) ;
#139 = CARTESIAN_POINT ( 'NONE',  ( 8.300156832874184869E-17, 0.0000000000000000000, 0.6777592395336415887 ) ) ;
#140 =( LENGTH_UNIT ( ) NAMED_UNIT ( * ) SI_UNIT ( $, .METRE. ) );
#141 = DIRECTION ( 'NONE',  ( -1.224646799147353207E-16, -0.0000000000000000000, -1.000000000000000000 ) ) ;
#142 =( NAMED_UNIT ( * ) SI_UNIT ( $, .STERADIAN. ) SOLID_ANGLE_UNIT ( ) );
#143 = ADVANCED_FACE ( 'NONE', ( #198 ), #65, .T. ) ;
#144 = APPLICATION_CONTEXT ( 'automotive_design' ) ;
#145 = AXIS2_PLACEMENT_3D ( 'NONE', #245, #81, #9 ) ;
#146 = EDGE_CURVE ( 'NONE', #223, #89, #46, .T. ) ;
#147 = CYLINDRICAL_SURFACE ( 'NONE', #73, 0.1250000000000000000 ) ;
#148 = CIRCLE ( 'NONE', #80, 0.09365624999999999645 ) ;
#149 = CARTESIAN_POINT ( 'NONE',  ( 0.1099999999999996397, 1.438959988998137757E-17, 2.000000000000000000 ) ) ;
#150 = FILL_AREA_STYLE ('',( #106 ) ) ;
#151 =( CONVERSION_BASED_UNIT ( 'INCH', #57 ) LENGTH_UNIT ( ) NAMED_UNIT ( #45 ) );
#152 = ORIENTED_EDGE ( 'NONE', *, *, #229, .T. ) ;
#153 = DIRECTION ( 'NONE',  ( -1.000000000000000000, 0.0000000000000000000, 0.0000000000000000000 ) ) ;
#154 = DIRECTION ( 'NONE',  ( 1.000000000000000000, 0.0000000000000000000, 0.0000000000000000000 ) ) ;
#155 = ORIENTED_EDGE ( 'NONE', *, *, #35, .F. ) ;
#156 = FACE_OUTER_BOUND ( 'NONE', #249, .T. ) ;
#157 = CARTESIAN_POINT ( 'NONE',  ( 6.123233995736766036E-17, 0.0000000000000000000, 0.5000000000000000000 ) ) ;
#158 = ORIENTED_EDGE ( 'NONE', *, *, #123, .F. ) ;
#159 = LENGTH_MEASURE_WITH_UNIT ( LENGTH_MEASURE( 0.02539999999999999897 ), #140 );
#160 = FACE_OUTER_BOUND ( 'NONE', #248, .T. ) ;
#161 = ORIENTED_EDGE ( 'NONE', *, *, #70, .T. ) ;
#162 = ADVANCED_FACE ( 'NONE', ( #32 ), #298, .T. ) ;
#163 = CARTESIAN_POINT ( 'NONE',  ( 0.1250000000000000833, 1.530808498934192433E-17, 0.6777592395336415887 ) ) ;
#164 = APPLICATION_PROTOCOL_DEFINITION ( 'draft international standard', 'automotive_design', 1998, #144 ) ;
#165 = AXIS2_PLACEMENT_3D ( 'NONE', #257, #224, #77 ) ;
#166 = CARTESIAN_POINT ( 'NONE',  ( 0.0000000000000000000, 0.0000000000000000000, 1.984999999999999432 ) ) ;
#167 = ADVANCED_FACE ( 'NONE', ( #3 ), #251, .T. ) ;
#168 = APPLICATION_CONTEXT ( 'automotive_design' ) ;
#169 = AXIS2_PLACEMENT_3D ( 'NONE', #133, #284, #126 ) ;
#170 = CARTESIAN_POINT ( 'NONE',  ( 0.09365624999999999645, 1.146958267826442798E-17, -1.146958267826442798E-17 ) ) ;
#171 = DIRECTION ( 'NONE',  ( -1.224646799147353207E-16, -0.0000000000000000000, -1.000000000000000000 ) ) ;
#172 = DIRECTION ( 'NONE',  ( 1.000000000000000000, 0.0000000000000000000, -0.0000000000000000000 ) ) ;
#173 = ORIENTED_EDGE ( 'NONE', *, *, #97, .T. ) ;
#174 = MECHANICAL_DESIGN_GEOMETRIC_PRESENTATION_REPRESENTATION (  '', ( #38 ), #267 ) ;
#175 =( LENGTH_UNIT ( ) NAMED_UNIT ( * ) SI_UNIT ( $, .METRE. ) );
#176 = LINE ( 'NONE', #87, #191 ) ;
#177 = VERTEX_POINT ( 'NONE', #193 ) ;
#178 = DIRECTION ( 'NONE',  ( -1.224646799147353207E-16, -0.0000000000000000000, -1.000000000000000000 ) ) ;
#179 = ORIENTED_EDGE ( 'NONE', *, *, #189, .T. ) ;
#180 = FACE_OUTER_BOUND ( 'NONE', #28, .T. ) ;
#181 = CYLINDRICAL_SURFACE ( 'NONE', #104, 0.1250000000000000000 ) ;
#182 =( GEOMETRIC_REPRESENTATION_CONTEXT ( 3 ) GLOBAL_UNCERTAINTY_ASSIGNED_CONTEXT ( ( #41 ) ) GLOBAL_UNIT_ASSIGNED_CONTEXT ( ( #151, #218, #67 ) ) REPRESENTATION_CONTEXT ( 'NONE', 'WORKASPACE' ) );
#183 = SURFACE_STYLE_FILL_AREA ( #150 ) ;
#184 = EDGE_LOOP ( 'NONE', ( #253, #19, #103, #66 ) ) ;
#185 = ORIENTED_EDGE ( 'NONE', *, *, #189, .F. ) ;
#186 = VERTEX_POINT ( 'NONE', #135 ) ;
#187 = VECTOR ( 'NONE', #214, 39.37007874015748143 ) ;
#188 = CARTESIAN_POINT ( 'NONE',  ( -0.1250000000000000000, 0.0000000000000000000, 2.000000000000000000 ) ) ;
#189 = EDGE_CURVE ( 'NONE', #36, #85, #211, .T. ) ;
#190 = PRODUCT_RELATED_PRODUCT_CATEGORY ( 'part', '', ( #52 ) ) ;
#191 = VECTOR ( 'NONE', #50, 39.37007874015748143 ) ;
#192 = CARTESIAN_POINT ( 'NONE',  ( 0.0000000000000000000, 0.0000000000000000000, 2.000000000000000000 ) ) ;
#193 = CARTESIAN_POINT ( 'NONE',  ( -0.1099999999999996397, 0.0000000000000000000, 2.000000000000000000 ) ) ;
#194 = CARTESIAN_POINT ( 'NONE',  ( 0.0000000000000000000, 0.0000000000000000000, 1.984999999999999432 ) ) ;
#195 = ADVANCED_FACE ( 'NONE', ( #156 ), #287, .T. ) ;
#196 = AXIS2_PLACEMENT_3D ( 'NONE', #86, #128, #111 ) ;
#197 = CARTESIAN_POINT ( 'NONE',  ( 6.123233995736766036E-17, 0.0000000000000000000, 0.5000000000000000000 ) ) ;
#198 = FACE_OUTER_BOUND ( 'NONE', #247, .T. ) ;
#199 = CARTESIAN_POINT ( 'NONE',  ( 0.0000000000000000000, 0.0000000000000000000, 2.000000000000000000 ) ) ;
#200 = DIRECTION ( 'NONE',  ( -1.000000000000000000, 0.0000000000000000000, 0.0000000000000000000 ) ) ;
#201 = CARTESIAN_POINT ( 'NONE',  ( 0.0000000000000000000, 0.0000000000000000000, 2.000000000000000000 ) ) ;
#202 = ORIENTED_EDGE ( 'NONE', *, *, #27, .T. ) ;
#203 = AXIS2_PLACEMENT_3D ( 'NONE', #63, #272, #230 ) ;
#204 = MECHANICAL_DESIGN_GEOMETRIC_PRESENTATION_REPRESENTATION (  '', ( #232 ), #22 ) ;
#205 = DIRECTION ( 'NONE',  ( -1.224646799147353207E-16, -0.0000000000000000000, -1.000000000000000000 ) ) ;
#206 = DIRECTION ( 'NONE',  ( 1.000000000000000000, 0.0000000000000000000, 0.0000000000000000000 ) ) ;
#207 = ORIENTED_EDGE ( 'NONE', *, *, #35, .T. ) ;
#208 = CARTESIAN_POINT ( 'NONE',  ( 0.0000000000000000000, 0.0000000000000000000, 0.0000000000000000000 ) ) ;
#209 = ORIENTED_EDGE ( 'NONE', *, *, #281, .T. ) ;
#210 = ADVANCED_FACE ( 'NONE', ( #213 ), #1, .F. ) ;
#211 = CIRCLE ( 'NONE', #169, 0.1250000000000000000 ) ;
#212 = CIRCLE ( 'NONE', #279, 0.1250000000000000000 ) ;
#213 = FACE_OUTER_BOUND ( 'NONE', #92, .T. ) ;
#214 = DIRECTION ( 'NONE',  ( -0.0000000000000000000, -0.0000000000000000000, -1.000000000000000000 ) ) ;
#215 = LINE ( 'NONE', #11, #122 ) ;
#216 =( NAMED_UNIT ( * ) PLANE_ANGLE_UNIT ( ) SI_UNIT ( $, .RADIAN. ) );
#217 = PRODUCT_DEFINITION_SHAPE ( 'NONE', 'NONE',  #235 ) ;
#218 =( NAMED_UNIT ( * ) PLANE_ANGLE_UNIT ( ) SI_UNIT ( $, .RADIAN. ) );
#219 = DIRECTION ( 'NONE',  ( 1.000000000000000000, 0.0000000000000000000, 0.0000000000000000000 ) ) ;
#220 = CONICAL_SURFACE ( 'NONE', #93, 0.1099999999999996397, 0.7853981633974426169 ) ;
#221 = DIRECTION ( 'NONE',  ( 0.0000000000000000000, 0.0000000000000000000, 1.000000000000000000 ) ) ;
#222 = LINE ( 'NONE', #290, #275 ) ;
#223 = VERTEX_POINT ( 'NONE', #262 ) ;
#224 = DIRECTION ( 'NONE',  ( -1.224646799147353207E-16, -0.0000000000000000000, -1.000000000000000000 ) ) ;
#225 = LINE ( 'NONE', #289, #96 ) ;
#226 = ORIENTED_EDGE ( 'NONE', *, *, #7, .F. ) ;
#227 = EDGE_LOOP ( 'NONE', ( #8, #270, #119, #17 ) ) ;
#228 = ORIENTED_EDGE ( 'NONE', *, *, #123, .T. ) ;
#229 = EDGE_CURVE ( 'NONE', #223, #261, #215, .T. ) ;
#230 = DIRECTION ( 'NONE',  ( 1.000000000000000000, 0.0000000000000000000, 0.0000000000000000000 ) ) ;
#231 = PRODUCT_DEFINITION_CONTEXT ( 'detailed design', #144, 'design' ) ;
#232 = STYLED_ITEM ( 'NONE', ( #269 ), #102 ) ;
#233 = CARTESIAN_POINT ( 'NONE',  ( 0.1250000000000000000, 1.530808498934191509E-17, 1.984999999999999432 ) ) ;
#234 = AXIS2_PLACEMENT_3D ( 'NONE', #139, #141, #121 ) ;
#235 = PRODUCT_DEFINITION ( 'UNKNOWN', '', #23, #231 ) ;
#236 = DIRECTION ( 'NONE',  ( -0.0000000000000000000, -0.0000000000000000000, -1.000000000000000000 ) ) ;
#237 = CARTESIAN_POINT ( 'NONE',  ( 1.404618771449245766E-33, 0.0000000000000000000, 1.146958267826442798E-17 ) ) ;
#238 = ORIENTED_EDGE ( 'NONE', *, *, #100, .T. ) ;
#239 =( NAMED_UNIT ( * ) SI_UNIT ( $, .STERADIAN. ) SOLID_ANGLE_UNIT ( ) );
#240 = DIRECTION ( 'NONE',  ( 1.000000000000000000, 0.0000000000000000000, 0.0000000000000000000 ) ) ;
#241 = CARTESIAN_POINT ( 'NONE',  ( 6.123233995736766036E-17, 0.0000000000000000000, 0.5000000000000000000 ) ) ;
#242 = EDGE_CURVE ( 'NONE', #89, #186, #83, .T. ) ;
#243 = PRESENTATION_LAYER_ASSIGNMENT (  '', '', ( #232 ) ) ;
#244 = VERTEX_POINT ( 'NONE', #233 ) ;
#245 = CARTESIAN_POINT ( 'NONE',  ( 0.0000000000000000000, 0.0000000000000000000, 2.000000000000000000 ) ) ;
#246 = DIRECTION ( 'NONE',  ( 0.0000000000000000000, 0.0000000000000000000, 1.000000000000000000 ) ) ;
#247 = EDGE_LOOP ( 'NONE', ( #137, #173, #116, #295 ) ) ;
#248 = EDGE_LOOP ( 'NONE', ( #90, #61, #207, #185 ) ) ;
#249 = EDGE_LOOP ( 'NONE', ( #51, #228, #152, #40 ) ) ;
#250 = CIRCLE ( 'NONE', #58, 0.09365624999999999645 ) ;
#251 = CONICAL_SURFACE ( 'NONE', #145, 0.1099999999999996397, 0.7853981633974426169 ) ;
#252 = SHAPE_DEFINITION_REPRESENTATION ( #217, #75 ) ;
#253 = ORIENTED_EDGE ( 'NONE', *, *, #14, .F. ) ;
#254 = ADVANCED_FACE ( 'NONE', ( #24 ), #49, .T. ) ;
#255 = AXIS2_PLACEMENT_3D ( 'NONE', #192, #76, #282 ) ;
#256 = DIRECTION ( 'NONE',  ( -1.224646799147353207E-16, -0.0000000000000000000, -1.000000000000000000 ) ) ;
#257 = CARTESIAN_POINT ( 'NONE',  ( 0.0000000000000000000, 0.0000000000000000000, 0.0000000000000000000 ) ) ;
#258 = AXIS2_PLACEMENT_3D ( 'NONE', #241, #280, #153 ) ;
#259 = DIRECTION ( 'NONE',  ( -0.1736481776669311639, 2.126576849575783008E-17, 0.9848077530122080203 ) ) ;
#260 = SURFACE_STYLE_USAGE ( .BOTH. , #283 ) ;
#261 = VERTEX_POINT ( 'NONE', #4 ) ;
#262 = CARTESIAN_POINT ( 'NONE',  ( -0.09365624999999992706, 1.338883383380317076E-17, 0.5000000000000000000 ) ) ;
#263 = DIRECTION ( 'NONE',  ( -0.0000000000000000000, -0.0000000000000000000, -1.000000000000000000 ) ) ;
#264 = ADVANCED_FACE ( 'NONE', ( #29 ), #220, .T. ) ;
#265 = PLANE ( 'NONE',  #16 ) ;
#266 = VECTOR ( 'NONE', #171, 39.37007874015748143 ) ;
#267 =( GEOMETRIC_REPRESENTATION_CONTEXT ( 3 ) GLOBAL_UNCERTAINTY_ASSIGNED_CONTEXT ( ( #20 ) ) GLOBAL_UNIT_ASSIGNED_CONTEXT ( ( #114, #120, #142 ) ) REPRESENTATION_CONTEXT ( 'NONE', 'WORKASPACE' ) );
#268 = SURFACE_STYLE_FILL_AREA ( #278 ) ;
#269 = PRESENTATION_STYLE_ASSIGNMENT (( #260 ) ) ;
#270 = ORIENTED_EDGE ( 'NONE', *, *, #281, .F. ) ;
#271 = PRESENTATION_STYLE_ASSIGNMENT (( #276 ) ) ;
#272 = DIRECTION ( 'NONE',  ( 0.0000000000000000000, 0.0000000000000000000, 1.000000000000000000 ) ) ;
#273 = FILL_AREA_STYLE_COLOUR ( '', #98 ) ;
#274 = VERTEX_POINT ( 'NONE', #149 ) ;
#275 = VECTOR ( 'NONE', #259, 39.37007874015747433 ) ;
#276 = SURFACE_STYLE_USAGE ( .BOTH. , #69 ) ;
#277 = ORIENTED_EDGE ( 'NONE', *, *, #97, .F. ) ;
#278 = FILL_AREA_STYLE ('',( #273 ) ) ;
#279 = AXIS2_PLACEMENT_3D ( 'NONE', #194, #131, #219 ) ;
#280 = DIRECTION ( 'NONE',  ( -1.224646799147353207E-16, -0.0000000000000000000, -1.000000000000000000 ) ) ;
#281 = EDGE_CURVE ( 'NONE', #177, #274, #5, .T. ) ;
#282 = DIRECTION ( 'NONE',  ( 1.000000000000000000, 0.0000000000000000000, 0.0000000000000000000 ) ) ;
#283 = SURFACE_SIDE_STYLE ('',( #183 ) ) ;
#284 = DIRECTION ( 'NONE',  ( -1.224646799147353207E-16, -0.0000000000000000000, -1.000000000000000000 ) ) ;
#285 = FACE_OUTER_BOUND ( 'NONE', #286, .T. ) ;
#286 = EDGE_LOOP ( 'NONE', ( #209, #39 ) ) ;
#287 = CYLINDRICAL_SURFACE ( 'NONE', #165, 0.09365624999999999645 ) ;
#288 = CARTESIAN_POINT ( 'NONE',  ( 6.123233995736766036E-17, 0.0000000000000000000, 0.5000000000000000000 ) ) ;
#289 = CARTESIAN_POINT ( 'NONE',  ( -0.1099999999999996397, 0.0000000000000000000, 2.000000000000000000 ) ) ;
#290 = CARTESIAN_POINT ( 'NONE',  ( -0.09365624999999992706, 1.146958267826442798E-17, 0.5000000000000000000 ) ) ;
#291 = CIRCLE ( 'NONE', #132, 0.09365624999999999645 ) ;
#292 = LINE ( 'NONE', #188, #88 ) ;
#293 = EDGE_LOOP ( 'NONE', ( #277, #158, #238, #179 ) ) ;
#294 = DIRECTION ( 'NONE',  ( -1.000000000000000000, 0.0000000000000000000, 1.224646799147352961E-16 ) ) ;
#295 = ORIENTED_EDGE ( 'NONE', *, *, #100, .F. ) ;
#296 = COLOUR_RGB ( '',0.7921568627450980005, 0.8196078431372548767, 0.9333333333333333481 ) ;
#297 = CLOSED_SHELL ( 'NONE', ( #254, #143, #167, #299, #95, #74, #264, #162, #195, #210 ) ) ;
#298 = CONICAL_SURFACE ( 'NONE', #37, 0.09365624999999999645, 0.1745329251994338637 ) ;
#299 = ADVANCED_FACE ( 'NONE', ( #180 ), #147, .T. ) ;
ENDSEC;
END-ISO-10303-21;
