ISO-10303-21;
HEADER;
FILE_DESCRIPTION (( 'STEP AP214' ),
    '1' );
FILE_NAME ('Micro_SFBM-030-15.STEP',
    '2021-09-03T16:40:34',
    ( '' ),
    ( '' ),
    'SwSTEP 2.0',
    'SolidWorks 2020',
    '' );
FILE_SCHEMA (( 'AUTOMOTIVE_DESIGN' ));
ENDSEC;

DATA;
#1 = EDGE_CURVE ( 'NONE', #22, #265, #365, .T. ) ;
#2 = AXIS2_PLACEMENT_3D ( 'NONE', #227, #290, #200 ) ;
#3 = EDGE_LOOP ( 'NONE', ( #168, #51, #84, #112 ) ) ;
#4 = DIRECTION ( 'NONE',  ( -0.0000000000000000000, -0.0000000000000000000, -1.000000000000000000 ) ) ;
#5 = FACE_OUTER_BOUND ( 'NONE', #48, .T. ) ;
#6 = ADVANCED_FACE ( 'NONE', ( #11 ), #222, .T. ) ;
#7 = EDGE_LOOP ( 'NONE', ( #270, #370, #218, #160 ) ) ;
#8 = CARTESIAN_POINT ( 'NONE',  ( 0.0000000000000000000, 0.0000000000000000000, 2.244094000000000033 ) ) ;
#9 = CIRCLE ( 'NONE', #360, 0.05904909450000001697 ) ;
#10 = CARTESIAN_POINT ( 'NONE',  ( 0.05904909450000001697, 7.231428457197460236E-18, 0.1574800000000000089 ) ) ;
#11 = FACE_OUTER_BOUND ( 'NONE', #73, .T. ) ;
#12 = EDGE_CURVE ( 'NONE', #310, #342, #368, .T. ) ;
#13 = DIRECTION ( 'NONE',  ( 1.000000000000000000, 0.0000000000000000000, 0.0000000000000000000 ) ) ;
#14 = AXIS2_PLACEMENT_3D ( 'NONE', #130, #137, #256 ) ;
#15 = VECTOR ( 'NONE', #139, 39.37007874015748143 ) ;
#16 = ORIENTED_EDGE ( 'NONE', *, *, #235, .T. ) ;
#17 = DIRECTION ( 'NONE',  ( -0.0000000000000000000, -0.0000000000000000000, -1.000000000000000000 ) ) ;
#18 =( CONVERSION_BASED_UNIT ( 'INCH', #280 ) LENGTH_UNIT ( ) NAMED_UNIT ( #330 ) );
#19 = ORIENTED_EDGE ( 'NONE', *, *, #64, .T. ) ;
#20 = PRESENTATION_STYLE_ASSIGNMENT (( #167 ) ) ;
#21 = ADVANCED_FACE ( 'NONE', ( #24 ), #359, .T. ) ;
#22 = VERTEX_POINT ( 'NONE', #246 ) ;
#23 = CARTESIAN_POINT ( 'NONE',  ( 0.0000000000000000000, 0.0000000000000000000, 0.0000000000000000000 ) ) ;
#24 = FACE_OUTER_BOUND ( 'NONE', #161, .T. ) ;
#25 = VECTOR ( 'NONE', #67, 39.37007874015748143 ) ;
#26 = FACE_OUTER_BOUND ( 'NONE', #76, .T. ) ;
#27 = SURFACE_SIDE_STYLE ('',( #230 ) ) ;
#28 = CARTESIAN_POINT ( 'NONE',  ( -0.05708650000000006774, 0.0000000000000000000, 0.5905510000000000481 ) ) ;
#29 = ADVANCED_FACE ( 'NONE', ( #142 ), #217, .T. ) ;
#30 = PRODUCT_CONTEXT ( 'NONE', #306, 'mechanical' ) ;
#31 = DIRECTION ( 'NONE',  ( -1.000000000000000000, 0.0000000000000000000, 0.0000000000000000000 ) ) ;
#32 = DIRECTION ( 'NONE',  ( -0.0000000000000000000, -0.0000000000000000000, -1.000000000000000000 ) ) ;
#33 = ORIENTED_EDGE ( 'NONE', *, *, #87, .F. ) ;
#34 = VECTOR ( 'NONE', #293, 39.37007874015748143 ) ;
#35 = DIRECTION ( 'NONE',  ( 0.7071067811865358044, 8.659560562354788645E-17, -0.7071067811865590080 ) ) ;
#36 = EDGE_CURVE ( 'NONE', #374, #68, #86, .T. ) ;
#37 = FACE_OUTER_BOUND ( 'NONE', #165, .T. ) ;
#38 = FACE_OUTER_BOUND ( 'NONE', #343, .T. ) ;
#39 = CARTESIAN_POINT ( 'NONE',  ( 0.0000000000000000000, 0.0000000000000000000, 2.244094000000000033 ) ) ;
#40 = MECHANICAL_DESIGN_GEOMETRIC_PRESENTATION_REPRESENTATION (  '', ( #278 ), #66 ) ;
#41 = AXIS2_PLACEMENT_3D ( 'NONE', #116, #234, #326 ) ;
#42 = EDGE_CURVE ( 'NONE', #68, #340, #288, .T. ) ;
#43 = EDGE_LOOP ( 'NONE', ( #307, #262 ) ) ;
#44 = DIRECTION ( 'NONE',  ( -1.000000000000000000, 0.0000000000000000000, 0.0000000000000000000 ) ) ;
#45 = ORIENTED_EDGE ( 'NONE', *, *, #272, .F. ) ;
#46 = CARTESIAN_POINT ( 'NONE',  ( 0.1031100000000002570, 1.354581824536888722E-17, 2.244094000000000033 ) ) ;
#47 = CIRCLE ( 'NONE', #2, 0.1181100000000000066 ) ;
#48 = EDGE_LOOP ( 'NONE', ( #364, #267, #283, #148 ) ) ;
#49 = PRODUCT ( 'Micro_SFBM-030-15', 'Micro_SFBM-030-15', '', ( #30 ) ) ;
#50 = CARTESIAN_POINT ( 'NONE',  ( 0.05708650000000004693, 6.991079949952542812E-18, 0.0000000000000000000 ) ) ;
#51 = ORIENTED_EDGE ( 'NONE', *, *, #188, .T. ) ;
#52 = DIRECTION ( 'NONE',  ( -1.000000000000000000, 0.0000000000000000000, 0.0000000000000000000 ) ) ;
#53 = DIRECTION ( 'NONE',  ( -1.000000000000000000, 0.0000000000000000000, 0.0000000000000000000 ) ) ;
#54 = CARTESIAN_POINT ( 'NONE',  ( -0.1181100000000000066, 0.0000000000000000000, 2.229093999999999465 ) ) ;
#55 = VECTOR ( 'NONE', #183, 39.37007874015748143 ) ;
#56 =( LENGTH_UNIT ( ) NAMED_UNIT ( * ) SI_UNIT ( $, .METRE. ) );
#57 = CARTESIAN_POINT ( 'NONE',  ( -0.05708650000000001917, 0.0000000000000000000, 0.1686104265071316777 ) ) ;
#58 =( NAMED_UNIT ( * ) PLANE_ANGLE_UNIT ( ) SI_UNIT ( $, .RADIAN. ) );
#59 = PRESENTATION_LAYER_ASSIGNMENT (  '', '', ( #278 ) ) ;
#60 = PRODUCT_DEFINITION ( 'UNKNOWN', '', #194, #327 ) ;
#61 = CARTESIAN_POINT ( 'NONE',  ( 0.1181100000000000066, 1.446430334472939084E-17, 2.244094000000000033 ) ) ;
#62 = DIRECTION ( 'NONE',  ( -1.000000000000000000, 0.0000000000000000000, 0.0000000000000000000 ) ) ;
#63 = DIRECTION ( 'NONE',  ( -0.0000000000000000000, -0.0000000000000000000, -1.000000000000000000 ) ) ;
#64 = EDGE_CURVE ( 'NONE', #310, #120, #232, .T. ) ;
#65 = AXIS2_PLACEMENT_3D ( 'NONE', #305, #214, #69 ) ;
#66 =( GEOMETRIC_REPRESENTATION_CONTEXT ( 3 ) GLOBAL_UNCERTAINTY_ASSIGNED_CONTEXT ( ( #239 ) ) GLOBAL_UNIT_ASSIGNED_CONTEXT ( ( #18, #251, #100 ) ) REPRESENTATION_CONTEXT ( 'NONE', 'WORKASPACE' ) );
#67 = DIRECTION ( 'NONE',  ( -0.0000000000000000000, -0.0000000000000000000, -1.000000000000000000 ) ) ;
#68 = VERTEX_POINT ( 'NONE', #261 ) ;
#69 = DIRECTION ( 'NONE',  ( -1.000000000000000000, 0.0000000000000000000, 0.0000000000000000000 ) ) ;
#70 = ORIENTED_EDGE ( 'NONE', *, *, #378, .F. ) ;
#71 = DIMENSIONAL_EXPONENTS ( 1.000000000000000000, 0.0000000000000000000, 0.0000000000000000000, 0.0000000000000000000, 0.0000000000000000000, 0.0000000000000000000, 0.0000000000000000000 ) ;
#72 = DIRECTION ( 'NONE',  ( -0.0000000000000000000, -0.0000000000000000000, -1.000000000000000000 ) ) ;
#73 = EDGE_LOOP ( 'NONE', ( #77, #304, #213, #277 ) ) ;
#74 = AXIS2_PLACEMENT_3D ( 'NONE', #352, #196, #197 ) ;
#75 = EDGE_CURVE ( 'NONE', #120, #310, #117, .T. ) ;
#76 = EDGE_LOOP ( 'NONE', ( #181, #132, #319, #362 ) ) ;
#77 = ORIENTED_EDGE ( 'NONE', *, *, #263, .F. ) ;
#78 = CARTESIAN_POINT ( 'NONE',  ( 0.0000000000000000000, 0.0000000000000000000, 0.5905510000000000481 ) ) ;
#79 = ORIENTED_EDGE ( 'NONE', *, *, #42, .F. ) ;
#80 = EDGE_CURVE ( 'NONE', #228, #281, #236, .T. ) ;
#81 = SURFACE_SIDE_STYLE ('',( #344 ) ) ;
#82 = VECTOR ( 'NONE', #282, 39.37007874015748143 ) ;
#83 = ORIENTED_EDGE ( 'NONE', *, *, #223, .T. ) ;
#84 = ORIENTED_EDGE ( 'NONE', *, *, #94, .T. ) ;
#85 = DIRECTION ( 'NONE',  ( -1.000000000000000000, 0.0000000000000000000, 0.0000000000000000000 ) ) ;
#86 = LINE ( 'NONE', #325, #294 ) ;
#87 = EDGE_CURVE ( 'NONE', #265, #228, #210, .T. ) ;
#88 = AXIS2_PLACEMENT_3D ( 'NONE', #211, #144, #303 ) ;
#89 = CARTESIAN_POINT ( 'NONE',  ( 0.0000000000000000000, 0.0000000000000000000, 2.244094000000000033 ) ) ;
#90 = SURFACE_STYLE_USAGE ( .BOTH. , #27 ) ;
#91 = UNCERTAINTY_MEASURE_WITH_UNIT (LENGTH_MEASURE( 1.000000000000000082E-05 ), #296, 'distance_accuracy_value', 'NONE');
#92 = CIRCLE ( 'NONE', #88, 0.1181100000000000066 ) ;
#93 = CARTESIAN_POINT ( 'NONE',  ( 0.05708650000000001917, 7.111254203575000753E-18, 0.1686104265071316777 ) ) ;
#94 = EDGE_CURVE ( 'NONE', #376, #347, #154, .T. ) ;
#95 = FACE_OUTER_BOUND ( 'NONE', #3, .T. ) ;
#96 = AXIS2_PLACEMENT_3D ( 'NONE', #314, #312, #372 ) ;
#97 = CARTESIAN_POINT ( 'NONE',  ( 0.0000000000000000000, 0.0000000000000000000, 0.5905510000000000481 ) ) ;
#98 = EDGE_LOOP ( 'NONE', ( #184, #186 ) ) ;
#99 = CYLINDRICAL_SURFACE ( 'NONE', #125, 0.1181100000000000066 ) ;
#100 =( NAMED_UNIT ( * ) SI_UNIT ( $, .STERADIAN. ) SOLID_ANGLE_UNIT ( ) );
#101 = AXIS2_PLACEMENT_3D ( 'NONE', #371, #193, #128 ) ;
#102 = CARTESIAN_POINT ( 'NONE',  ( 0.0000000000000000000, 0.0000000000000000000, 0.0000000000000000000 ) ) ;
#103 = DIRECTION ( 'NONE',  ( -1.000000000000000000, 0.0000000000000000000, 0.0000000000000000000 ) ) ;
#104 = ADVANCED_FACE ( 'NONE', ( #38 ), #119, .T. ) ;
#105 = ORIENTED_EDGE ( 'NONE', *, *, #244, .T. ) ;
#106 = CARTESIAN_POINT ( 'NONE',  ( 0.0000000000000000000, 0.0000000000000000000, 2.244094000000000033 ) ) ;
#107 = ORIENTED_EDGE ( 'NONE', *, *, #263, .T. ) ;
#108 = AXIS2_PLACEMENT_3D ( 'NONE', #243, #264, #358 ) ;
#109 = AXIS2_PLACEMENT_3D ( 'NONE', #198, #320, #52 ) ;
#110 = VERTEX_POINT ( 'NONE', #238 ) ;
#111 = CARTESIAN_POINT ( 'NONE',  ( -0.1181100000000000066, 0.0000000000000000000, 0.5905510000000000481 ) ) ;
#112 = ORIENTED_EDGE ( 'NONE', *, *, #355, .F. ) ;
#113 = ADVANCED_FACE ( 'NONE', ( #5 ), #337, .T. ) ;
#114 = DIRECTION ( 'NONE',  ( 0.0000000000000000000, 0.0000000000000000000, 1.000000000000000000 ) ) ;
#115 = FILL_AREA_STYLE_COLOUR ( '', #173 ) ;
#116 = CARTESIAN_POINT ( 'NONE',  ( 0.0000000000000000000, 0.0000000000000000000, 0.0000000000000000000 ) ) ;
#117 = CIRCLE ( 'NONE', #65, 0.05708650000000001917 ) ;
#118 =( GEOMETRIC_REPRESENTATION_CONTEXT ( 3 ) GLOBAL_UNCERTAINTY_ASSIGNED_CONTEXT ( ( #91 ) ) GLOBAL_UNIT_ASSIGNED_CONTEXT ( ( #296, #58, #172 ) ) REPRESENTATION_CONTEXT ( 'NONE', 'WORKASPACE' ) );
#119 = CYLINDRICAL_SURFACE ( 'NONE', #224, 0.05708650000000004693 ) ;
#120 = VERTEX_POINT ( 'NONE', #93 ) ;
#121 = DIRECTION ( 'NONE',  ( -0.0000000000000000000, -0.0000000000000000000, -1.000000000000000000 ) ) ;
#122 = PLANE ( 'NONE',  #108 ) ;
#123 = APPLICATION_CONTEXT ( 'automotive_design' ) ;
#124 = AXIS2_PLACEMENT_3D ( 'NONE', #353, #331, #356 ) ;
#125 = AXIS2_PLACEMENT_3D ( 'NONE', #106, #221, #339 ) ;
#126 = FACE_OUTER_BOUND ( 'NONE', #98, .T. ) ;
#127 = EDGE_CURVE ( 'NONE', #110, #164, #202, .T. ) ;
#128 = DIRECTION ( 'NONE',  ( -1.000000000000000000, 0.0000000000000000000, 0.0000000000000000000 ) ) ;
#129 = FACE_OUTER_BOUND ( 'NONE', #7, .T. ) ;
#130 = CARTESIAN_POINT ( 'NONE',  ( 0.0000000000000000000, 0.0000000000000000000, 2.244094000000000033 ) ) ;
#131 = DIRECTION ( 'NONE',  ( -0.0000000000000000000, -0.0000000000000000000, -1.000000000000000000 ) ) ;
#132 = ORIENTED_EDGE ( 'NONE', *, *, #75, .T. ) ;
#133 = FILL_AREA_STYLE ('',( #341 ) ) ;
#134 = ORIENTED_EDGE ( 'NONE', *, *, #127, .F. ) ;
#135 = DIRECTION ( 'NONE',  ( -0.0000000000000000000, -0.0000000000000000000, -1.000000000000000000 ) ) ;
#136 = FACE_OUTER_BOUND ( 'NONE', #225, .T. ) ;
#137 = DIRECTION ( 'NONE',  ( 0.0000000000000000000, 0.0000000000000000000, -1.000000000000000000 ) ) ;
#138 = CARTESIAN_POINT ( 'NONE',  ( -0.05708650000000004693, 0.0000000000000000000, 0.0000000000000000000 ) ) ;
#139 = DIRECTION ( 'NONE',  ( -0.0000000000000000000, -0.0000000000000000000, -1.000000000000000000 ) ) ;
#140 = ADVANCED_FACE ( 'NONE', ( #95 ), #268, .T. ) ;
#141 = AXIS2_PLACEMENT_3D ( 'NONE', #102, #321, #53 ) ;
#142 = FACE_OUTER_BOUND ( 'NONE', #275, .T. ) ;
#143 = CONICAL_SURFACE ( 'NONE', #309, 0.05904909450000001697, 0.1745329251994332254 ) ;
#144 = DIRECTION ( 'NONE',  ( 0.0000000000000000000, 0.0000000000000000000, -1.000000000000000000 ) ) ;
#145 = FILL_AREA_STYLE ('',( #115 ) ) ;
#146 = CLOSED_SHELL ( 'NONE', ( #113, #104, #175, #21, #279, #140, #308, #29, #155, #338, #6, #212, #149 ) ) ;
#147 = DIRECTION ( 'NONE',  ( -0.0000000000000000000, -0.0000000000000000000, -1.000000000000000000 ) ) ;
#148 = ORIENTED_EDGE ( 'NONE', *, *, #333, .F. ) ;
#149 = ADVANCED_FACE ( 'NONE', ( #126 ), #122, .F. ) ;
#150 = AXIS2_PLACEMENT_3D ( 'NONE', #318, #219, #215 ) ;
#151 = CARTESIAN_POINT ( 'NONE',  ( 0.1031100000000002570, 1.262733314600838667E-17, 2.244094000000000033 ) ) ;
#152 = ORIENTED_EDGE ( 'NONE', *, *, #36, .F. ) ;
#153 = DIRECTION ( 'NONE',  ( -0.0000000000000000000, -0.0000000000000000000, -1.000000000000000000 ) ) ;
#154 = LINE ( 'NONE', #209, #25 ) ;
#155 = ADVANCED_FACE ( 'NONE', ( #176, #242 ), #328, .T. ) ;
#156 = DIMENSIONAL_EXPONENTS ( 1.000000000000000000, 0.0000000000000000000, 0.0000000000000000000, 0.0000000000000000000, 0.0000000000000000000, 0.0000000000000000000, 0.0000000000000000000 ) ;
#157 = AXIS2_PLACEMENT_3D ( 'NONE', #361, #174, #297 ) ;
#158 = AXIS2_PLACEMENT_3D ( 'NONE', #266, #32, #190 ) ;
#159 = LINE ( 'NONE', #10, #82 ) ;
#160 = ORIENTED_EDGE ( 'NONE', *, *, #94, .F. ) ;
#161 = EDGE_LOOP ( 'NONE', ( #195, #220, #300, #199 ) ) ;
#162 = EDGE_CURVE ( 'NONE', #347, #281, #207, .T. ) ;
#163 = DIRECTION ( 'NONE',  ( -0.0000000000000000000, -0.0000000000000000000, -1.000000000000000000 ) ) ;
#164 = VERTEX_POINT ( 'NONE', #28 ) ;
#165 = EDGE_LOOP ( 'NONE', ( #152, #83, #250, #79 ) ) ;
#166 = PRODUCT_DEFINITION_SHAPE ( 'NONE', 'NONE',  #60 ) ;
#167 = SURFACE_STYLE_USAGE ( .BOTH. , #81 ) ;
#168 = ORIENTED_EDGE ( 'NONE', *, *, #80, .F. ) ;
#169 = LINE ( 'NONE', #348, #34 ) ;
#170 = CARTESIAN_POINT ( 'NONE',  ( -0.05904909450000001697, 0.0000000000000000000, 0.1574800000000000089 ) ) ;
#171 =( CONVERSION_BASED_UNIT ( 'INCH', #201 ) LENGTH_UNIT ( ) NAMED_UNIT ( #71 ) );
#172 =( NAMED_UNIT ( * ) SI_UNIT ( $, .STERADIAN. ) SOLID_ANGLE_UNIT ( ) );
#173 = COLOUR_RGB ( '',0.7921568627450980005, 0.8196078431372548767, 0.9333333333333333481 ) ;
#174 = DIRECTION ( 'NONE',  ( -0.0000000000000000000, 0.0000000000000000000, -1.000000000000000000 ) ) ;
#175 = ADVANCED_FACE ( 'NONE', ( #301 ), #143, .T. ) ;
#176 = FACE_BOUND ( 'NONE', #189, .T. ) ;
#177 = VECTOR ( 'NONE', #286, 39.37007874015748143 ) ;
#178 = CARTESIAN_POINT ( 'NONE',  ( 0.0000000000000000000, 0.0000000000000000000, 0.1686104265071316777 ) ) ;
#179 = AXIS2_PLACEMENT_3D ( 'NONE', #89, #114, #205 ) ;
#180 = DIRECTION ( 'NONE',  ( -1.000000000000000000, 0.0000000000000000000, 0.0000000000000000000 ) ) ;
#181 = ORIENTED_EDGE ( 'NONE', *, *, #244, .F. ) ;
#182 = PRODUCT_RELATED_PRODUCT_CATEGORY ( 'part', '', ( #49 ) ) ;
#183 = DIRECTION ( 'NONE',  ( -0.0000000000000000000, -0.0000000000000000000, -1.000000000000000000 ) ) ;
#184 = ORIENTED_EDGE ( 'NONE', *, *, #291, .T. ) ;
#185 = DIRECTION ( 'NONE',  ( -0.0000000000000000000, -0.0000000000000000000, -1.000000000000000000 ) ) ;
#186 = ORIENTED_EDGE ( 'NONE', *, *, #42, .T. ) ;
#187 = ORIENTED_EDGE ( 'NONE', *, *, #1, .F. ) ;
#188 = EDGE_CURVE ( 'NONE', #228, #376, #92, .T. ) ;
#189 = EDGE_LOOP ( 'NONE', ( #45, #134 ) ) ;
#190 = DIRECTION ( 'NONE',  ( -1.000000000000000000, 0.0000000000000000000, 0.0000000000000000000 ) ) ;
#191 = EDGE_LOOP ( 'NONE', ( #19, #105, #273, #316 ) ) ;
#192 = AXIS2_PLACEMENT_3D ( 'NONE', #23, #135, #85 ) ;
#193 = DIRECTION ( 'NONE',  ( -0.0000000000000000000, -0.0000000000000000000, -1.000000000000000000 ) ) ;
#194 = PRODUCT_DEFINITION_FORMATION_WITH_SPECIFIED_SOURCE ( 'ANY', '', #49, .NOT_KNOWN. ) ;
#195 = ORIENTED_EDGE ( 'NONE', *, *, #235, .F. ) ;
#196 = DIRECTION ( 'NONE',  ( 0.0000000000000000000, 0.0000000000000000000, -1.000000000000000000 ) ) ;
#197 = DIRECTION ( 'NONE',  ( -1.000000000000000000, 0.0000000000000000000, 0.0000000000000000000 ) ) ;
#198 = CARTESIAN_POINT ( 'NONE',  ( 0.0000000000000000000, 0.0000000000000000000, 0.1574800000000000089 ) ) ;
#199 = ORIENTED_EDGE ( 'NONE', *, *, #299, .F. ) ;
#200 = DIRECTION ( 'NONE',  ( -1.000000000000000000, 0.0000000000000000000, 0.0000000000000000000 ) ) ;
#201 = LENGTH_MEASURE_WITH_UNIT ( LENGTH_MEASURE( 0.02539999999999999897 ), #349 );
#202 = CIRCLE ( 'NONE', #346, 0.05708650000000006774 ) ;
#203 = VECTOR ( 'NONE', #369, 39.37007874015748854 ) ;
#204 =( NAMED_UNIT ( * ) PLANE_ANGLE_UNIT ( ) SI_UNIT ( $, .RADIAN. ) );
#205 = DIRECTION ( 'NONE',  ( 1.000000000000000000, 0.0000000000000000000, -0.0000000000000000000 ) ) ;
#206 = AXIS2_PLACEMENT_3D ( 'NONE', #357, #147, #180 ) ;
#207 = CIRCLE ( 'NONE', #206, 0.1181100000000000066 ) ;
#208 = MECHANICAL_DESIGN_GEOMETRIC_PRESENTATION_REPRESENTATION (  '', ( #350 ), #118 ) ;
#209 = CARTESIAN_POINT ( 'NONE',  ( -0.1181100000000000066, 0.0000000000000000000, 2.244094000000000033 ) ) ;
#210 = LINE ( 'NONE', #151, #269 ) ;
#211 = CARTESIAN_POINT ( 'NONE',  ( 0.0000000000000000000, 0.0000000000000000000, 2.229093999999999465 ) ) ;
#212 = ADVANCED_FACE ( 'NONE', ( #37 ), #298, .T. ) ;
#213 = ORIENTED_EDGE ( 'NONE', *, *, #378, .T. ) ;
#214 = DIRECTION ( 'NONE',  ( -0.0000000000000000000, -0.0000000000000000000, -1.000000000000000000 ) ) ;
#215 = DIRECTION ( 'NONE',  ( 1.000000000000000000, 0.0000000000000000000, 0.0000000000000000000 ) ) ;
#216 = CARTESIAN_POINT ( 'NONE',  ( 0.1181100000000000066, 1.446430334472939084E-17, 0.5905510000000000481 ) ) ;
#217 = CONICAL_SURFACE ( 'NONE', #74, 0.1031100000000002570, 0.7853981633974318477 ) ;
#218 = ORIENTED_EDGE ( 'NONE', *, *, #162, .F. ) ;
#219 = DIRECTION ( 'NONE',  ( 0.0000000000000000000, 0.0000000000000000000, -1.000000000000000000 ) ) ;
#220 = ORIENTED_EDGE ( 'NONE', *, *, #87, .T. ) ;
#221 = DIRECTION ( 'NONE',  ( -0.0000000000000000000, -0.0000000000000000000, -1.000000000000000000 ) ) ;
#222 = CYLINDRICAL_SURFACE ( 'NONE', #141, 0.05708650000000004693 ) ;
#223 = EDGE_CURVE ( 'NONE', #374, #342, #9, .T. ) ;
#224 = AXIS2_PLACEMENT_3D ( 'NONE', #334, #121, #62 ) ;
#225 = EDGE_LOOP ( 'NONE', ( #336, #16 ) ) ;
#226 = ADVANCED_BREP_SHAPE_REPRESENTATION ( 'Micro_SFBM-030-15', ( #287, #41 ), #335 ) ;
#227 = CARTESIAN_POINT ( 'NONE',  ( 0.0000000000000000000, 0.0000000000000000000, 0.5905510000000000481 ) ) ;
#228 = VERTEX_POINT ( 'NONE', #311 ) ;
#229 = EDGE_CURVE ( 'NONE', #342, #374, #289, .T. ) ;
#230 = SURFACE_STYLE_FILL_AREA ( #145 ) ;
#231 = PLANE ( 'NONE',  #179 ) ;
#232 = CIRCLE ( 'NONE', #366, 0.05708650000000001917 ) ;
#233 = COLOUR_RGB ( '',0.7921568627450980005, 0.8196078431372548767, 0.9333333333333333481 ) ;
#234 = DIRECTION ( 'NONE',  ( 0.0000000000000000000, 0.0000000000000000000, 1.000000000000000000 ) ) ;
#235 = EDGE_CURVE ( 'NONE', #265, #22, #302, .T. ) ;
#236 = LINE ( 'NONE', #61, #55 ) ;
#237 = APPLICATION_PROTOCOL_DEFINITION ( 'draft international standard', 'automotive_design', 1998, #123 ) ;
#238 = CARTESIAN_POINT ( 'NONE',  ( 0.05708650000000006774, 6.991079949952545893E-18, 0.5905510000000000481 ) ) ;
#239 = UNCERTAINTY_MEASURE_WITH_UNIT (LENGTH_MEASURE( 1.000000000000000082E-05 ), #18, 'distance_accuracy_value', 'NONE');
#240 = ORIENTED_EDGE ( 'NONE', *, *, #64, .F. ) ;
#241 = CARTESIAN_POINT ( 'NONE',  ( 0.0000000000000000000, 0.0000000000000000000, 0.1574800000000000089 ) ) ;
#242 = FACE_OUTER_BOUND ( 'NONE', #43, .T. ) ;
#243 = CARTESIAN_POINT ( 'NONE',  ( 0.0000000000000000000, 0.0000000000000000000, 0.0000000000000000000 ) ) ;
#244 = EDGE_CURVE ( 'NONE', #120, #374, #159, .T. ) ;
#245 =( LENGTH_UNIT ( ) NAMED_UNIT ( * ) SI_UNIT ( $, .METRE. ) );
#246 = CARTESIAN_POINT ( 'NONE',  ( -0.1031100000000002570, 0.0000000000000000000, 2.244094000000000033 ) ) ;
#247 = AXIS2_PLACEMENT_3D ( 'NONE', #8, #63, #379 ) ;
#248 = AXIS2_PLACEMENT_3D ( 'NONE', #39, #315, #13 ) ;
#249 = CARTESIAN_POINT ( 'NONE',  ( -0.1031100000000002570, 0.0000000000000000000, 2.244094000000000033 ) ) ;
#250 = ORIENTED_EDGE ( 'NONE', *, *, #333, .T. ) ;
#251 =( NAMED_UNIT ( * ) PLANE_ANGLE_UNIT ( ) SI_UNIT ( $, .RADIAN. ) );
#252 = EDGE_CURVE ( 'NONE', #376, #228, #295, .T. ) ;
#253 = ORIENTED_EDGE ( 'NONE', *, *, #272, .T. ) ;
#254 = ORIENTED_EDGE ( 'NONE', *, *, #188, .F. ) ;
#255 = CARTESIAN_POINT ( 'NONE',  ( -0.05904909450000001697, 0.0000000000000000000, 0.1574800000000000089 ) ) ;
#256 = DIRECTION ( 'NONE',  ( -1.000000000000000000, 0.0000000000000000000, 0.0000000000000000000 ) ) ;
#257 = CIRCLE ( 'NONE', #317, 0.05708650000000006774 ) ;
#258 = UNCERTAINTY_MEASURE_WITH_UNIT (LENGTH_MEASURE( 1.000000000000000082E-05 ), #171, 'distance_accuracy_value', 'NONE');
#259 = DIRECTION ( 'NONE',  ( -1.000000000000000000, 0.0000000000000000000, 0.0000000000000000000 ) ) ;
#260 =( NAMED_UNIT ( * ) SI_UNIT ( $, .STERADIAN. ) SOLID_ANGLE_UNIT ( ) );
#261 = CARTESIAN_POINT ( 'NONE',  ( 0.05904909450000001697, 7.231428457197460236E-18, 0.0000000000000000000 ) ) ;
#262 = ORIENTED_EDGE ( 'NONE', *, *, #355, .T. ) ;
#263 = EDGE_CURVE ( 'NONE', #110, #120, #274, .T. ) ;
#264 = DIRECTION ( 'NONE',  ( 0.0000000000000000000, 0.0000000000000000000, 1.000000000000000000 ) ) ;
#265 = VERTEX_POINT ( 'NONE', #46 ) ;
#266 = CARTESIAN_POINT ( 'NONE',  ( 0.0000000000000000000, 0.0000000000000000000, 0.0000000000000000000 ) ) ;
#267 = ORIENTED_EDGE ( 'NONE', *, *, #36, .T. ) ;
#268 = CYLINDRICAL_SURFACE ( 'NONE', #247, 0.1181100000000000066 ) ;
#269 = VECTOR ( 'NONE', #35, 39.37007874015748854 ) ;
#270 = ORIENTED_EDGE ( 'NONE', *, *, #252, .T. ) ;
#271 = CONICAL_SURFACE ( 'NONE', #109, 0.05904909450000001697, 0.1745329251994332254 ) ;
#272 = EDGE_CURVE ( 'NONE', #164, #110, #257, .T. ) ;
#273 = ORIENTED_EDGE ( 'NONE', *, *, #229, .F. ) ;
#274 = LINE ( 'NONE', #50, #367 ) ;
#275 = EDGE_LOOP ( 'NONE', ( #33, #187, #345, #254 ) ) ;
#276 = LINE ( 'NONE', #249, #203 ) ;
#277 = ORIENTED_EDGE ( 'NONE', *, *, #75, .F. ) ;
#278 = STYLED_ITEM ( 'NONE', ( #20 ), #287 ) ;
#279 = ADVANCED_FACE ( 'NONE', ( #129 ), #99, .T. ) ;
#280 = LENGTH_MEASURE_WITH_UNIT ( LENGTH_MEASURE( 0.02539999999999999897 ), #245 );
#281 = VERTEX_POINT ( 'NONE', #216 ) ;
#282 = DIRECTION ( 'NONE',  ( 0.1736481776669306087, 2.126576849575774688E-17, -0.9848077530122080203 ) ) ;
#283 = ORIENTED_EDGE ( 'NONE', *, *, #291, .F. ) ;
#284 = DIRECTION ( 'NONE',  ( -0.0000000000000000000, -0.0000000000000000000, -1.000000000000000000 ) ) ;
#285 = CARTESIAN_POINT ( 'NONE',  ( -0.05904909450000001697, 0.0000000000000000000, 0.0000000000000000000 ) ) ;
#286 = DIRECTION ( 'NONE',  ( -0.1736481776669306087, 0.0000000000000000000, -0.9848077530122080203 ) ) ;
#287 = MANIFOLD_SOLID_BREP ( 'Cut-Revolve1', #146 ) ;
#288 = CIRCLE ( 'NONE', #192, 0.05904909450000001697 ) ;
#289 = CIRCLE ( 'NONE', #101, 0.05904909450000001697 ) ;
#290 = DIRECTION ( 'NONE',  ( -0.0000000000000000000, -0.0000000000000000000, -1.000000000000000000 ) ) ;
#291 = EDGE_CURVE ( 'NONE', #340, #68, #324, .T. ) ;
#292 = LINE ( 'NONE', #138, #15 ) ;
#293 = DIRECTION ( 'NONE',  ( -0.0000000000000000000, -0.0000000000000000000, -1.000000000000000000 ) ) ;
#294 = VECTOR ( 'NONE', #284, 39.37007874015748143 ) ;
#295 = CIRCLE ( 'NONE', #150, 0.1181100000000000066 ) ;
#296 =( CONVERSION_BASED_UNIT ( 'INCH', #377 ) LENGTH_UNIT ( ) NAMED_UNIT ( #156 ) );
#297 = DIRECTION ( 'NONE',  ( -1.000000000000000000, 0.0000000000000000000, 0.0000000000000000000 ) ) ;
#298 = CYLINDRICAL_SURFACE ( 'NONE', #158, 0.05904909450000001697 ) ;
#299 = EDGE_CURVE ( 'NONE', #22, #376, #276, .T. ) ;
#300 = ORIENTED_EDGE ( 'NONE', *, *, #252, .F. ) ;
#301 = FACE_OUTER_BOUND ( 'NONE', #191, .T. ) ;
#302 = CIRCLE ( 'NONE', #248, 0.1031100000000002570 ) ;
#303 = DIRECTION ( 'NONE',  ( 1.000000000000000000, 0.0000000000000000000, 0.0000000000000000000 ) ) ;
#304 = ORIENTED_EDGE ( 'NONE', *, *, #127, .T. ) ;
#305 = CARTESIAN_POINT ( 'NONE',  ( 0.0000000000000000000, 0.0000000000000000000, 0.1686104265071316777 ) ) ;
#306 = APPLICATION_CONTEXT ( 'automotive_design' ) ;
#307 = ORIENTED_EDGE ( 'NONE', *, *, #162, .T. ) ;
#308 = ADVANCED_FACE ( 'NONE', ( #136 ), #231, .T. ) ;
#309 = AXIS2_PLACEMENT_3D ( 'NONE', #241, #4, #259 ) ;
#310 = VERTEX_POINT ( 'NONE', #57 ) ;
#311 = CARTESIAN_POINT ( 'NONE',  ( 0.1181100000000000066, 1.446430334472939084E-17, 2.229093999999999465 ) ) ;
#312 = DIRECTION ( 'NONE',  ( 0.0000000000000000000, 0.0000000000000000000, 1.000000000000000000 ) ) ;
#313 = CARTESIAN_POINT ( 'NONE',  ( 0.0000000000000000000, 0.0000000000000000000, 0.0000000000000000000 ) ) ;
#314 = CARTESIAN_POINT ( 'NONE',  ( 0.0000000000000000000, 0.0000000000000000000, 2.244094000000000033 ) ) ;
#315 = DIRECTION ( 'NONE',  ( 0.0000000000000000000, 0.0000000000000000000, 1.000000000000000000 ) ) ;
#316 = ORIENTED_EDGE ( 'NONE', *, *, #12, .F. ) ;
#317 = AXIS2_PLACEMENT_3D ( 'NONE', #78, #163, #363 ) ;
#318 = CARTESIAN_POINT ( 'NONE',  ( 0.0000000000000000000, 0.0000000000000000000, 2.229093999999999465 ) ) ;
#319 = ORIENTED_EDGE ( 'NONE', *, *, #12, .T. ) ;
#320 = DIRECTION ( 'NONE',  ( -0.0000000000000000000, -0.0000000000000000000, -1.000000000000000000 ) ) ;
#321 = DIRECTION ( 'NONE',  ( -0.0000000000000000000, -0.0000000000000000000, -1.000000000000000000 ) ) ;
#322 = CARTESIAN_POINT ( 'NONE',  ( 0.05904909450000001697, 7.231428457197460236E-18, 0.1574800000000000089 ) ) ;
#323 = PRESENTATION_STYLE_ASSIGNMENT (( #90 ) ) ;
#324 = CIRCLE ( 'NONE', #329, 0.05904909450000001697 ) ;
#325 = CARTESIAN_POINT ( 'NONE',  ( 0.05904909450000001697, 7.231428457197460236E-18, 0.0000000000000000000 ) ) ;
#326 = DIRECTION ( 'NONE',  ( 1.000000000000000000, 0.0000000000000000000, 0.0000000000000000000 ) ) ;
#327 = PRODUCT_DEFINITION_CONTEXT ( 'detailed design', #123, 'design' ) ;
#328 = PLANE ( 'NONE',  #157 ) ;
#329 = AXIS2_PLACEMENT_3D ( 'NONE', #313, #72, #44 ) ;
#330 = DIMENSIONAL_EXPONENTS ( 1.000000000000000000, 0.0000000000000000000, 0.0000000000000000000, 0.0000000000000000000, 0.0000000000000000000, 0.0000000000000000000, 0.0000000000000000000 ) ;
#331 = DIRECTION ( 'NONE',  ( -0.0000000000000000000, -0.0000000000000000000, -1.000000000000000000 ) ) ;
#332 = DIRECTION ( 'NONE',  ( -1.000000000000000000, 0.0000000000000000000, 0.0000000000000000000 ) ) ;
#333 = EDGE_CURVE ( 'NONE', #342, #340, #169, .T. ) ;
#334 = CARTESIAN_POINT ( 'NONE',  ( 0.0000000000000000000, 0.0000000000000000000, 0.0000000000000000000 ) ) ;
#335 =( GEOMETRIC_REPRESENTATION_CONTEXT ( 3 ) GLOBAL_UNCERTAINTY_ASSIGNED_CONTEXT ( ( #258 ) ) GLOBAL_UNIT_ASSIGNED_CONTEXT ( ( #171, #204, #260 ) ) REPRESENTATION_CONTEXT ( 'NONE', 'WORKASPACE' ) );
#336 = ORIENTED_EDGE ( 'NONE', *, *, #1, .T. ) ;
#337 = CYLINDRICAL_SURFACE ( 'NONE', #124, 0.05904909450000001697 ) ;
#338 = ADVANCED_FACE ( 'NONE', ( #26 ), #271, .T. ) ;
#339 = DIRECTION ( 'NONE',  ( -1.000000000000000000, 0.0000000000000000000, 0.0000000000000000000 ) ) ;
#340 = VERTEX_POINT ( 'NONE', #285 ) ;
#341 = FILL_AREA_STYLE_COLOUR ( '', #233 ) ;
#342 = VERTEX_POINT ( 'NONE', #255 ) ;
#343 = EDGE_LOOP ( 'NONE', ( #253, #107, #240, #70 ) ) ;
#344 = SURFACE_STYLE_FILL_AREA ( #133 ) ;
#345 = ORIENTED_EDGE ( 'NONE', *, *, #299, .T. ) ;
#346 = AXIS2_PLACEMENT_3D ( 'NONE', #97, #153, #332 ) ;
#347 = VERTEX_POINT ( 'NONE', #111 ) ;
#348 = CARTESIAN_POINT ( 'NONE',  ( -0.05904909450000001697, 0.0000000000000000000, 0.0000000000000000000 ) ) ;
#349 =( LENGTH_UNIT ( ) NAMED_UNIT ( * ) SI_UNIT ( $, .METRE. ) );
#350 = STYLED_ITEM ( 'NONE', ( #323 ), #226 ) ;
#351 = APPLICATION_PROTOCOL_DEFINITION ( 'draft international standard', 'automotive_design', 1998, #306 ) ;
#352 = CARTESIAN_POINT ( 'NONE',  ( 0.0000000000000000000, 0.0000000000000000000, 2.244094000000000033 ) ) ;
#353 = CARTESIAN_POINT ( 'NONE',  ( 0.0000000000000000000, 0.0000000000000000000, 0.0000000000000000000 ) ) ;
#354 = SHAPE_DEFINITION_REPRESENTATION ( #166, #226 ) ;
#355 = EDGE_CURVE ( 'NONE', #281, #347, #47, .T. ) ;
#356 = DIRECTION ( 'NONE',  ( -1.000000000000000000, 0.0000000000000000000, 0.0000000000000000000 ) ) ;
#357 = CARTESIAN_POINT ( 'NONE',  ( 0.0000000000000000000, 0.0000000000000000000, 0.5905510000000000481 ) ) ;
#358 = DIRECTION ( 'NONE',  ( 1.000000000000000000, 0.0000000000000000000, -0.0000000000000000000 ) ) ;
#359 = CONICAL_SURFACE ( 'NONE', #14, 0.1031100000000002570, 0.7853981633974318477 ) ;
#360 = AXIS2_PLACEMENT_3D ( 'NONE', #373, #185, #103 ) ;
#361 = CARTESIAN_POINT ( 'NONE',  ( 0.05708650000000006774, 0.0000000000000000000, 0.5905510000000000481 ) ) ;
#362 = ORIENTED_EDGE ( 'NONE', *, *, #223, .F. ) ;
#363 = DIRECTION ( 'NONE',  ( -1.000000000000000000, 0.0000000000000000000, 0.0000000000000000000 ) ) ;
#364 = ORIENTED_EDGE ( 'NONE', *, *, #229, .T. ) ;
#365 = CIRCLE ( 'NONE', #96, 0.1031100000000002570 ) ;
#366 = AXIS2_PLACEMENT_3D ( 'NONE', #178, #17, #31 ) ;
#367 = VECTOR ( 'NONE', #131, 39.37007874015748143 ) ;
#368 = LINE ( 'NONE', #170, #177 ) ;
#369 = DIRECTION ( 'NONE',  ( -0.7071067811865358044, 0.0000000000000000000, -0.7071067811865590080 ) ) ;
#370 = ORIENTED_EDGE ( 'NONE', *, *, #80, .T. ) ;
#371 = CARTESIAN_POINT ( 'NONE',  ( 0.0000000000000000000, 0.0000000000000000000, 0.1574800000000000089 ) ) ;
#372 = DIRECTION ( 'NONE',  ( 1.000000000000000000, 0.0000000000000000000, 0.0000000000000000000 ) ) ;
#373 = CARTESIAN_POINT ( 'NONE',  ( 0.0000000000000000000, 0.0000000000000000000, 0.1574800000000000089 ) ) ;
#374 = VERTEX_POINT ( 'NONE', #322 ) ;
#375 = PRESENTATION_LAYER_ASSIGNMENT (  '', '', ( #350 ) ) ;
#376 = VERTEX_POINT ( 'NONE', #54 ) ;
#377 = LENGTH_MEASURE_WITH_UNIT ( LENGTH_MEASURE( 0.02539999999999999897 ), #56 );
#378 = EDGE_CURVE ( 'NONE', #164, #310, #292, .T. ) ;
#379 = DIRECTION ( 'NONE',  ( -1.000000000000000000, 0.0000000000000000000, 0.0000000000000000000 ) ) ;
ENDSEC;
END-ISO-10303-21;
