ISO-10303-21;
HEADER;
FILE_DESCRIPTION (( 'STEP AP214' ),
    '1' );
FILE_NAME ('Micro_RME-010-2.STEP',
    '2021-09-01T22:21:11',
    ( '' ),
    ( '' ),
    'SwSTEP 2.0',
    'SolidWorks 2020',
    '' );
FILE_SCHEMA (( 'AUTOMOTIVE_DESIGN' ));
ENDSEC;

DATA;
#1 = CIRCLE ( 'NONE', #64, 0.004994999999999982961 ) ;
#2 = AXIS2_PLACEMENT_3D ( 'NONE', #180, #158, #112 ) ;
#3 = DIRECTION ( 'NONE',  ( 0.7071067811865462405, 8.659560562354916834E-17, -0.7071067811865486830 ) ) ;
#4 = LENGTH_MEASURE_WITH_UNIT ( LENGTH_MEASURE( 0.02539999999999999897 ), #72 );
#5 = VECTOR ( 'NONE', #129, 39.37007874015748143 ) ;
#6 = EDGE_CURVE ( 'NONE', #185, #119, #118, .T. ) ;
#7 = CARTESIAN_POINT ( 'NONE',  ( 0.0000000000000000000, 0.0000000000000000000, 0.0000000000000000000 ) ) ;
#8 = EDGE_LOOP ( 'NONE', ( #165, #167, #97, #96 ) ) ;
#9 = ORIENTED_EDGE ( 'NONE', *, *, #153, .T. ) ;
#10 = CIRCLE ( 'NONE', #172, 0.004994999999999982961 ) ;
#11 = VERTEX_POINT ( 'NONE', #189 ) ;
#12 = ORIENTED_EDGE ( 'NONE', *, *, #84, .F. ) ;
#13 = ADVANCED_FACE ( 'NONE', ( #82 ), #186, .T. ) ;
#14 = DIRECTION ( 'NONE',  ( 1.000000000000000000, 0.0000000000000000000, 0.0000000000000000000 ) ) ;
#15 =( GEOMETRIC_REPRESENTATION_CONTEXT ( 3 ) GLOBAL_UNCERTAINTY_ASSIGNED_CONTEXT ( ( #114 ) ) GLOBAL_UNIT_ASSIGNED_CONTEXT ( ( #244, #113, #24 ) ) REPRESENTATION_CONTEXT ( 'NONE', 'WORKASPACE' ) );
#16 = CARTESIAN_POINT ( 'NONE',  ( 0.004994999999999982961, 0.0000000000000000000, 0.02999999999999995379 ) ) ;
#17 = CARTESIAN_POINT ( 'NONE',  ( 4.361298653888563970E-17, 0.0000000000000000000, 0.3561270610371145007 ) ) ;
#18 = DIRECTION ( 'NONE',  ( -1.224646799147353454E-16, -0.0000000000000000000, -1.000000000000000000 ) ) ;
#19 = CIRCLE ( 'NONE', #59, 0.04750000000000064587 ) ;
#20 = MECHANICAL_DESIGN_GEOMETRIC_PRESENTATION_REPRESENTATION (  '', ( #277 ), #122 ) ;
#21 = DIRECTION ( 'NONE',  ( -0.0000000000000000000, -0.0000000000000000000, -1.000000000000000000 ) ) ;
#22 = LINE ( 'NONE', #227, #178 ) ;
#23 = COLOUR_RGB ( '',0.7921568627450980005, 0.8196078431372548767, 0.9333333333333333481 ) ;
#24 =( NAMED_UNIT ( * ) SI_UNIT ( $, .STERADIAN. ) SOLID_ANGLE_UNIT ( ) );
#25 = UNCERTAINTY_MEASURE_WITH_UNIT (LENGTH_MEASURE( 1.000000000000000082E-05 ), #145, 'distance_accuracy_value', 'NONE');
#26 = ORIENTED_EDGE ( 'NONE', *, *, #90, .F. ) ;
#27 = ORIENTED_EDGE ( 'NONE', *, *, #31, .F. ) ;
#28 = SHAPE_DEFINITION_REPRESENTATION ( #138, #128 ) ;
#29 = ORIENTED_EDGE ( 'NONE', *, *, #34, .F. ) ;
#30 = CONICAL_SURFACE ( 'NONE', #191, 0.04750000000000064587, 0.7853981633974466137 ) ;
#31 = EDGE_CURVE ( 'NONE', #253, #237, #292, .T. ) ;
#32 = PRODUCT_CONTEXT ( 'NONE', #71, 'mechanical' ) ;
#33 = ORIENTED_EDGE ( 'NONE', *, *, #269, .F. ) ;
#34 = EDGE_CURVE ( 'NONE', #58, #166, #285, .T. ) ;
#35 = FACE_OUTER_BOUND ( 'NONE', #213, .T. ) ;
#36 = DIRECTION ( 'NONE',  ( 1.224646799147353454E-16, 0.0000000000000000000, 1.000000000000000000 ) ) ;
#37 = EDGE_CURVE ( 'NONE', #185, #149, #182, .T. ) ;
#38 = AXIS2_PLACEMENT_3D ( 'NONE', #126, #125, #214 ) ;
#39 = VECTOR ( 'NONE', #221, 39.37007874015748143 ) ;
#40 = CARTESIAN_POINT ( 'NONE',  ( 0.06250000000000002776, 7.654042494670959086E-18, 1.485000000000000764 ) ) ;
#41 = ADVANCED_FACE ( 'NONE', ( #35 ), #30, .T. ) ;
#42 = CYLINDRICAL_SURFACE ( 'NONE', #147, 0.004994999999999981226 ) ;
#43 = SURFACE_STYLE_FILL_AREA ( #242 ) ;
#44 = CONICAL_SURFACE ( 'NONE', #177, 0.004994999999999980358, 0.1745329251994340303 ) ;
#45 = CARTESIAN_POINT ( 'NONE',  ( 0.0000000000000000000, 0.0000000000000000000, 1.500000000000000222 ) ) ;
#46 = CARTESIAN_POINT ( 'NONE',  ( 3.673940397442054568E-18, 0.0000000000000000000, 0.02999999999999995379 ) ) ;
#47 = DIRECTION ( 'NONE',  ( 0.0000000000000000000, 0.0000000000000000000, -1.000000000000000000 ) ) ;
#48 = AXIS2_PLACEMENT_3D ( 'NONE', #192, #155, #216 ) ;
#49 = DIRECTION ( 'NONE',  ( 0.0000000000000000000, 0.0000000000000000000, 1.000000000000000000 ) ) ;
#50 = PRODUCT_DEFINITION_CONTEXT ( 'detailed design', #266, 'design' ) ;
#51 = FACE_OUTER_BOUND ( 'NONE', #124, .T. ) ;
#52 =( LENGTH_UNIT ( ) NAMED_UNIT ( * ) SI_UNIT ( $, .METRE. ) );
#53 = AXIS2_PLACEMENT_3D ( 'NONE', #233, #283, #208 ) ;
#54 = EDGE_LOOP ( 'NONE', ( #231, #103, #102, #187 ) ) ;
#55 = APPLICATION_PROTOCOL_DEFINITION ( 'draft international standard', 'automotive_design', 1998, #266 ) ;
#56 = ORIENTED_EDGE ( 'NONE', *, *, #291, .F. ) ;
#57 = EDGE_LOOP ( 'NONE', ( #26, #78, #29, #56 ) ) ;
#58 = VERTEX_POINT ( 'NONE', #89 ) ;
#59 = AXIS2_PLACEMENT_3D ( 'NONE', #150, #218, #197 ) ;
#60 = EDGE_CURVE ( 'NONE', #119, #259, #10, .T. ) ;
#61 = ORIENTED_EDGE ( 'NONE', *, *, #280, .T. ) ;
#62 = DIRECTION ( 'NONE',  ( -1.000000000000000000, 0.0000000000000000000, 0.0000000000000000000 ) ) ;
#63 = DIRECTION ( 'NONE',  ( -1.000000000000000000, 0.0000000000000000000, 1.224646799147353207E-16 ) ) ;
#64 = AXIS2_PLACEMENT_3D ( 'NONE', #270, #295, #156 ) ;
#65 = VECTOR ( 'NONE', #3, 39.37007874015748854 ) ;
#66 = CARTESIAN_POINT ( 'NONE',  ( 0.004994999999999982961, 0.0000000000000000000, 0.02999999999999995379 ) ) ;
#67 = CARTESIAN_POINT ( 'NONE',  ( -0.04750000000000064587, 0.0000000000000000000, 1.500000000000000222 ) ) ;
#68 = FACE_OUTER_BOUND ( 'NONE', #8, .T. ) ;
#69 = FACE_OUTER_BOUND ( 'NONE', #57, .T. ) ;
#70 = PLANE ( 'NONE',  #271 ) ;
#71 = APPLICATION_CONTEXT ( 'automotive_design' ) ;
#72 =( LENGTH_UNIT ( ) NAMED_UNIT ( * ) SI_UNIT ( $, .METRE. ) );
#73 = AXIS2_PLACEMENT_3D ( 'NONE', #7, #76, #63 ) ;
#74 = PLANE ( 'NONE',  #297 ) ;
#75 = ADVANCED_FACE ( 'NONE', ( #68 ), #44, .T. ) ;
#76 = DIRECTION ( 'NONE',  ( -1.224646799147353454E-16, -0.0000000000000000000, -1.000000000000000000 ) ) ;
#77 = PRODUCT_DEFINITION_FORMATION_WITH_SPECIFIED_SOURCE ( 'ANY', '', #288, .NOT_KNOWN. ) ;
#78 = ORIENTED_EDGE ( 'NONE', *, *, #193, .T. ) ;
#79 = ORIENTED_EDGE ( 'NONE', *, *, #90, .T. ) ;
#80 = ORIENTED_EDGE ( 'NONE', *, *, #278, .T. ) ;
#81 = ADVANCED_FACE ( 'NONE', ( #151 ), #42, .T. ) ;
#82 = FACE_OUTER_BOUND ( 'NONE', #284, .T. ) ;
#83 = DIRECTION ( 'NONE',  ( -1.000000000000000000, 0.0000000000000000000, 1.224646799147353207E-16 ) ) ;
#84 = EDGE_CURVE ( 'NONE', #58, #253, #268, .T. ) ;
#85 = LINE ( 'NONE', #66, #228 ) ;
#86 = FACE_OUTER_BOUND ( 'NONE', #236, .T. ) ;
#87 = DIMENSIONAL_EXPONENTS ( 1.000000000000000000, 0.0000000000000000000, 0.0000000000000000000, 0.0000000000000000000, 0.0000000000000000000, 0.0000000000000000000, 0.0000000000000000000 ) ;
#88 = DIRECTION ( 'NONE',  ( -1.000000000000000000, 0.0000000000000000000, 1.224646799147353454E-16 ) ) ;
#89 = CARTESIAN_POINT ( 'NONE',  ( -0.06250000000000002776, 0.0000000000000000000, 1.485000000000000764 ) ) ;
#90 = EDGE_CURVE ( 'NONE', #11, #146, #19, .T. ) ;
#91 = DIRECTION ( 'NONE',  ( -0.7071067811865462405, 0.0000000000000000000, -0.7071067811865486830 ) ) ;
#92 = CONICAL_SURFACE ( 'NONE', #38, 0.004994999999999980358, 0.1745329251994340303 ) ;
#93 = DIRECTION ( 'NONE',  ( 1.000000000000000000, 0.0000000000000000000, -0.0000000000000000000 ) ) ;
#94 = DIRECTION ( 'NONE',  ( 1.000000000000000000, 0.0000000000000000000, 0.0000000000000000000 ) ) ;
#95 = DIRECTION ( 'NONE',  ( 0.0000000000000000000, 0.0000000000000000000, 1.000000000000000000 ) ) ;
#96 = ORIENTED_EDGE ( 'NONE', *, *, #153, .F. ) ;
#97 = ORIENTED_EDGE ( 'NONE', *, *, #31, .T. ) ;
#98 = ADVANCED_FACE ( 'NONE', ( #86 ), #173, .T. ) ;
#99 =( GEOMETRIC_REPRESENTATION_CONTEXT ( 3 ) GLOBAL_UNCERTAINTY_ASSIGNED_CONTEXT ( ( #25 ) ) GLOBAL_UNIT_ASSIGNED_CONTEXT ( ( #145, #205, #230 ) ) REPRESENTATION_CONTEXT ( 'NONE', 'WORKASPACE' ) );
#100 = EDGE_LOOP ( 'NONE', ( #289, #256, #9, #80 ) ) ;
#101 = FILL_AREA_STYLE ('',( #286 ) ) ;
#102 = ORIENTED_EDGE ( 'NONE', *, *, #60, .F. ) ;
#103 = ORIENTED_EDGE ( 'NONE', *, *, #198, .T. ) ;
#104 = FACE_OUTER_BOUND ( 'NONE', #100, .T. ) ;
#105 = CONICAL_SURFACE ( 'NONE', #116, 0.04750000000000064587, 0.7853981633974466137 ) ;
#106 = CARTESIAN_POINT ( 'NONE',  ( -0.004994999999999976889, 6.117110761741004670E-19, 0.02999999999999995379 ) ) ;
#107 = CARTESIAN_POINT ( 'NONE',  ( 0.0000000000000000000, 0.0000000000000000000, 1.485000000000000764 ) ) ;
#108 = DIRECTION ( 'NONE',  ( 0.0000000000000000000, 0.0000000000000000000, -1.000000000000000000 ) ) ;
#109 = CIRCLE ( 'NONE', #245, 0.004994999999999980358 ) ;
#110 = DIRECTION ( 'NONE',  ( -1.224646799147353454E-16, -0.0000000000000000000, -1.000000000000000000 ) ) ;
#111 = SURFACE_SIDE_STYLE ('',( #43 ) ) ;
#112 = DIRECTION ( 'NONE',  ( 1.000000000000000000, 0.0000000000000000000, 0.0000000000000000000 ) ) ;
#113 =( NAMED_UNIT ( * ) PLANE_ANGLE_UNIT ( ) SI_UNIT ( $, .RADIAN. ) );
#114 = UNCERTAINTY_MEASURE_WITH_UNIT (LENGTH_MEASURE( 1.000000000000000082E-05 ), #244, 'distance_accuracy_value', 'NONE');
#115 = DIRECTION ( 'NONE',  ( -1.224646799147353454E-16, -0.0000000000000000000, -1.000000000000000000 ) ) ;
#116 = AXIS2_PLACEMENT_3D ( 'NONE', #137, #47, #246 ) ;
#117 = EDGE_CURVE ( 'NONE', #185, #253, #175, .T. ) ;
#118 = LINE ( 'NONE', #120, #265 ) ;
#119 = VERTEX_POINT ( 'NONE', #267 ) ;
#120 = CARTESIAN_POINT ( 'NONE',  ( -0.004994999999999981226, 0.0000000000000000000, 6.117110761741006596E-19 ) ) ;
#121 = EDGE_CURVE ( 'NONE', #259, #119, #1, .T. ) ;
#122 =( GEOMETRIC_REPRESENTATION_CONTEXT ( 3 ) GLOBAL_UNCERTAINTY_ASSIGNED_CONTEXT ( ( #248 ) ) GLOBAL_UNIT_ASSIGNED_CONTEXT ( ( #142, #235, #281 ) ) REPRESENTATION_CONTEXT ( 'NONE', 'WORKASPACE' ) );
#123 = ORIENTED_EDGE ( 'NONE', *, *, #278, .F. ) ;
#124 = EDGE_LOOP ( 'NONE', ( #261, #143 ) ) ;
#125 = DIRECTION ( 'NONE',  ( 1.224646799147353454E-16, 0.0000000000000000000, 1.000000000000000000 ) ) ;
#126 = CARTESIAN_POINT ( 'NONE',  ( 3.673940397442054568E-18, 0.0000000000000000000, 0.02999999999999995379 ) ) ;
#127 = COLOUR_RGB ( '',0.7921568627450980005, 0.8196078431372548767, 0.9333333333333333481 ) ;
#128 = ADVANCED_BREP_SHAPE_REPRESENTATION ( 'Micro_RME-010-2', ( #170, #53 ), #99 ) ;
#129 = DIRECTION ( 'NONE',  ( -0.1736481776669313026, 2.126576849575784549E-17, 0.9848077530122077983 ) ) ;
#130 = CARTESIAN_POINT ( 'NONE',  ( 3.673940397442054568E-18, 0.0000000000000000000, 0.02999999999999995379 ) ) ;
#131 = ADVANCED_FACE ( 'NONE', ( #104 ), #92, .T. ) ;
#132 = DIRECTION ( 'NONE',  ( 1.000000000000000000, 0.0000000000000000000, 0.0000000000000000000 ) ) ;
#133 = AXIS2_PLACEMENT_3D ( 'NONE', #154, #21, #299 ) ;
#134 = DIRECTION ( 'NONE',  ( 0.0000000000000000000, 0.0000000000000000000, 1.000000000000000000 ) ) ;
#135 = DIRECTION ( 'NONE',  ( 1.000000000000000000, 0.0000000000000000000, -0.0000000000000000000 ) ) ;
#136 = AXIS2_PLACEMENT_3D ( 'NONE', #130, #18, #62 ) ;
#137 = CARTESIAN_POINT ( 'NONE',  ( 0.0000000000000000000, 0.0000000000000000000, 1.500000000000000222 ) ) ;
#138 = PRODUCT_DEFINITION_SHAPE ( 'NONE', 'NONE',  #160 ) ;
#139 = ADVANCED_FACE ( 'NONE', ( #238 ), #294, .T. ) ;
#140 = CARTESIAN_POINT ( 'NONE',  ( 0.004994999999999981226, 6.117110761741005633E-19, -6.117110761741006596E-19 ) ) ;
#141 = AXIS2_PLACEMENT_3D ( 'NONE', #45, #49, #94 ) ;
#142 =( CONVERSION_BASED_UNIT ( 'INCH', #210 ) LENGTH_UNIT ( ) NAMED_UNIT ( #87 ) );
#143 = ORIENTED_EDGE ( 'NONE', *, *, #121, .T. ) ;
#144 = ORIENTED_EDGE ( 'NONE', *, *, #280, .F. ) ;
#145 =( CONVERSION_BASED_UNIT ( 'INCH', #257 ) LENGTH_UNIT ( ) NAMED_UNIT ( #272 ) );
#146 = VERTEX_POINT ( 'NONE', #67 ) ;
#147 = AXIS2_PLACEMENT_3D ( 'NONE', #169, #263, #83 ) ;
#148 = EDGE_LOOP ( 'NONE', ( #258, #79 ) ) ;
#149 = VERTEX_POINT ( 'NONE', #16 ) ;
#150 = CARTESIAN_POINT ( 'NONE',  ( 0.0000000000000000000, 0.0000000000000000000, 1.500000000000000222 ) ) ;
#151 = FACE_OUTER_BOUND ( 'NONE', #54, .T. ) ;
#152 = PRESENTATION_LAYER_ASSIGNMENT (  '', '', ( #239 ) ) ;
#153 = EDGE_CURVE ( 'NONE', #149, #237, #85, .T. ) ;
#154 = CARTESIAN_POINT ( 'NONE',  ( 0.0000000000000000000, 0.0000000000000000000, 1.500000000000000222 ) ) ;
#155 = DIRECTION ( 'NONE',  ( -0.0000000000000000000, -0.0000000000000000000, -1.000000000000000000 ) ) ;
#156 = DIRECTION ( 'NONE',  ( -1.000000000000000000, 0.0000000000000000000, 1.224646799147353454E-16 ) ) ;
#157 = PRESENTATION_STYLE_ASSIGNMENT (( #226 ) ) ;
#158 = DIRECTION ( 'NONE',  ( 0.0000000000000000000, 0.0000000000000000000, -1.000000000000000000 ) ) ;
#159 = LINE ( 'NONE', #140, #229 ) ;
#160 = PRODUCT_DEFINITION ( 'UNKNOWN', '', #77, #50 ) ;
#161 = SURFACE_STYLE_FILL_AREA ( #101 ) ;
#162 = APPLICATION_PROTOCOL_DEFINITION ( 'draft international standard', 'automotive_design', 1998, #71 ) ;
#163 = ORIENTED_EDGE ( 'NONE', *, *, #6, .T. ) ;
#164 = AXIS2_PLACEMENT_3D ( 'NONE', #17, #110, #14 ) ;
#165 = ORIENTED_EDGE ( 'NONE', *, *, #37, .F. ) ;
#166 = VERTEX_POINT ( 'NONE', #40 ) ;
#167 = ORIENTED_EDGE ( 'NONE', *, *, #117, .T. ) ;
#168 = ORIENTED_EDGE ( 'NONE', *, *, #121, .F. ) ;
#169 = CARTESIAN_POINT ( 'NONE',  ( 0.0000000000000000000, 0.0000000000000000000, 0.0000000000000000000 ) ) ;
#170 = MANIFOLD_SOLID_BREP ( 'Cut-Revolve1', #215 ) ;
#171 = DIRECTION ( 'NONE',  ( 0.1736481776669315247, 0.0000000000000000000, 0.9848077530122077983 ) ) ;
#172 = AXIS2_PLACEMENT_3D ( 'NONE', #196, #264, #88 ) ;
#173 = CYLINDRICAL_SURFACE ( 'NONE', #133, 0.06250000000000002776 ) ;
#174 = FILL_AREA_STYLE_COLOUR ( '', #23 ) ;
#175 = LINE ( 'NONE', #106, #5 ) ;
#176 = DIMENSIONAL_EXPONENTS ( 1.000000000000000000, 0.0000000000000000000, 0.0000000000000000000, 0.0000000000000000000, 0.0000000000000000000, 0.0000000000000000000, 0.0000000000000000000 ) ;
#177 = AXIS2_PLACEMENT_3D ( 'NONE', #195, #36, #132 ) ;
#178 = VECTOR ( 'NONE', #91, 39.37007874015748854 ) ;
#179 = CARTESIAN_POINT ( 'NONE',  ( 4.361298653888563970E-17, 0.0000000000000000000, 0.3561270610371145007 ) ) ;
#180 = CARTESIAN_POINT ( 'NONE',  ( 0.0000000000000000000, 0.0000000000000000000, 1.485000000000000764 ) ) ;
#181 = DIRECTION ( 'NONE',  ( -1.224646799147353454E-16, -0.0000000000000000000, -1.000000000000000000 ) ) ;
#182 = CIRCLE ( 'NONE', #136, 0.004994999999999980358 ) ;
#183 = MECHANICAL_DESIGN_GEOMETRIC_PRESENTATION_REPRESENTATION (  '', ( #239 ), #15 ) ;
#184 = DIRECTION ( 'NONE',  ( -1.000000000000000000, 0.0000000000000000000, 0.0000000000000000000 ) ) ;
#185 = VERTEX_POINT ( 'NONE', #202 ) ;
#186 = CYLINDRICAL_SURFACE ( 'NONE', #73, 0.004994999999999981226 ) ;
#187 = ORIENTED_EDGE ( 'NONE', *, *, #6, .F. ) ;
#188 = SURFACE_SIDE_STYLE ('',( #161 ) ) ;
#189 = CARTESIAN_POINT ( 'NONE',  ( 0.04750000000000064587, 6.735557395310483192E-18, 1.500000000000000222 ) ) ;
#190 = ORIENTED_EDGE ( 'NONE', *, *, #212, .F. ) ;
#191 = AXIS2_PLACEMENT_3D ( 'NONE', #241, #194, #298 ) ;
#192 = CARTESIAN_POINT ( 'NONE',  ( 0.0000000000000000000, 0.0000000000000000000, 1.500000000000000222 ) ) ;
#193 = EDGE_CURVE ( 'NONE', #11, #166, #217, .T. ) ;
#194 = DIRECTION ( 'NONE',  ( 0.0000000000000000000, 0.0000000000000000000, -1.000000000000000000 ) ) ;
#195 = CARTESIAN_POINT ( 'NONE',  ( 3.673940397442054568E-18, 0.0000000000000000000, 0.02999999999999995379 ) ) ;
#196 = CARTESIAN_POINT ( 'NONE',  ( 7.491300114395956194E-35, 0.0000000000000000000, 6.117110761741009485E-19 ) ) ;
#197 = DIRECTION ( 'NONE',  ( 1.000000000000000000, 0.0000000000000000000, 0.0000000000000000000 ) ) ;
#198 = EDGE_CURVE ( 'NONE', #149, #259, #159, .T. ) ;
#199 =( LENGTH_UNIT ( ) NAMED_UNIT ( * ) SI_UNIT ( $, .METRE. ) );
#200 = AXIS2_PLACEMENT_3D ( 'NONE', #107, #108, #220 ) ;
#201 = CIRCLE ( 'NONE', #141, 0.04750000000000064587 ) ;
#202 = CARTESIAN_POINT ( 'NONE',  ( -0.004994999999999976889, 4.132876785422530113E-18, 0.02999999999999995379 ) ) ;
#203 = CARTESIAN_POINT ( 'NONE',  ( 0.0000000000000000000, 0.0000000000000000000, 0.0000000000000000000 ) ) ;
#204 = CARTESIAN_POINT ( 'NONE',  ( 0.004994999999999982961, 6.117110761741006596E-19, -1.184750211852384294E-34 ) ) ;
#205 =( NAMED_UNIT ( * ) PLANE_ANGLE_UNIT ( ) SI_UNIT ( $, .RADIAN. ) );
#206 = DIRECTION ( 'NONE',  ( -1.224646799147353454E-16, -0.0000000000000000000, -1.000000000000000000 ) ) ;
#207 = ORIENTED_EDGE ( 'NONE', *, *, #198, .F. ) ;
#208 = DIRECTION ( 'NONE',  ( 1.000000000000000000, 0.0000000000000000000, 0.0000000000000000000 ) ) ;
#209 = ORIENTED_EDGE ( 'NONE', *, *, #291, .T. ) ;
#210 = LENGTH_MEASURE_WITH_UNIT ( LENGTH_MEASURE( 0.02539999999999999897 ), #52 );
#211 = ORIENTED_EDGE ( 'NONE', *, *, #84, .T. ) ;
#212 = EDGE_CURVE ( 'NONE', #146, #11, #201, .T. ) ;
#213 = EDGE_LOOP ( 'NONE', ( #234, #190, #209, #33 ) ) ;
#214 = DIRECTION ( 'NONE',  ( 1.000000000000000000, 0.0000000000000000000, 0.0000000000000000000 ) ) ;
#215 = CLOSED_SHELL ( 'NONE', ( #81, #75, #225, #139, #98, #262, #41, #131, #13, #243 ) ) ;
#216 = DIRECTION ( 'NONE',  ( -1.000000000000000000, 0.0000000000000000000, 0.0000000000000000000 ) ) ;
#217 = LINE ( 'NONE', #247, #65 ) ;
#218 = DIRECTION ( 'NONE',  ( 0.0000000000000000000, 0.0000000000000000000, 1.000000000000000000 ) ) ;
#219 = EDGE_CURVE ( 'NONE', #149, #185, #109, .T. ) ;
#220 = DIRECTION ( 'NONE',  ( 1.000000000000000000, 0.0000000000000000000, 0.0000000000000000000 ) ) ;
#221 = DIRECTION ( 'NONE',  ( -0.0000000000000000000, -0.0000000000000000000, -1.000000000000000000 ) ) ;
#222 = PRODUCT_RELATED_PRODUCT_CATEGORY ( 'part', '', ( #288 ) ) ;
#223 = CARTESIAN_POINT ( 'NONE',  ( 0.0000000000000000000, 0.0000000000000000000, 1.500000000000000222 ) ) ;
#224 = DIRECTION ( 'NONE',  ( -1.224646799147353454E-16, -0.0000000000000000000, -1.000000000000000000 ) ) ;
#225 = ADVANCED_FACE ( 'NONE', ( #69 ), #105, .T. ) ;
#226 = SURFACE_STYLE_USAGE ( .BOTH. , #111 ) ;
#227 = CARTESIAN_POINT ( 'NONE',  ( -0.04750000000000064587, 0.0000000000000000000, 1.500000000000000222 ) ) ;
#228 = VECTOR ( 'NONE', #171, 39.37007874015748143 ) ;
#229 = VECTOR ( 'NONE', #224, 39.37007874015748143 ) ;
#230 =( NAMED_UNIT ( * ) SI_UNIT ( $, .STERADIAN. ) SOLID_ANGLE_UNIT ( ) );
#231 = ORIENTED_EDGE ( 'NONE', *, *, #37, .T. ) ;
#232 = ORIENTED_EDGE ( 'NONE', *, *, #34, .T. ) ;
#233 = CARTESIAN_POINT ( 'NONE',  ( 0.0000000000000000000, 0.0000000000000000000, 0.0000000000000000000 ) ) ;
#234 = ORIENTED_EDGE ( 'NONE', *, *, #193, .F. ) ;
#235 =( NAMED_UNIT ( * ) PLANE_ANGLE_UNIT ( ) SI_UNIT ( $, .RADIAN. ) );
#236 = EDGE_LOOP ( 'NONE', ( #144, #282, #211, #123 ) ) ;
#237 = VERTEX_POINT ( 'NONE', #273 ) ;
#238 = FACE_OUTER_BOUND ( 'NONE', #287, .T. ) ;
#239 = STYLED_ITEM ( 'NONE', ( #157 ), #170 ) ;
#240 = DIRECTION ( 'NONE',  ( -0.0000000000000000000, -0.0000000000000000000, -1.000000000000000000 ) ) ;
#241 = CARTESIAN_POINT ( 'NONE',  ( 0.0000000000000000000, 0.0000000000000000000, 1.500000000000000222 ) ) ;
#242 = FILL_AREA_STYLE ('',( #174 ) ) ;
#243 = ADVANCED_FACE ( 'NONE', ( #51 ), #70, .F. ) ;
#244 =( CONVERSION_BASED_UNIT ( 'INCH', #4 ) LENGTH_UNIT ( ) NAMED_UNIT ( #176 ) );
#245 = AXIS2_PLACEMENT_3D ( 'NONE', #46, #115, #184 ) ;
#246 = DIRECTION ( 'NONE',  ( -1.000000000000000000, 0.0000000000000000000, 0.0000000000000000000 ) ) ;
#247 = CARTESIAN_POINT ( 'NONE',  ( 0.04750000000000064587, 5.817072295950006528E-18, 1.500000000000000222 ) ) ;
#248 = UNCERTAINTY_MEASURE_WITH_UNIT (LENGTH_MEASURE( 1.000000000000000082E-05 ), #142, 'distance_accuracy_value', 'NONE');
#249 = CARTESIAN_POINT ( 'NONE',  ( 0.06250000000000002776, 7.654042494670959086E-18, 1.500000000000000222 ) ) ;
#250 = CIRCLE ( 'NONE', #2, 0.06250000000000002776 ) ;
#251 = CARTESIAN_POINT ( 'NONE',  ( -0.06249999999999997918, 0.0000000000000000000, 0.3561270610371145007 ) ) ;
#252 = SURFACE_STYLE_USAGE ( .BOTH. , #188 ) ;
#253 = VERTEX_POINT ( 'NONE', #251 ) ;
#254 = AXIS2_PLACEMENT_3D ( 'NONE', #179, #181, #275 ) ;
#255 = PRESENTATION_STYLE_ASSIGNMENT (( #252 ) ) ;
#256 = ORIENTED_EDGE ( 'NONE', *, *, #219, .F. ) ;
#257 = LENGTH_MEASURE_WITH_UNIT ( LENGTH_MEASURE( 0.02539999999999999897 ), #199 );
#258 = ORIENTED_EDGE ( 'NONE', *, *, #212, .T. ) ;
#259 = VERTEX_POINT ( 'NONE', #204 ) ;
#260 = CIRCLE ( 'NONE', #254, 0.06250000000000002776 ) ;
#261 = ORIENTED_EDGE ( 'NONE', *, *, #60, .T. ) ;
#262 = ADVANCED_FACE ( 'NONE', ( #279 ), #74, .T. ) ;
#263 = DIRECTION ( 'NONE',  ( -1.224646799147353454E-16, -0.0000000000000000000, -1.000000000000000000 ) ) ;
#264 = DIRECTION ( 'NONE',  ( -1.224646799147353454E-16, -0.0000000000000000000, -1.000000000000000000 ) ) ;
#265 = VECTOR ( 'NONE', #206, 39.37007874015748143 ) ;
#266 = APPLICATION_CONTEXT ( 'automotive_design' ) ;
#267 = CARTESIAN_POINT ( 'NONE',  ( -0.004994999999999982961, 0.0000000000000000000, 1.223422152348201897E-18 ) ) ;
#268 = LINE ( 'NONE', #296, #276 ) ;
#269 = EDGE_CURVE ( 'NONE', #166, #58, #250, .T. ) ;
#270 = CARTESIAN_POINT ( 'NONE',  ( 7.491300114395956194E-35, 0.0000000000000000000, 6.117110761741009485E-19 ) ) ;
#271 = AXIS2_PLACEMENT_3D ( 'NONE', #203, #95, #135 ) ;
#272 = DIMENSIONAL_EXPONENTS ( 1.000000000000000000, 0.0000000000000000000, 0.0000000000000000000, 0.0000000000000000000, 0.0000000000000000000, 0.0000000000000000000, 0.0000000000000000000 ) ;
#273 = CARTESIAN_POINT ( 'NONE',  ( 0.06250000000000006939, 7.654042494670963708E-18, 0.3561270610371145007 ) ) ;
#274 = LINE ( 'NONE', #249, #39 ) ;
#275 = DIRECTION ( 'NONE',  ( 1.000000000000000000, 0.0000000000000000000, 0.0000000000000000000 ) ) ;
#276 = VECTOR ( 'NONE', #240, 39.37007874015748143 ) ;
#277 = STYLED_ITEM ( 'NONE', ( #255 ), #128 ) ;
#278 = EDGE_CURVE ( 'NONE', #237, #253, #260, .T. ) ;
#279 = FACE_OUTER_BOUND ( 'NONE', #148, .T. ) ;
#280 = EDGE_CURVE ( 'NONE', #166, #237, #274, .T. ) ;
#281 =( NAMED_UNIT ( * ) SI_UNIT ( $, .STERADIAN. ) SOLID_ANGLE_UNIT ( ) );
#282 = ORIENTED_EDGE ( 'NONE', *, *, #269, .T. ) ;
#283 = DIRECTION ( 'NONE',  ( 0.0000000000000000000, 0.0000000000000000000, 1.000000000000000000 ) ) ;
#284 = EDGE_LOOP ( 'NONE', ( #207, #290, #163, #168 ) ) ;
#285 = CIRCLE ( 'NONE', #200, 0.06250000000000002776 ) ;
#286 = FILL_AREA_STYLE_COLOUR ( '', #127 ) ;
#287 = EDGE_LOOP ( 'NONE', ( #232, #61, #27, #12 ) ) ;
#288 = PRODUCT ( 'Micro_RME-010-2', 'Micro_RME-010-2', '', ( #32 ) ) ;
#289 = ORIENTED_EDGE ( 'NONE', *, *, #117, .F. ) ;
#290 = ORIENTED_EDGE ( 'NONE', *, *, #219, .T. ) ;
#291 = EDGE_CURVE ( 'NONE', #146, #58, #22, .T. ) ;
#292 = CIRCLE ( 'NONE', #164, 0.06250000000000002776 ) ;
#293 = PRESENTATION_LAYER_ASSIGNMENT (  '', '', ( #277 ) ) ;
#294 = CYLINDRICAL_SURFACE ( 'NONE', #48, 0.06250000000000002776 ) ;
#295 = DIRECTION ( 'NONE',  ( -1.224646799147353454E-16, -0.0000000000000000000, -1.000000000000000000 ) ) ;
#296 = CARTESIAN_POINT ( 'NONE',  ( -0.06250000000000002776, 0.0000000000000000000, 1.500000000000000222 ) ) ;
#297 = AXIS2_PLACEMENT_3D ( 'NONE', #223, #134, #93 ) ;
#298 = DIRECTION ( 'NONE',  ( -1.000000000000000000, 0.0000000000000000000, 0.0000000000000000000 ) ) ;
#299 = DIRECTION ( 'NONE',  ( -1.000000000000000000, 0.0000000000000000000, 0.0000000000000000000 ) ) ;
ENDSEC;
END-ISO-10303-21;
