ISO-10303-21;
HEADER;
FILE_DESCRIPTION (( 'STEP AP214' ),
    '1' );
FILE_NAME ('81373.STEP',
    '2023-06-23T00:56:26',
    ( '' ),
    ( '' ),
    'SwSTEP 2.0',
    'SolidWorks 2023',
    '' );
FILE_SCHEMA (( 'AUTOMOTIVE_DESIGN' ));
ENDSEC;

DATA;
#1 = MECHANICAL_DESIGN_GEOMETRIC_PRESENTATION_REPRESENTATION (  '', ( #140 ), #254 ) ;
#2 = MECHANICAL_DESIGN_GEOMETRIC_PRESENTATION_REPRESENTATION (  '', ( #207 ), #278 ) ;
#3 = PRESENTATION_STYLE_ASSIGNMENT (( #277 ) ) ;
#4 = ADVANCED_FACE ( 'NONE', ( #57 ), #231, .T. ) ;
#5 =( NAMED_UNIT ( * ) SI_UNIT ( $, .STERADIAN. ) SOLID_ANGLE_UNIT ( ) );
#6 = EDGE_CURVE ( 'NONE', #205, #94, #291, .T. ) ;
#7 = MECHANICAL_DESIGN_GEOMETRIC_PRESENTATION_REPRESENTATION (  '', ( #148 ), #273 ) ;
#8 = SURFACE_STYLE_FILL_AREA ( #298 ) ;
#9 = CARTESIAN_POINT ( 'NONE',  ( 0.000000000000000000, 2.750000000000000000, 0.000000000000000000 ) ) ;
#10 = DIRECTION ( 'NONE',  ( -1.000000000000000000, 0.000000000000000000, 0.000000000000000000 ) ) ;
#11 = COLOUR_RGB ( '',1.000000000000000000, 0.000000000000000000, 0.000000000000000000 ) ;
#12 = EDGE_CURVE ( 'NONE', #94, #205, #228, .T. ) ;
#13 = FILL_AREA_STYLE_COLOUR ( '', #141 ) ;
#14 = DIRECTION ( 'NONE',  ( 0.000000000000000000, 0.000000000000000000, -1.000000000000000000 ) ) ;
#15 = SURFACE_SIDE_STYLE ('',( #176 ) ) ;
#16 = EDGE_CURVE ( 'NONE', #252, #237, #265, .T. ) ;
#17 = DIRECTION ( 'NONE',  ( -1.360718665719281396E-16, 1.000000000000000000, -0.000000000000000000 ) ) ;
#18 = MECHANICAL_DESIGN_GEOMETRIC_PRESENTATION_REPRESENTATION (  '', ( #106 ), #222 ) ;
#19 = DIRECTION ( 'NONE',  ( -0.000000000000000000, -1.000000000000000000, -0.000000000000000000 ) ) ;
#20 = CARTESIAN_POINT ( 'NONE',  ( 0.3749999999999998335, 5.000000000000000000, 4.592425496802576068E-17 ) ) ;
#21 = ADVANCED_FACE ( 'NONE', ( #107 ), #241, .T. ) ;
#22 =( CONVERSION_BASED_UNIT ( 'INCH', #236 ) LENGTH_UNIT ( ) NAMED_UNIT ( #113 ) );
#23 = CARTESIAN_POINT ( 'NONE',  ( -3.061616997868383141E-16, 5.000000000000000000, 0.000000000000000000 ) ) ;
#24 = ORIENTED_EDGE ( 'NONE', *, *, #296, .T. ) ;
#25 = APPLICATION_CONTEXT ( 'automotive_design' ) ;
#26 = PRODUCT ( '81373', '81373', '', ( #279 ) ) ;
#27 = SURFACE_SIDE_STYLE ('',( #149 ) ) ;
#28 = PLANE ( 'NONE',  #129 ) ;
#29 = AXIS2_PLACEMENT_3D ( 'NONE', #48, #112, #138 ) ;
#30 = AXIS2_PLACEMENT_3D ( 'NONE', #9, #182, #53 ) ;
#31 = UNCERTAINTY_MEASURE_WITH_UNIT (LENGTH_MEASURE( 1.000000000000000082E-05 ), #210, 'distance_accuracy_value', 'NONE');
#32 = FILL_AREA_STYLE_COLOUR ( '', #251 ) ;
#33 = CARTESIAN_POINT ( 'NONE',  ( 0.000000000000000000, 2.750000000000000000, 0.000000000000000000 ) ) ;
#34 = EDGE_CURVE ( 'NONE', #237, #252, #46, .T. ) ;
#35 = CARTESIAN_POINT ( 'NONE',  ( 4.592425496802573602E-17, 0.000000000000000000, 0.3749999999999999445 ) ) ;
#36 = PRODUCT_DEFINITION_CONTEXT ( 'detailed design', #85, 'design' ) ;
#37 = CYLINDRICAL_SURFACE ( 'NONE', #266, 0.3749999999999999445 ) ;
#38 = DIRECTION ( 'NONE',  ( -0.000000000000000000, -1.000000000000000000, -0.000000000000000000 ) ) ;
#39 = PRESENTATION_LAYER_ASSIGNMENT (  '', '', ( #106 ) ) ;
#40 =( NAMED_UNIT ( * ) PLANE_ANGLE_UNIT ( ) SI_UNIT ( $, .RADIAN. ) );
#41 = PLANE ( 'NONE',  #117 ) ;
#42 = DIRECTION ( 'NONE',  ( 0.000000000000000000, -1.000000000000000000, -0.000000000000000000 ) ) ;
#43 = DIRECTION ( 'NONE',  ( 1.360718665719281396E-16, -1.000000000000000000, 0.000000000000000000 ) ) ;
#44 = DIRECTION ( 'NONE',  ( 0.000000000000000000, 0.000000000000000000, -1.000000000000000000 ) ) ;
#45 = LENGTH_MEASURE_WITH_UNIT ( LENGTH_MEASURE( 0.02539999999999999897 ), #204 );
#46 = CIRCLE ( 'NONE', #102, 0.3750000000000002220 ) ;
#47 = COLOUR_RGB ( '',0.7921568627450980005, 0.8196078431372548767, 0.9333333333333333481 ) ;
#48 = CARTESIAN_POINT ( 'NONE',  ( 6.065921084684207584E-32, 2.750000000000000000, 0.000000000000000000 ) ) ;
#49 = PRESENTATION_STYLE_ASSIGNMENT (( #66 ) ) ;
#50 =( GEOMETRIC_REPRESENTATION_CONTEXT ( 3 ) GLOBAL_UNCERTAINTY_ASSIGNED_CONTEXT ( ( #133 ) ) GLOBAL_UNIT_ASSIGNED_CONTEXT ( ( #264, #40, #286 ) ) REPRESENTATION_CONTEXT ( 'NONE', 'WORKASPACE' ) );
#51 = DIRECTION ( 'NONE',  ( 1.000000000000000000, 0.000000000000000000, 0.000000000000000000 ) ) ;
#52 =( NAMED_UNIT ( * ) PLANE_ANGLE_UNIT ( ) SI_UNIT ( $, .RADIAN. ) );
#53 = DIRECTION ( 'NONE',  ( 0.000000000000000000, 0.000000000000000000, -1.000000000000000000 ) ) ;
#54 = EDGE_CURVE ( 'NONE', #284, #258, #154, .T. ) ;
#55 = CYLINDRICAL_SURFACE ( 'NONE', #202, 0.3749999999999999445 ) ;
#56 = ADVANCED_FACE ( 'NONE', ( #100 ), #196, .T. ) ;
#57 = FACE_OUTER_BOUND ( 'NONE', #308, .T. ) ;
#58 = CARTESIAN_POINT ( 'NONE',  ( -0.3750000000000003886, 5.000000000000000000, 0.000000000000000000 ) ) ;
#59 = DIRECTION ( 'NONE',  ( -0.000000000000000000, -1.000000000000000000, -0.000000000000000000 ) ) ;
#60 = CARTESIAN_POINT ( 'NONE',  ( 0.000000000000000000, 0.000000000000000000, -0.3750000000000000555 ) ) ;
#61 = AXIS2_PLACEMENT_3D ( 'NONE', #23, #99, #150 ) ;
#62 = DIRECTION ( 'NONE',  ( -1.360718665719281396E-16, 1.000000000000000000, -0.000000000000000000 ) ) ;
#63 =( NAMED_UNIT ( * ) PLANE_ANGLE_UNIT ( ) SI_UNIT ( $, .RADIAN. ) );
#64 = FILL_AREA_STYLE_COLOUR ( '', #47 ) ;
#65 = FILL_AREA_STYLE ('',( #272 ) ) ;
#66 = SURFACE_STYLE_USAGE ( .BOTH. , #67 ) ;
#67 = SURFACE_SIDE_STYLE ('',( #90 ) ) ;
#68 = ADVANCED_FACE ( 'NONE', ( #242 ), #28, .F. ) ;
#69 = DIRECTION ( 'NONE',  ( -1.360718665719281396E-16, 1.000000000000000000, -0.000000000000000000 ) ) ;
#70 = ORIENTED_EDGE ( 'NONE', *, *, #116, .T. ) ;
#71 = ADVANCED_FACE ( 'NONE', ( #240 ), #55, .T. ) ;
#72 = SURFACE_STYLE_USAGE ( .BOTH. , #27 ) ;
#73 = VERTEX_POINT ( 'NONE', #289 ) ;
#74 = PRESENTATION_LAYER_ASSIGNMENT (  '', '', ( #207 ) ) ;
#75 = ORIENTED_EDGE ( 'NONE', *, *, #12, .F. ) ;
#76 = CARTESIAN_POINT ( 'NONE',  ( 3.471666163569115137E-33, 2.750000000000000000, 0.000000000000000000 ) ) ;
#77 = ORIENTED_EDGE ( 'NONE', *, *, #54, .F. ) ;
#78 = VERTEX_POINT ( 'NONE', #229 ) ;
#79 =( GEOMETRIC_REPRESENTATION_CONTEXT ( 3 ) GLOBAL_UNCERTAINTY_ASSIGNED_CONTEXT ( ( #292 ) ) GLOBAL_UNIT_ASSIGNED_CONTEXT ( ( #84, #63, #80 ) ) REPRESENTATION_CONTEXT ( 'NONE', 'WORKASPACE' ) );
#80 =( NAMED_UNIT ( * ) SI_UNIT ( $, .STERADIAN. ) SOLID_ANGLE_UNIT ( ) );
#81 = LINE ( 'NONE', #58, #216 ) ;
#82 = VECTOR ( 'NONE', #59, 39.37007874015748143 ) ;
#83 = PRESENTATION_STYLE_ASSIGNMENT (( #132 ) ) ;
#84 =( CONVERSION_BASED_UNIT ( 'INCH', #45 ) LENGTH_UNIT ( ) NAMED_UNIT ( #232 ) );
#85 = APPLICATION_CONTEXT ( 'automotive_design' ) ;
#86 = ADVANCED_FACE ( 'NONE', ( #185 ), #108, .F. ) ;
#87 = CARTESIAN_POINT ( 'NONE',  ( 0.000000000000000000, 0.000000000000000000, 0.000000000000000000 ) ) ;
#88 = LENGTH_MEASURE_WITH_UNIT ( LENGTH_MEASURE( 0.02539999999999999897 ), #248 );
#89 = AXIS2_PLACEMENT_3D ( 'NONE', #33, #223, #44 ) ;
#90 = SURFACE_STYLE_FILL_AREA ( #115 ) ;
#91 = AXIS2_PLACEMENT_3D ( 'NONE', #114, #17, #300 ) ;
#92 = CARTESIAN_POINT ( 'NONE',  ( 0.000000000000000000, 0.000000000000000000, 0.000000000000000000 ) ) ;
#93 = DIRECTION ( 'NONE',  ( 0.000000000000000000, 0.000000000000000000, -1.000000000000000000 ) ) ;
#94 = VERTEX_POINT ( 'NONE', #156 ) ;
#95 = ORIENTED_EDGE ( 'NONE', *, *, #116, .F. ) ;
#96 = CLOSED_SHELL ( 'NONE', ( #71, #186, #126, #4 ) ) ;
#97 = AXIS2_PLACEMENT_3D ( 'NONE', #283, #172, #122 ) ;
#98 = APPLICATION_PROTOCOL_DEFINITION ( 'draft international standard', 'automotive_design', 1998, #25 ) ;
#99 = DIRECTION ( 'NONE',  ( -1.360718665719281396E-16, 1.000000000000000000, -0.000000000000000000 ) ) ;
#100 = FACE_OUTER_BOUND ( 'NONE', #304, .T. ) ;
#101 = CARTESIAN_POINT ( 'NONE',  ( 0.000000000000000000, 0.000000000000000000, 0.000000000000000000 ) ) ;
#102 = AXIS2_PLACEMENT_3D ( 'NONE', #285, #69, #144 ) ;
#103 = SURFACE_SIDE_STYLE ('',( #244 ) ) ;
#104 = UNCERTAINTY_MEASURE_WITH_UNIT (LENGTH_MEASURE( 1.000000000000000082E-05 ), #274, 'distance_accuracy_value', 'NONE');
#105 = DIRECTION ( 'NONE',  ( 0.000000000000000000, 0.000000000000000000, -1.000000000000000000 ) ) ;
#106 = STYLED_ITEM ( 'NONE', ( #125 ), #121 ) ;
#107 = FACE_OUTER_BOUND ( 'NONE', #262, .T. ) ;
#108 = PLANE ( 'NONE',  #198 ) ;
#109 = FACE_OUTER_BOUND ( 'NONE', #191, .T. ) ;
#110 = ORIENTED_EDGE ( 'NONE', *, *, #146, .F. ) ;
#111 = ORIENTED_EDGE ( 'NONE', *, *, #6, .T. ) ;
#112 = DIRECTION ( 'NONE',  ( -1.360718665719281396E-16, 1.000000000000000000, -0.000000000000000000 ) ) ;
#113 = DIMENSIONAL_EXPONENTS ( 1.000000000000000000, 0.000000000000000000, 0.000000000000000000, 0.000000000000000000, 0.000000000000000000, 0.000000000000000000, 0.000000000000000000 ) ;
#114 = CARTESIAN_POINT ( 'NONE',  ( 6.065921084684207584E-32, 2.750000000000000000, 0.000000000000000000 ) ) ;
#115 = FILL_AREA_STYLE ('',( #253 ) ) ;
#116 = EDGE_CURVE ( 'NONE', #73, #78, #170, .T. ) ;
#117 = AXIS2_PLACEMENT_3D ( 'NONE', #221, #131, #226 ) ;
#118 = EDGE_LOOP ( 'NONE', ( #70, #119, #110, #171 ) ) ;
#119 = ORIENTED_EDGE ( 'NONE', *, *, #259, .T. ) ;
#120 = VECTOR ( 'NONE', #38, 39.37007874015748143 ) ;
#121 = MANIFOLD_SOLID_BREP ( 'Revolve - Cutting Edge', #96 ) ;
#122 = DIRECTION ( 'NONE',  ( -1.000000000000000000, 0.000000000000000000, 0.000000000000000000 ) ) ;
#123 = PRODUCT_DEFINITION ( 'UNKNOWN', '', #235, #36 ) ;
#124 = SURFACE_STYLE_USAGE ( .BOTH. , #175 ) ;
#125 = PRESENTATION_STYLE_ASSIGNMENT (( #225 ) ) ;
#126 = ADVANCED_FACE ( 'NONE', ( #294 ), #37, .T. ) ;
#127 = PRESENTATION_STYLE_ASSIGNMENT (( #124 ) ) ;
#128 = FILL_AREA_STYLE ('',( #183 ) ) ;
#129 = AXIS2_PLACEMENT_3D ( 'NONE', #76, #257, #261 ) ;
#130 = LINE ( 'NONE', #35, #82 ) ;
#131 = DIRECTION ( 'NONE',  ( 0.000000000000000000, 1.000000000000000000, 0.000000000000000000 ) ) ;
#132 = SURFACE_STYLE_USAGE ( .BOTH. , #270 ) ;
#133 = UNCERTAINTY_MEASURE_WITH_UNIT (LENGTH_MEASURE( 1.000000000000000082E-05 ), #264, 'distance_accuracy_value', 'NONE');
#134 = FILL_AREA_STYLE ('',( #64 ) ) ;
#135 =( CONVERSION_BASED_UNIT ( 'INCH', #159 ) LENGTH_UNIT ( ) NAMED_UNIT ( #206 ) );
#136 = AXIS2_PLACEMENT_3D ( 'NONE', #192, #62, #10 ) ;
#137 = PRESENTATION_LAYER_ASSIGNMENT (  '', '', ( #148 ) ) ;
#138 = DIRECTION ( 'NONE',  ( -1.000000000000000000, 0.000000000000000000, 0.000000000000000000 ) ) ;
#139 = ORIENTED_EDGE ( 'NONE', *, *, #16, .F. ) ;
#140 = STYLED_ITEM ( 'NONE', ( #127 ), #4 ) ;
#141 = COLOUR_RGB ( '',1.000000000000000000, 0.000000000000000000, 0.000000000000000000 ) ;
#142 = DIMENSIONAL_EXPONENTS ( 1.000000000000000000, 0.000000000000000000, 0.000000000000000000, 0.000000000000000000, 0.000000000000000000, 0.000000000000000000, 0.000000000000000000 ) ;
#143 = STYLED_ITEM ( 'NONE', ( #83 ), #126 ) ;
#144 = DIRECTION ( 'NONE',  ( -1.000000000000000000, 0.000000000000000000, 0.000000000000000000 ) ) ;
#145 = ORIENTED_EDGE ( 'NONE', *, *, #6, .F. ) ;
#146 = EDGE_CURVE ( 'NONE', #258, #284, #299, .T. ) ;
#147 = DIMENSIONAL_EXPONENTS ( 1.000000000000000000, 0.000000000000000000, 0.000000000000000000, 0.000000000000000000, 0.000000000000000000, 0.000000000000000000, 0.000000000000000000 ) ;
#148 = STYLED_ITEM ( 'NONE', ( #152 ), #71 ) ;
#149 = SURFACE_STYLE_FILL_AREA ( #174 ) ;
#150 = DIRECTION ( 'NONE',  ( -1.000000000000000000, 0.000000000000000000, 0.000000000000000000 ) ) ;
#151 = ORIENTED_EDGE ( 'NONE', *, *, #288, .F. ) ;
#152 = PRESENTATION_STYLE_ASSIGNMENT (( #72 ) ) ;
#153 = PRESENTATION_LAYER_ASSIGNMENT (  '', '', ( #140 ) ) ;
#154 = CIRCLE ( 'NONE', #282, 0.3750000000000000555 ) ;
#155 = LINE ( 'NONE', #245, #120 ) ;
#156 = CARTESIAN_POINT ( 'NONE',  ( 0.3749999999999999445, 2.750000000000000000, 4.592425496802576684E-17 ) ) ;
#157 =( NAMED_UNIT ( * ) SI_UNIT ( $, .STERADIAN. ) SOLID_ANGLE_UNIT ( ) );
#158 =( NAMED_UNIT ( * ) SI_UNIT ( $, .STERADIAN. ) SOLID_ANGLE_UNIT ( ) );
#159 = LENGTH_MEASURE_WITH_UNIT ( LENGTH_MEASURE( 0.02539999999999999897 ), #219 );
#160 = LENGTH_MEASURE_WITH_UNIT ( LENGTH_MEASURE( 0.02539999999999999897 ), #208 );
#161 =( NAMED_UNIT ( * ) PLANE_ANGLE_UNIT ( ) SI_UNIT ( $, .RADIAN. ) );
#162 = CARTESIAN_POINT ( 'NONE',  ( 0.000000000000000000, 0.000000000000000000, 0.000000000000000000 ) ) ;
#163 = PRESENTATION_LAYER_ASSIGNMENT (  '', '', ( #287 ) ) ;
#164 = CARTESIAN_POINT ( 'NONE',  ( 4.592425496802574219E-17, 0.000000000000000000, 0.3750000000000000555 ) ) ;
#165 = DIMENSIONAL_EXPONENTS ( 1.000000000000000000, 0.000000000000000000, 0.000000000000000000, 0.000000000000000000, 0.000000000000000000, 0.000000000000000000, 0.000000000000000000 ) ;
#166 = CIRCLE ( 'NONE', #30, 0.3749999999999999445 ) ;
#167 = DIMENSIONAL_EXPONENTS ( 1.000000000000000000, 0.000000000000000000, 0.000000000000000000, 0.000000000000000000, 0.000000000000000000, 0.000000000000000000, 0.000000000000000000 ) ;
#168 = DIRECTION ( 'NONE',  ( 0.000000000000000000, 0.000000000000000000, 1.000000000000000000 ) ) ;
#169 = DIRECTION ( 'NONE',  ( -0.000000000000000000, -1.000000000000000000, -0.000000000000000000 ) ) ;
#170 = CIRCLE ( 'NONE', #89, 0.3749999999999999445 ) ;
#171 = ORIENTED_EDGE ( 'NONE', *, *, #275, .F. ) ;
#172 = DIRECTION ( 'NONE',  ( -1.360718665719281396E-16, 1.000000000000000000, -0.000000000000000000 ) ) ;
#173 = ORIENTED_EDGE ( 'NONE', *, *, #259, .F. ) ;
#174 = FILL_AREA_STYLE ('',( #32 ) ) ;
#175 = SURFACE_SIDE_STYLE ('',( #8 ) ) ;
#176 = SURFACE_STYLE_FILL_AREA ( #134 ) ;
#177 = AXIS2_PLACEMENT_3D ( 'NONE', #250, #19, #230 ) ;
#178 = CARTESIAN_POINT ( 'NONE',  ( 0.3749999999999999445, 5.000000000000000000, 4.592425496802576684E-17 ) ) ;
#179 =( NAMED_UNIT ( * ) PLANE_ANGLE_UNIT ( ) SI_UNIT ( $, .RADIAN. ) );
#180 = CARTESIAN_POINT ( 'NONE',  ( 0.3749999999999999445, 5.000000000000000000, 0.000000000000000000 ) ) ;
#181 = DIRECTION ( 'NONE',  ( -1.360718665719281396E-16, 1.000000000000000000, -0.000000000000000000 ) ) ;
#182 = DIRECTION ( 'NONE',  ( -0.000000000000000000, -1.000000000000000000, -0.000000000000000000 ) ) ;
#183 = FILL_AREA_STYLE_COLOUR ( '', #194 ) ;
#184 = PRESENTATION_LAYER_ASSIGNMENT (  '', '', ( #143 ) ) ;
#185 = FACE_OUTER_BOUND ( 'NONE', #215, .T. ) ;
#186 = ADVANCED_FACE ( 'NONE', ( #109 ), #41, .T. ) ;
#187 = SURFACE_STYLE_FILL_AREA ( #128 ) ;
#188 = DIRECTION ( 'NONE',  ( 0.000000000000000000, 0.000000000000000000, -1.000000000000000000 ) ) ;
#189 = ORIENTED_EDGE ( 'NONE', *, *, #146, .T. ) ;
#190 = DIRECTION ( 'NONE',  ( -0.000000000000000000, -1.000000000000000000, -0.000000000000000000 ) ) ;
#191 = EDGE_LOOP ( 'NONE', ( #95, #197 ) ) ;
#192 = CARTESIAN_POINT ( 'NONE',  ( -3.061616997868383141E-16, 5.000000000000000000, 0.000000000000000000 ) ) ;
#193 = LENGTH_MEASURE_WITH_UNIT ( LENGTH_MEASURE( 0.02539999999999999897 ), #276 );
#194 = COLOUR_RGB ( '',1.000000000000000000, 0.000000000000000000, 0.000000000000000000 ) ;
#195 = PRODUCT_DEFINITION_SHAPE ( 'NONE', 'NONE',  #123 ) ;
#196 = CYLINDRICAL_SURFACE ( 'NONE', #97, 0.3750000000000001110 ) ;
#197 = ORIENTED_EDGE ( 'NONE', *, *, #296, .F. ) ;
#198 = AXIS2_PLACEMENT_3D ( 'NONE', #180, #43, #295 ) ;
#199 = UNCERTAINTY_MEASURE_WITH_UNIT (LENGTH_MEASURE( 1.000000000000000082E-05 ), #209, 'distance_accuracy_value', 'NONE');
#200 = ORIENTED_EDGE ( 'NONE', *, *, #16, .T. ) ;
#201 = PRODUCT_RELATED_PRODUCT_CATEGORY ( 'part', '', ( #26 ) ) ;
#202 = AXIS2_PLACEMENT_3D ( 'NONE', #101, #290, #105 ) ;
#203 =( NAMED_UNIT ( * ) PLANE_ANGLE_UNIT ( ) SI_UNIT ( $, .RADIAN. ) );
#204 =( LENGTH_UNIT ( ) NAMED_UNIT ( * ) SI_UNIT ( $, .METRE. ) );
#205 = VERTEX_POINT ( 'NONE', #271 ) ;
#206 = DIMENSIONAL_EXPONENTS ( 1.000000000000000000, 0.000000000000000000, 0.000000000000000000, 0.000000000000000000, 0.000000000000000000, 0.000000000000000000, 0.000000000000000000 ) ;
#207 = STYLED_ITEM ( 'NONE', ( #49 ), #186 ) ;
#208 =( LENGTH_UNIT ( ) NAMED_UNIT ( * ) SI_UNIT ( $, .METRE. ) );
#209 =( CONVERSION_BASED_UNIT ( 'INCH', #193 ) LENGTH_UNIT ( ) NAMED_UNIT ( #142 ) );
#210 =( CONVERSION_BASED_UNIT ( 'INCH', #88 ) LENGTH_UNIT ( ) NAMED_UNIT ( #167 ) );
#211 = DIRECTION ( 'NONE',  ( -1.360718665719281396E-16, 1.000000000000000000, -0.000000000000000000 ) ) ;
#212 =( NAMED_UNIT ( * ) SI_UNIT ( $, .STERADIAN. ) SOLID_ANGLE_UNIT ( ) );
#213 = ORIENTED_EDGE ( 'NONE', *, *, #12, .T. ) ;
#214 =( NAMED_UNIT ( * ) PLANE_ANGLE_UNIT ( ) SI_UNIT ( $, .RADIAN. ) );
#215 = EDGE_LOOP ( 'NONE', ( #200, #233 ) ) ;
#216 = VECTOR ( 'NONE', #181, 39.37007874015748143 ) ;
#217 = LENGTH_MEASURE_WITH_UNIT ( LENGTH_MEASURE( 0.02539999999999999897 ), #239 );
#218 =( LENGTH_UNIT ( ) NAMED_UNIT ( * ) SI_UNIT ( $, .METRE. ) );
#219 =( LENGTH_UNIT ( ) NAMED_UNIT ( * ) SI_UNIT ( $, .METRE. ) );
#220 = UNCERTAINTY_MEASURE_WITH_UNIT (LENGTH_MEASURE( 1.000000000000000082E-05 ), #135, 'distance_accuracy_value', 'NONE');
#221 = CARTESIAN_POINT ( 'NONE',  ( 0.000000000000000000, 2.750000000000000000, 0.000000000000000000 ) ) ;
#222 =( GEOMETRIC_REPRESENTATION_CONTEXT ( 3 ) GLOBAL_UNCERTAINTY_ASSIGNED_CONTEXT ( ( #220 ) ) GLOBAL_UNIT_ASSIGNED_CONTEXT ( ( #135, #203, #5 ) ) REPRESENTATION_CONTEXT ( 'NONE', 'WORKASPACE' ) );
#223 = DIRECTION ( 'NONE',  ( -0.000000000000000000, -1.000000000000000000, -0.000000000000000000 ) ) ;
#224 = AXIS2_PLACEMENT_3D ( 'NONE', #92, #168, #51 ) ;
#225 = SURFACE_STYLE_USAGE ( .BOTH. , #103 ) ;
#226 = DIRECTION ( 'NONE',  ( 0.000000000000000000, -0.000000000000000000, 1.000000000000000000 ) ) ;
#227 = MANIFOLD_SOLID_BREP ( 'Revolve - Tool Body (Straight Shanked)', #234 ) ;
#228 = CIRCLE ( 'NONE', #91, 0.3749999999999999445 ) ;
#229 = CARTESIAN_POINT ( 'NONE',  ( 4.592425496802573602E-17, 2.750000000000000000, 0.3749999999999999445 ) ) ;
#230 = DIRECTION ( 'NONE',  ( 0.000000000000000000, 0.000000000000000000, -1.000000000000000000 ) ) ;
#231 = PLANE ( 'NONE',  #249 ) ;
#232 = DIMENSIONAL_EXPONENTS ( 1.000000000000000000, 0.000000000000000000, 0.000000000000000000, 0.000000000000000000, 0.000000000000000000, 0.000000000000000000, 0.000000000000000000 ) ;
#233 = ORIENTED_EDGE ( 'NONE', *, *, #34, .T. ) ;
#234 = CLOSED_SHELL ( 'NONE', ( #56, #68, #21, #86 ) ) ;
#235 = PRODUCT_DEFINITION_FORMATION_WITH_SPECIFIED_SOURCE ( 'ANY', '', #26, .NOT_KNOWN. ) ;
#236 = LENGTH_MEASURE_WITH_UNIT ( LENGTH_MEASURE( 0.02539999999999999897 ), #218 );
#237 = VERTEX_POINT ( 'NONE', #178 ) ;
#238 = MECHANICAL_DESIGN_GEOMETRIC_PRESENTATION_REPRESENTATION (  '', ( #143 ), #260 ) ;
#239 =( LENGTH_UNIT ( ) NAMED_UNIT ( * ) SI_UNIT ( $, .METRE. ) );
#240 = FACE_OUTER_BOUND ( 'NONE', #118, .T. ) ;
#241 = CYLINDRICAL_SURFACE ( 'NONE', #61, 0.3750000000000001110 ) ;
#242 = FACE_OUTER_BOUND ( 'NONE', #280, .T. ) ;
#243 = ORIENTED_EDGE ( 'NONE', *, *, #288, .T. ) ;
#244 = SURFACE_STYLE_FILL_AREA ( #65 ) ;
#245 = CARTESIAN_POINT ( 'NONE',  ( 0.000000000000000000, 0.000000000000000000, -0.3749999999999999445 ) ) ;
#246 =( NAMED_UNIT ( * ) SI_UNIT ( $, .STERADIAN. ) SOLID_ANGLE_UNIT ( ) );
#247 = MECHANICAL_DESIGN_GEOMETRIC_PRESENTATION_REPRESENTATION (  '', ( #287 ), #50 ) ;
#248 =( LENGTH_UNIT ( ) NAMED_UNIT ( * ) SI_UNIT ( $, .METRE. ) );
#249 = AXIS2_PLACEMENT_3D ( 'NONE', #87, #42, #188 ) ;
#250 = CARTESIAN_POINT ( 'NONE',  ( 0.000000000000000000, 0.000000000000000000, 0.000000000000000000 ) ) ;
#251 = COLOUR_RGB ( '',1.000000000000000000, 0.000000000000000000, 0.000000000000000000 ) ;
#252 = VERTEX_POINT ( 'NONE', #268 ) ;
#253 = FILL_AREA_STYLE_COLOUR ( '', #11 ) ;
#254 =( GEOMETRIC_REPRESENTATION_CONTEXT ( 3 ) GLOBAL_UNCERTAINTY_ASSIGNED_CONTEXT ( ( #104 ) ) GLOBAL_UNIT_ASSIGNED_CONTEXT ( ( #274, #161, #158 ) ) REPRESENTATION_CONTEXT ( 'NONE', 'WORKASPACE' ) );
#255 = EDGE_CURVE ( 'NONE', #205, #252, #81, .T. ) ;
#256 = SHAPE_DEFINITION_REPRESENTATION ( #195, #269 ) ;
#257 = DIRECTION ( 'NONE',  ( -1.360718665719281396E-16, 1.000000000000000000, 0.000000000000000000 ) ) ;
#258 = VERTEX_POINT ( 'NONE', #60 ) ;
#259 = EDGE_CURVE ( 'NONE', #78, #284, #130, .T. ) ;
#260 =( GEOMETRIC_REPRESENTATION_CONTEXT ( 3 ) GLOBAL_UNCERTAINTY_ASSIGNED_CONTEXT ( ( #31 ) ) GLOBAL_UNIT_ASSIGNED_CONTEXT ( ( #210, #52, #212 ) ) REPRESENTATION_CONTEXT ( 'NONE', 'WORKASPACE' ) );
#261 = DIRECTION ( 'NONE',  ( -1.000000000000000000, -1.360718665719281396E-16, 0.000000000000000000 ) ) ;
#262 = EDGE_LOOP ( 'NONE', ( #151, #213, #267, #309 ) ) ;
#263 = EDGE_LOOP ( 'NONE', ( #173, #24, #297, #77 ) ) ;
#264 =( CONVERSION_BASED_UNIT ( 'INCH', #217 ) LENGTH_UNIT ( ) NAMED_UNIT ( #165 ) );
#265 = CIRCLE ( 'NONE', #136, 0.3750000000000002220 ) ;
#266 = AXIS2_PLACEMENT_3D ( 'NONE', #162, #190, #14 ) ;
#267 = ORIENTED_EDGE ( 'NONE', *, *, #255, .T. ) ;
#268 = CARTESIAN_POINT ( 'NONE',  ( -0.3750000000000004996, 5.000000000000000000, 0.000000000000000000 ) ) ;
#269 = ADVANCED_BREP_SHAPE_REPRESENTATION ( '81373', ( #121, #227, #224 ), #79 ) ;
#270 = SURFACE_SIDE_STYLE ('',( #187 ) ) ;
#271 = CARTESIAN_POINT ( 'NONE',  ( -0.3749999999999999445, 2.750000000000000000, 0.000000000000000000 ) ) ;
#272 = FILL_AREA_STYLE_COLOUR ( '', #305 ) ;
#273 =( GEOMETRIC_REPRESENTATION_CONTEXT ( 3 ) GLOBAL_UNCERTAINTY_ASSIGNED_CONTEXT ( ( #303 ) ) GLOBAL_UNIT_ASSIGNED_CONTEXT ( ( #22, #214, #157 ) ) REPRESENTATION_CONTEXT ( 'NONE', 'WORKASPACE' ) );
#274 =( CONVERSION_BASED_UNIT ( 'INCH', #160 ) LENGTH_UNIT ( ) NAMED_UNIT ( #147 ) );
#275 = EDGE_CURVE ( 'NONE', #73, #258, #155, .T. ) ;
#276 =( LENGTH_UNIT ( ) NAMED_UNIT ( * ) SI_UNIT ( $, .METRE. ) );
#277 = SURFACE_STYLE_USAGE ( .BOTH. , #15 ) ;
#278 =( GEOMETRIC_REPRESENTATION_CONTEXT ( 3 ) GLOBAL_UNCERTAINTY_ASSIGNED_CONTEXT ( ( #199 ) ) GLOBAL_UNIT_ASSIGNED_CONTEXT ( ( #209, #179, #246 ) ) REPRESENTATION_CONTEXT ( 'NONE', 'WORKASPACE' ) );
#279 = PRODUCT_CONTEXT ( 'NONE', #25, 'mechanical' ) ;
#280 = EDGE_LOOP ( 'NONE', ( #145, #75 ) ) ;
#281 = CARTESIAN_POINT ( 'NONE',  ( 0.000000000000000000, 0.000000000000000000, 0.000000000000000000 ) ) ;
#282 = AXIS2_PLACEMENT_3D ( 'NONE', #281, #169, #93 ) ;
#283 = CARTESIAN_POINT ( 'NONE',  ( -3.061616997868383141E-16, 5.000000000000000000, 0.000000000000000000 ) ) ;
#284 = VERTEX_POINT ( 'NONE', #164 ) ;
#285 = CARTESIAN_POINT ( 'NONE',  ( -3.061616997868383141E-16, 5.000000000000000000, 0.000000000000000000 ) ) ;
#286 =( NAMED_UNIT ( * ) SI_UNIT ( $, .STERADIAN. ) SOLID_ANGLE_UNIT ( ) );
#287 = STYLED_ITEM ( 'NONE', ( #3 ), #227 ) ;
#288 = EDGE_CURVE ( 'NONE', #94, #237, #301, .T. ) ;
#289 = CARTESIAN_POINT ( 'NONE',  ( 0.000000000000000000, 2.750000000000000000, -0.3749999999999999445 ) ) ;
#290 = DIRECTION ( 'NONE',  ( -0.000000000000000000, -1.000000000000000000, -0.000000000000000000 ) ) ;
#291 = CIRCLE ( 'NONE', #29, 0.3749999999999999445 ) ;
#292 = UNCERTAINTY_MEASURE_WITH_UNIT (LENGTH_MEASURE( 1.000000000000000082E-05 ), #84, 'distance_accuracy_value', 'NONE');
#293 = VECTOR ( 'NONE', #211, 39.37007874015748143 ) ;
#294 = FACE_OUTER_BOUND ( 'NONE', #263, .T. ) ;
#295 = DIRECTION ( 'NONE',  ( 1.000000000000000000, 1.360718665719281396E-16, 0.000000000000000000 ) ) ;
#296 = EDGE_CURVE ( 'NONE', #78, #73, #166, .T. ) ;
#297 = ORIENTED_EDGE ( 'NONE', *, *, #275, .T. ) ;
#298 = FILL_AREA_STYLE ('',( #13 ) ) ;
#299 = CIRCLE ( 'NONE', #177, 0.3750000000000000555 ) ;
#300 = DIRECTION ( 'NONE',  ( -1.000000000000000000, 0.000000000000000000, 0.000000000000000000 ) ) ;
#301 = LINE ( 'NONE', #20, #293 ) ;
#302 = ORIENTED_EDGE ( 'NONE', *, *, #54, .T. ) ;
#303 = UNCERTAINTY_MEASURE_WITH_UNIT (LENGTH_MEASURE( 1.000000000000000082E-05 ), #22, 'distance_accuracy_value', 'NONE');
#304 = EDGE_LOOP ( 'NONE', ( #111, #243, #139, #307 ) ) ;
#305 = COLOUR_RGB ( '',0.7921568627450980005, 0.8196078431372548767, 0.9333333333333333481 ) ;
#306 = APPLICATION_PROTOCOL_DEFINITION ( 'draft international standard', 'automotive_design', 1998, #85 ) ;
#307 = ORIENTED_EDGE ( 'NONE', *, *, #255, .F. ) ;
#308 = EDGE_LOOP ( 'NONE', ( #189, #302 ) ) ;
#309 = ORIENTED_EDGE ( 'NONE', *, *, #34, .F. ) ;
ENDSEC;
END-ISO-10303-21;
