ISO-10303-21;
HEADER;
FILE_DESCRIPTION (( 'STEP AP214' ),
    '1' );
FILE_NAME ('Micro_BMS-014-2.STEP',
    '2021-09-03T14:47:19',
    ( '' ),
    ( '' ),
    'SwSTEP 2.0',
    'SolidWorks 2020',
    '' );
FILE_SCHEMA (( 'AUTOMOTIVE_DESIGN' ));
ENDSEC;

DATA;
#1 = DIRECTION ( 'NONE',  ( -0.7071067811865456854, 0.0000000000000000000, -0.7071067811865493491 ) ) ;
#2 = DIRECTION ( 'NONE',  ( 0.7071067811865456854, 8.659560562354911904E-17, -0.7071067811865493491 ) ) ;
#3 = CONICAL_SURFACE ( 'NONE', #236, 0.006992999999999998349, 0.1745329251994338637 ) ;
#4 = VECTOR ( 'NONE', #263, 39.37007874015748143 ) ;
#5 = DIRECTION ( 'NONE',  ( -1.224646799147353454E-16, -0.0000000000000000000, -1.000000000000000000 ) ) ;
#6 = FACE_OUTER_BOUND ( 'NONE', #107, .T. ) ;
#7 = VERTEX_POINT ( 'NONE', #72 ) ;
#8 = EDGE_LOOP ( 'NONE', ( #185, #78, #201, #110 ) ) ;
#9 = ADVANCED_FACE ( 'NONE', ( #48 ), #3, .T. ) ;
#10 = ADVANCED_FACE ( 'NONE', ( #174 ), #117, .T. ) ;
#11 = CARTESIAN_POINT ( 'NONE',  ( -0.06250000000000000000, 0.0000000000000000000, 1.500000000000000222 ) ) ;
#12 = CARTESIAN_POINT ( 'NONE',  ( -0.06250000000000000000, 0.0000000000000000000, 1.485000000000000764 ) ) ;
#13 = DIRECTION ( 'NONE',  ( 1.224646799147353454E-16, 0.0000000000000000000, 1.000000000000000000 ) ) ;
#14 = AXIS2_PLACEMENT_3D ( 'NONE', #116, #262, #37 ) ;
#15 = DIRECTION ( 'NONE',  ( 0.0000000000000000000, -1.000000000000000000, 0.0000000000000000000 ) ) ;
#16 = DIRECTION ( 'NONE',  ( 1.000000000000000000, 0.0000000000000000000, 0.0000000000000000000 ) ) ;
#17 = EDGE_CURVE ( 'NONE', #154, #102, #136, .T. ) ;
#18 = CARTESIAN_POINT ( 'NONE',  ( -0.006992999999999996615, 8.563955066437439857E-19, 0.02100000000000000477 ) ) ;
#19 = AXIS2_PLACEMENT_3D ( 'NONE', #260, #39, #167 ) ;
#20 = STYLED_ITEM ( 'NONE', ( #204 ), #94 ) ;
#21 = DIRECTION ( 'NONE',  ( -1.000000000000000000, 0.0000000000000000000, 0.0000000000000000000 ) ) ;
#22 = VERTEX_POINT ( 'NONE', #222 ) ;
#23 = DIRECTION ( 'NONE',  ( 1.000000000000000000, 0.0000000000000000000, 0.0000000000000000000 ) ) ;
#24 = CARTESIAN_POINT ( 'NONE',  ( 0.0000000000000000000, 0.0000000000000000000, 1.500000000000000222 ) ) ;
#25 = LINE ( 'NONE', #227, #70 ) ;
#26 =( NAMED_UNIT ( * ) SI_UNIT ( $, .STERADIAN. ) SOLID_ANGLE_UNIT ( ) );
#27 = CARTESIAN_POINT ( 'NONE',  ( 0.04750000000000064587, 5.817072295950006528E-18, 1.500000000000000222 ) ) ;
#28 = ORIENTED_EDGE ( 'NONE', *, *, #232, .T. ) ;
#29 = AXIS2_PLACEMENT_3D ( 'NONE', #24, #247, #21 ) ;
#30 = EDGE_LOOP ( 'NONE', ( #179, #28, #320, #221 ) ) ;
#31 = CARTESIAN_POINT ( 'NONE',  ( 0.0000000000000000000, 0.0000000000000000000, 1.500000000000000222 ) ) ;
#32 = EDGE_LOOP ( 'NONE', ( #130, #203, #318, #103 ) ) ;
#33 = DIRECTION ( 'NONE',  ( 0.0000000000000000000, 0.0000000000000000000, 1.000000000000000000 ) ) ;
#34 = EDGE_CURVE ( 'NONE', #7, #95, #270, .T. ) ;
#35 = CARTESIAN_POINT ( 'NONE',  ( -0.006992999999999996615, 4.255219000657351728E-18, 0.02100000000000000477 ) ) ;
#36 = AXIS2_PLACEMENT_3D ( 'NONE', #231, #276, #235 ) ;
#37 = DIRECTION ( 'NONE',  ( -1.000000000000000000, 1.224646799147353207E-16, 0.0000000000000000000 ) ) ;
#38 = UNCERTAINTY_MEASURE_WITH_UNIT (LENGTH_MEASURE( 1.000000000000000082E-05 ), #197, 'distance_accuracy_value', 'NONE');
#39 = DIRECTION ( 'NONE',  ( -0.0000000000000000000, -0.0000000000000000000, -1.000000000000000000 ) ) ;
#40 = DIRECTION ( 'NONE',  ( -1.000000000000000000, 0.0000000000000000000, 1.224646799147353454E-16 ) ) ;
#41 = AXIS2_PLACEMENT_3D ( 'NONE', #313, #290, #86 ) ;
#42 = AXIS2_PLACEMENT_3D ( 'NONE', #89, #15, #118 ) ;
#43 = EDGE_CURVE ( 'NONE', #95, #302, #25, .T. ) ;
#44 = DIRECTION ( 'NONE',  ( 0.0000000000000000000, 0.0000000000000000000, 1.000000000000000000 ) ) ;
#45 = FACE_OUTER_BOUND ( 'NONE', #148, .T. ) ;
#46 = VERTEX_POINT ( 'NONE', #100 ) ;
#47 = AXIS2_PLACEMENT_3D ( 'NONE', #257, #228, #156 ) ;
#48 = FACE_OUTER_BOUND ( 'NONE', #278, .T. ) ;
#49 = EDGE_LOOP ( 'NONE', ( #101, #280, #158, #74 ) ) ;
#50 = ORIENTED_EDGE ( 'NONE', *, *, #234, .F. ) ;
#51 = ORIENTED_EDGE ( 'NONE', *, *, #43, .T. ) ;
#52 = EDGE_CURVE ( 'NONE', #285, #154, #207, .T. ) ;
#53 = DIMENSIONAL_EXPONENTS ( 1.000000000000000000, 0.0000000000000000000, 0.0000000000000000000, 0.0000000000000000000, 0.0000000000000000000, 0.0000000000000000000, 0.0000000000000000000 ) ;
#54 = CIRCLE ( 'NONE', #112, 0.04750000000000064587 ) ;
#55 =( CONVERSION_BASED_UNIT ( 'INCH', #104 ) LENGTH_UNIT ( ) NAMED_UNIT ( #53 ) );
#56 = ADVANCED_FACE ( 'NONE', ( #45 ), #144, .T. ) ;
#57 = SPHERICAL_SURFACE ( 'NONE', #306, 0.006993000000000000084 ) ;
#58 = ORIENTED_EDGE ( 'NONE', *, *, #248, .F. ) ;
#59 = LINE ( 'NONE', #253, #82 ) ;
#60 = CIRCLE ( 'NONE', #300, 0.06250000000000000000 ) ;
#61 = PRODUCT_DEFINITION_FORMATION_WITH_SPECIFIED_SOURCE ( 'ANY', '', #96, .NOT_KNOWN. ) ;
#62 = ORIENTED_EDGE ( 'NONE', *, *, #90, .T. ) ;
#63 = DIRECTION ( 'NONE',  ( 0.0000000000000000000, 1.000000000000000000, 0.0000000000000000000 ) ) ;
#64 = FACE_OUTER_BOUND ( 'NONE', #32, .T. ) ;
#65 = DIRECTION ( 'NONE',  ( -1.000000000000000000, 0.0000000000000000000, 1.525994741205638611E-16 ) ) ;
#66 = COLOUR_RGB ( '',0.7921568627450980005, 0.8196078431372548767, 0.9333333333333333481 ) ;
#67 = DIRECTION ( 'NONE',  ( -1.224646799147353454E-16, -0.0000000000000000000, -1.000000000000000000 ) ) ;
#68 = DIRECTION ( 'NONE',  ( 1.000000000000000000, 0.0000000000000000000, 0.0000000000000000000 ) ) ;
#69 =( LENGTH_UNIT ( ) NAMED_UNIT ( * ) SI_UNIT ( $, .METRE. ) );
#70 = VECTOR ( 'NONE', #1, 39.37007874015748143 ) ;
#71 = EDGE_CURVE ( 'NONE', #102, #154, #295, .T. ) ;
#72 = CARTESIAN_POINT ( 'NONE',  ( 0.04750000000000064587, 6.735557395310482421E-18, 1.500000000000000222 ) ) ;
#73 = VECTOR ( 'NONE', #192, 39.37007874015748143 ) ;
#74 = ORIENTED_EDGE ( 'NONE', *, *, #315, .F. ) ;
#75 = ADVANCED_FACE ( 'NONE', ( #183 ), #277, .T. ) ;
#76 = ORIENTED_EDGE ( 'NONE', *, *, #325, .T. ) ;
#77 = CARTESIAN_POINT ( 'NONE',  ( 8.563955066437441783E-19, 0.0000000000000000000, 0.006993000000000000084 ) ) ;
#78 = ORIENTED_EDGE ( 'NONE', *, *, #161, .T. ) ;
#79 = FACE_OUTER_BOUND ( 'NONE', #30, .T. ) ;
#80 = EDGE_CURVE ( 'NONE', #285, #324, #317, .T. ) ;
#81 = DIRECTION ( 'NONE',  ( 1.000000000000000000, 0.0000000000000000000, 0.0000000000000000000 ) ) ;
#82 = VECTOR ( 'NONE', #229, 39.37007874015748143 ) ;
#83 = MECHANICAL_DESIGN_GEOMETRIC_PRESENTATION_REPRESENTATION (  '', ( #20 ), #267 ) ;
#84 = ORIENTED_EDGE ( 'NONE', *, *, #281, .T. ) ;
#85 = DIRECTION ( 'NONE',  ( -0.0000000000000000000, -0.0000000000000000000, -1.000000000000000000 ) ) ;
#86 = DIRECTION ( 'NONE',  ( 1.000000000000000000, 0.0000000000000000000, 0.0000000000000000000 ) ) ;
#87 =( GEOMETRIC_REPRESENTATION_CONTEXT ( 3 ) GLOBAL_UNCERTAINTY_ASSIGNED_CONTEXT ( ( #137 ) ) GLOBAL_UNIT_ASSIGNED_CONTEXT ( ( #55, #180, #26 ) ) REPRESENTATION_CONTEXT ( 'NONE', 'WORKASPACE' ) );
#88 = CARTESIAN_POINT ( 'NONE',  ( 0.0000000000000000000, 0.0000000000000000000, 1.500000000000000222 ) ) ;
#89 = CARTESIAN_POINT ( 'NONE',  ( 8.563955066437441783E-19, 0.0000000000000000000, 0.006993000000000000084 ) ) ;
#90 = EDGE_CURVE ( 'NONE', #324, #285, #288, .T. ) ;
#91 = APPLICATION_PROTOCOL_DEFINITION ( 'draft international standard', 'automotive_design', 1998, #163 ) ;
#92 = VECTOR ( 'NONE', #297, 39.37007874015747433 ) ;
#93 = DIMENSIONAL_EXPONENTS ( 1.000000000000000000, 0.0000000000000000000, 0.0000000000000000000, 0.0000000000000000000, 0.0000000000000000000, 0.0000000000000000000, 0.0000000000000000000 ) ;
#94 = ADVANCED_BREP_SHAPE_REPRESENTATION ( 'Micro_BMS-014-2', ( #114, #205 ), #271 ) ;
#95 = VERTEX_POINT ( 'NONE', #129 ) ;
#96 = PRODUCT ( 'Micro_BMS-014-2', 'Micro_BMS-014-2', '', ( #294 ) ) ;
#97 = SURFACE_STYLE_FILL_AREA ( #175 ) ;
#98 =( NAMED_UNIT ( * ) PLANE_ANGLE_UNIT ( ) SI_UNIT ( $, .RADIAN. ) );
#99 = DIRECTION ( 'NONE',  ( -1.224646799147353454E-16, -0.0000000000000000000, -1.000000000000000000 ) ) ;
#100 = CARTESIAN_POINT ( 'NONE',  ( 0.06250000000000000000, 7.654042494670956004E-18, 1.485000000000000764 ) ) ;
#101 = ORIENTED_EDGE ( 'NONE', *, *, #80, .F. ) ;
#102 = VERTEX_POINT ( 'NONE', #108 ) ;
#103 = ORIENTED_EDGE ( 'NONE', *, *, #71, .F. ) ;
#104 = LENGTH_MEASURE_WITH_UNIT ( LENGTH_MEASURE( 0.02539999999999999897 ), #250 );
#105 = AXIS2_PLACEMENT_3D ( 'NONE', #176, #272, #151 ) ;
#106 = DIRECTION ( 'NONE',  ( -0.0000000000000000000, -0.0000000000000000000, -1.000000000000000000 ) ) ;
#107 = EDGE_LOOP ( 'NONE', ( #209, #149, #50 ) ) ;
#108 = CARTESIAN_POINT ( 'NONE',  ( 0.06250000000000004163, 7.654042494670960626E-18, 0.3357958399615185163 ) ) ;
#109 = DIRECTION ( 'NONE',  ( -1.224646799147353454E-16, -0.0000000000000000000, -1.000000000000000000 ) ) ;
#110 = ORIENTED_EDGE ( 'NONE', *, *, #43, .F. ) ;
#111 = EDGE_CURVE ( 'NONE', #285, #223, #59, .T. ) ;
#112 = AXIS2_PLACEMENT_3D ( 'NONE', #238, #190, #162 ) ;
#113 = DIRECTION ( 'NONE',  ( 0.0000000000000000000, 0.0000000000000000000, -1.000000000000000000 ) ) ;
#114 = MANIFOLD_SOLID_BREP ( 'Fillet1', #181 ) ;
#115 = FACE_OUTER_BOUND ( 'NONE', #251, .T. ) ;
#116 = CARTESIAN_POINT ( 'NONE',  ( 8.563955066437441783E-19, 0.0000000000000000000, 0.006993000000000000084 ) ) ;
#117 = CONICAL_SURFACE ( 'NONE', #29, 0.04750000000000064587, 0.7853981633974457255 ) ;
#118 = DIRECTION ( 'NONE',  ( 0.0000000000000000000, 0.0000000000000000000, -1.000000000000000000 ) ) ;
#119 = ADVANCED_FACE ( 'NONE', ( #6 ), #57, .T. ) ;
#120 = CARTESIAN_POINT ( 'NONE',  ( 0.06250000000000000000, 7.654042494670956004E-18, 1.500000000000000222 ) ) ;
#121 = DIRECTION ( 'NONE',  ( 1.224646799147353454E-16, 0.0000000000000000000, 1.000000000000000000 ) ) ;
#122 = AXIS2_PLACEMENT_3D ( 'NONE', #216, #13, #65 ) ;
#123 = ORIENTED_EDGE ( 'NONE', *, *, #315, .T. ) ;
#124 = ORIENTED_EDGE ( 'NONE', *, *, #17, .F. ) ;
#125 =( NAMED_UNIT ( * ) PLANE_ANGLE_UNIT ( ) SI_UNIT ( $, .RADIAN. ) );
#126 =( NAMED_UNIT ( * ) SI_UNIT ( $, .STERADIAN. ) SOLID_ANGLE_UNIT ( ) );
#127 = MECHANICAL_DESIGN_GEOMETRIC_PRESENTATION_REPRESENTATION (  '', ( #265 ), #87 ) ;
#128 = DIRECTION ( 'NONE',  ( -1.000000000000000000, 0.0000000000000000000, 0.0000000000000000000 ) ) ;
#129 = CARTESIAN_POINT ( 'NONE',  ( -0.04750000000000064587, 0.0000000000000000000, 1.500000000000000222 ) ) ;
#130 = ORIENTED_EDGE ( 'NONE', *, *, #213, .F. ) ;
#131 = CIRCLE ( 'NONE', #122, 0.006992999999999998349 ) ;
#132 = CARTESIAN_POINT ( 'NONE',  ( 2.571758278209442589E-18, 0.0000000000000000000, 0.02100000000000000477 ) ) ;
#133 = DIRECTION ( 'NONE',  ( -1.000000000000000000, 0.0000000000000000000, 0.0000000000000000000 ) ) ;
#134 = CARTESIAN_POINT ( 'NONE',  ( -0.006992999999999997482, 0.0000000000000000000, 0.006993000000000000951 ) ) ;
#135 = VECTOR ( 'NONE', #2, 39.37007874015748143 ) ;
#136 = CIRCLE ( 'NONE', #142, 0.06250000000000000000 ) ;
#137 = UNCERTAINTY_MEASURE_WITH_UNIT (LENGTH_MEASURE( 1.000000000000000082E-05 ), #55, 'distance_accuracy_value', 'NONE');
#138 = ADVANCED_FACE ( 'NONE', ( #79 ), #208, .T. ) ;
#139 = DIRECTION ( 'NONE',  ( -0.0000000000000000000, -0.0000000000000000000, -1.000000000000000000 ) ) ;
#140 = DIRECTION ( 'NONE',  ( 1.000000000000000000, 0.0000000000000000000, 0.0000000000000000000 ) ) ;
#141 = CARTESIAN_POINT ( 'NONE',  ( 8.563955066437441783E-19, 0.0000000000000000000, 0.006993000000000000084 ) ) ;
#142 = AXIS2_PLACEMENT_3D ( 'NONE', #268, #99, #296 ) ;
#143 = LENGTH_MEASURE_WITH_UNIT ( LENGTH_MEASURE( 0.02539999999999999897 ), #69 );
#144 = PLANE ( 'NONE',  #274 ) ;
#145 = ORIENTED_EDGE ( 'NONE', *, *, #111, .T. ) ;
#146 = CONICAL_SURFACE ( 'NONE', #323, 0.04750000000000064587, 0.7853981633974457255 ) ;
#147 = FILL_AREA_STYLE_COLOUR ( '', #307 ) ;
#148 = EDGE_LOOP ( 'NONE', ( #298, #159 ) ) ;
#149 = ORIENTED_EDGE ( 'NONE', *, *, #287, .T. ) ;
#150 = ORIENTED_EDGE ( 'NONE', *, *, #52, .F. ) ;
#151 = DIRECTION ( 'NONE',  ( 1.000000000000000000, 0.0000000000000000000, 0.0000000000000000000 ) ) ;
#152 = AXIS2_PLACEMENT_3D ( 'NONE', #141, #160, #283 ) ;
#153 = PRESENTATION_STYLE_ASSIGNMENT (( #214 ) ) ;
#154 = VERTEX_POINT ( 'NONE', #299 ) ;
#155 = DIRECTION ( 'NONE',  ( 0.0000000000000000000, 1.000000000000000000, 0.0000000000000000000 ) ) ;
#156 = DIRECTION ( 'NONE',  ( 1.000000000000000000, 0.0000000000000000000, 0.0000000000000000000 ) ) ;
#157 = ORIENTED_EDGE ( 'NONE', *, *, #291, .F. ) ;
#158 = ORIENTED_EDGE ( 'NONE', *, *, #17, .T. ) ;
#159 = ORIENTED_EDGE ( 'NONE', *, *, #34, .T. ) ;
#160 = DIRECTION ( 'NONE',  ( 1.224646799147353454E-16, 0.0000000000000000000, 1.000000000000000000 ) ) ;
#161 = EDGE_CURVE ( 'NONE', #7, #46, #252, .T. ) ;
#162 = DIRECTION ( 'NONE',  ( 1.000000000000000000, 0.0000000000000000000, 0.0000000000000000000 ) ) ;
#163 = APPLICATION_CONTEXT ( 'automotive_design' ) ;
#164 = CIRCLE ( 'NONE', #14, 0.006993000000000000084 ) ;
#165 = UNCERTAINTY_MEASURE_WITH_UNIT (LENGTH_MEASURE( 1.000000000000000082E-05 ), #243, 'distance_accuracy_value', 'NONE');
#166 = LINE ( 'NONE', #308, #4 ) ;
#167 = DIRECTION ( 'NONE',  ( -1.000000000000000000, 0.0000000000000000000, 0.0000000000000000000 ) ) ;
#168 = PRODUCT_DEFINITION_SHAPE ( 'NONE', 'NONE',  #195 ) ;
#169 = CARTESIAN_POINT ( 'NONE',  ( 0.006993000000000000951, 0.0000000000000000000, 0.02100000000000000477 ) ) ;
#170 = AXIS2_PLACEMENT_3D ( 'NONE', #282, #63, #140 ) ;
#171 = CIRCLE ( 'NONE', #42, 0.006993000000000000084 ) ;
#172 = SURFACE_SIDE_STYLE ('',( #97 ) ) ;
#173 = ADVANCED_FACE ( 'NONE', ( #189 ), #184, .T. ) ;
#174 = FACE_OUTER_BOUND ( 'NONE', #8, .T. ) ;
#175 = FILL_AREA_STYLE ('',( #147 ) ) ;
#176 = CARTESIAN_POINT ( 'NONE',  ( 0.0000000000000000000, 0.0000000000000000000, 1.500000000000000222 ) ) ;
#177 = CONICAL_SURFACE ( 'NONE', #41, 0.006992999999999998349, 0.1745329251994338637 ) ;
#178 = PRODUCT_RELATED_PRODUCT_CATEGORY ( 'part', '', ( #96 ) ) ;
#179 = ORIENTED_EDGE ( 'NONE', *, *, #80, .T. ) ;
#180 =( NAMED_UNIT ( * ) PLANE_ANGLE_UNIT ( ) SI_UNIT ( $, .RADIAN. ) );
#181 = CLOSED_SHELL ( 'NONE', ( #119, #138, #266, #10, #75, #284, #56, #196, #9, #314, #173 ) ) ;
#182 = PRESENTATION_LAYER_ASSIGNMENT (  '', '', ( #20 ) ) ;
#183 = FACE_OUTER_BOUND ( 'NONE', #321, .T. ) ;
#184 = SPHERICAL_SURFACE ( 'NONE', #170, 0.006993000000000000084 ) ;
#185 = ORIENTED_EDGE ( 'NONE', *, *, #34, .F. ) ;
#186 = FILL_AREA_STYLE ('',( #211 ) ) ;
#187 = ORIENTED_EDGE ( 'NONE', *, *, #213, .T. ) ;
#188 = VECTOR ( 'NONE', #139, 39.37007874015748143 ) ;
#189 = FACE_OUTER_BOUND ( 'NONE', #309, .T. ) ;
#190 = DIRECTION ( 'NONE',  ( 0.0000000000000000000, 0.0000000000000000000, 1.000000000000000000 ) ) ;
#191 = LINE ( 'NONE', #120, #188 ) ;
#192 = DIRECTION ( 'NONE',  ( -1.224646799147353454E-16, -0.0000000000000000000, -1.000000000000000000 ) ) ;
#193 = VECTOR ( 'NONE', #85, 39.37007874015748143 ) ;
#194 = DIRECTION ( 'NONE',  ( 0.0000000000000000000, 0.0000000000000000000, -1.000000000000000000 ) ) ;
#195 = PRODUCT_DEFINITION ( 'UNKNOWN', '', #61, #239 ) ;
#196 = ADVANCED_FACE ( 'NONE', ( #301 ), #146, .T. ) ;
#197 =( CONVERSION_BASED_UNIT ( 'INCH', #269 ) LENGTH_UNIT ( ) NAMED_UNIT ( #93 ) );
#198 = PRESENTATION_LAYER_ASSIGNMENT (  '', '', ( #265 ) ) ;
#199 = AXIS2_PLACEMENT_3D ( 'NONE', #218, #67, #40 ) ;
#200 =( LENGTH_UNIT ( ) NAMED_UNIT ( * ) SI_UNIT ( $, .METRE. ) );
#201 = ORIENTED_EDGE ( 'NONE', *, *, #281, .F. ) ;
#202 = APPLICATION_PROTOCOL_DEFINITION ( 'draft international standard', 'automotive_design', 1998, #304 ) ;
#203 = ORIENTED_EDGE ( 'NONE', *, *, #291, .T. ) ;
#204 = PRESENTATION_STYLE_ASSIGNMENT (( #246 ) ) ;
#205 = AXIS2_PLACEMENT_3D ( 'NONE', #316, #44, #23 ) ;
#206 =( NAMED_UNIT ( * ) SI_UNIT ( $, .STERADIAN. ) SOLID_ANGLE_UNIT ( ) );
#207 = LINE ( 'NONE', #18, #92 ) ;
#208 = CYLINDRICAL_SURFACE ( 'NONE', #261, 0.006992999999999998349 ) ;
#209 = ORIENTED_EDGE ( 'NONE', *, *, #325, .F. ) ;
#210 = CIRCLE ( 'NONE', #242, 0.06250000000000000000 ) ;
#211 = FILL_AREA_STYLE_COLOUR ( '', #66 ) ;
#212 = DIRECTION ( 'NONE',  ( -1.000000000000000000, 0.0000000000000000000, 1.224646799147353454E-16 ) ) ;
#213 = EDGE_CURVE ( 'NONE', #46, #102, #191, .T. ) ;
#214 = SURFACE_STYLE_USAGE ( .BOTH. , #303 ) ;
#215 = ORIENTED_EDGE ( 'NONE', *, *, #71, .T. ) ;
#216 = CARTESIAN_POINT ( 'NONE',  ( 8.563955066437441783E-19, 0.0000000000000000000, 0.006993000000000000084 ) ) ;
#217 = CYLINDRICAL_SURFACE ( 'NONE', #199, 0.006992999999999998349 ) ;
#218 = CARTESIAN_POINT ( 'NONE',  ( 0.0000000000000000000, 0.0000000000000000000, 0.0000000000000000000 ) ) ;
#219 = AXIS2_PLACEMENT_3D ( 'NONE', #31, #106, #133 ) ;
#220 = VERTEX_POINT ( 'NONE', #292 ) ;
#221 = ORIENTED_EDGE ( 'NONE', *, *, #111, .F. ) ;
#222 = CARTESIAN_POINT ( 'NONE',  ( 1.284593259965616171E-18, 0.0000000000000000000, 0.0000000000000000000 ) ) ;
#223 = VERTEX_POINT ( 'NONE', #134 ) ;
#224 = EDGE_CURVE ( 'NONE', #95, #7, #54, .T. ) ;
#225 = AXIS2_PLACEMENT_3D ( 'NONE', #132, #5, #128 ) ;
#226 = ORIENTED_EDGE ( 'NONE', *, *, #258, .F. ) ;
#227 = CARTESIAN_POINT ( 'NONE',  ( -0.04750000000000064587, 0.0000000000000000000, 1.500000000000000222 ) ) ;
#228 = DIRECTION ( 'NONE',  ( -1.224646799147353454E-16, -0.0000000000000000000, -1.000000000000000000 ) ) ;
#229 = DIRECTION ( 'NONE',  ( -1.224646799147353454E-16, -0.0000000000000000000, -1.000000000000000000 ) ) ;
#230 = ORIENTED_EDGE ( 'NONE', *, *, #232, .F. ) ;
#231 = CARTESIAN_POINT ( 'NONE',  ( 2.571758278209442589E-18, 0.0000000000000000000, 0.02100000000000000477 ) ) ;
#232 = EDGE_CURVE ( 'NONE', #324, #220, #286, .T. ) ;
#233 = ORIENTED_EDGE ( 'NONE', *, *, #258, .T. ) ;
#234 = EDGE_CURVE ( 'NONE', #220, #223, #293, .T. ) ;
#235 = DIRECTION ( 'NONE',  ( -1.000000000000000000, 0.0000000000000000000, 0.0000000000000000000 ) ) ;
#236 = AXIS2_PLACEMENT_3D ( 'NONE', #245, #121, #322 ) ;
#237 = CARTESIAN_POINT ( 'NONE',  ( 0.0000000000000000000, 0.0000000000000000000, 1.485000000000000764 ) ) ;
#238 = CARTESIAN_POINT ( 'NONE',  ( 0.0000000000000000000, 0.0000000000000000000, 1.500000000000000222 ) ) ;
#239 = PRODUCT_DEFINITION_CONTEXT ( 'detailed design', #163, 'design' ) ;
#240 = DIRECTION ( 'NONE',  ( -1.000000000000000000, 0.0000000000000000000, 0.0000000000000000000 ) ) ;
#241 = FACE_OUTER_BOUND ( 'NONE', #49, .T. ) ;
#242 = AXIS2_PLACEMENT_3D ( 'NONE', #264, #113, #16 ) ;
#243 =( CONVERSION_BASED_UNIT ( 'INCH', #143 ) LENGTH_UNIT ( ) NAMED_UNIT ( #275 ) );
#244 = CARTESIAN_POINT ( 'NONE',  ( 0.0000000000000000000, 0.0000000000000000000, 1.500000000000000222 ) ) ;
#245 = CARTESIAN_POINT ( 'NONE',  ( 2.571758278209442589E-18, 0.0000000000000000000, 0.02100000000000000477 ) ) ;
#246 = SURFACE_STYLE_USAGE ( .BOTH. , #172 ) ;
#247 = DIRECTION ( 'NONE',  ( 0.0000000000000000000, 0.0000000000000000000, -1.000000000000000000 ) ) ;
#248 = EDGE_CURVE ( 'NONE', #302, #154, #310, .T. ) ;
#249 = ORIENTED_EDGE ( 'NONE', *, *, #161, .F. ) ;
#250 =( LENGTH_UNIT ( ) NAMED_UNIT ( * ) SI_UNIT ( $, .METRE. ) );
#251 = EDGE_LOOP ( 'NONE', ( #230, #62, #145, #233 ) ) ;
#252 = LINE ( 'NONE', #27, #135 ) ;
#253 = CARTESIAN_POINT ( 'NONE',  ( -0.006992999999999998349, 0.0000000000000000000, 8.563955066437440820E-19 ) ) ;
#254 = EDGE_LOOP ( 'NONE', ( #249, #256, #51, #157 ) ) ;
#255 = DIRECTION ( 'NONE',  ( 1.000000000000000000, 0.0000000000000000000, -0.0000000000000000000 ) ) ;
#256 = ORIENTED_EDGE ( 'NONE', *, *, #224, .F. ) ;
#257 = CARTESIAN_POINT ( 'NONE',  ( 4.112313005758706832E-17, 0.0000000000000000000, 0.3357958399615185163 ) ) ;
#258 = EDGE_CURVE ( 'NONE', #223, #220, #131, .T. ) ;
#259 = ORIENTED_EDGE ( 'NONE', *, *, #90, .F. ) ;
#260 = CARTESIAN_POINT ( 'NONE',  ( 0.0000000000000000000, 0.0000000000000000000, 1.500000000000000222 ) ) ;
#261 = AXIS2_PLACEMENT_3D ( 'NONE', #279, #109, #212 ) ;
#262 = DIRECTION ( 'NONE',  ( 1.224646799147353207E-16, 1.000000000000000000, -0.0000000000000000000 ) ) ;
#263 = DIRECTION ( 'NONE',  ( 0.1736481776669313581, 0.0000000000000000000, 0.9848077530122077983 ) ) ;
#264 = CARTESIAN_POINT ( 'NONE',  ( 0.0000000000000000000, 0.0000000000000000000, 1.485000000000000764 ) ) ;
#265 = STYLED_ITEM ( 'NONE', ( #153 ), #114 ) ;
#266 = ADVANCED_FACE ( 'NONE', ( #241 ), #177, .T. ) ;
#267 =( GEOMETRIC_REPRESENTATION_CONTEXT ( 3 ) GLOBAL_UNCERTAINTY_ASSIGNED_CONTEXT ( ( #38 ) ) GLOBAL_UNIT_ASSIGNED_CONTEXT ( ( #197, #98, #206 ) ) REPRESENTATION_CONTEXT ( 'NONE', 'WORKASPACE' ) );
#268 = CARTESIAN_POINT ( 'NONE',  ( 4.112313005758706832E-17, 0.0000000000000000000, 0.3357958399615185163 ) ) ;
#269 = LENGTH_MEASURE_WITH_UNIT ( LENGTH_MEASURE( 0.02539999999999999897 ), #200 );
#270 = CIRCLE ( 'NONE', #105, 0.04750000000000064587 ) ;
#271 =( GEOMETRIC_REPRESENTATION_CONTEXT ( 3 ) GLOBAL_UNCERTAINTY_ASSIGNED_CONTEXT ( ( #165 ) ) GLOBAL_UNIT_ASSIGNED_CONTEXT ( ( #243, #125, #126 ) ) REPRESENTATION_CONTEXT ( 'NONE', 'WORKASPACE' ) );
#272 = DIRECTION ( 'NONE',  ( 0.0000000000000000000, 0.0000000000000000000, 1.000000000000000000 ) ) ;
#273 = ORIENTED_EDGE ( 'NONE', *, *, #287, .F. ) ;
#274 = AXIS2_PLACEMENT_3D ( 'NONE', #244, #33, #255 ) ;
#275 = DIMENSIONAL_EXPONENTS ( 1.000000000000000000, 0.0000000000000000000, 0.0000000000000000000, 0.0000000000000000000, 0.0000000000000000000, 0.0000000000000000000, 0.0000000000000000000 ) ;
#276 = DIRECTION ( 'NONE',  ( -1.224646799147353454E-16, -0.0000000000000000000, -1.000000000000000000 ) ) ;
#277 = CYLINDRICAL_SURFACE ( 'NONE', #219, 0.06250000000000000000 ) ;
#278 = EDGE_LOOP ( 'NONE', ( #150, #259, #123, #215 ) ) ;
#279 = CARTESIAN_POINT ( 'NONE',  ( 0.0000000000000000000, 0.0000000000000000000, 0.0000000000000000000 ) ) ;
#280 = ORIENTED_EDGE ( 'NONE', *, *, #52, .T. ) ;
#281 = EDGE_CURVE ( 'NONE', #302, #46, #60, .T. ) ;
#282 = CARTESIAN_POINT ( 'NONE',  ( 8.563955066437441783E-19, 0.0000000000000000000, 0.006993000000000000084 ) ) ;
#283 = DIRECTION ( 'NONE',  ( -1.000000000000000000, 0.0000000000000000000, 1.525994741205638611E-16 ) ) ;
#284 = ADVANCED_FACE ( 'NONE', ( #64 ), #289, .T. ) ;
#285 = VERTEX_POINT ( 'NONE', #35 ) ;
#286 = LINE ( 'NONE', #311, #73 ) ;
#287 = EDGE_CURVE ( 'NONE', #22, #223, #164, .T. ) ;
#288 = CIRCLE ( 'NONE', #225, 0.006992999999999998349 ) ;
#289 = CYLINDRICAL_SURFACE ( 'NONE', #19, 0.06250000000000000000 ) ;
#290 = DIRECTION ( 'NONE',  ( 1.224646799147353454E-16, 0.0000000000000000000, 1.000000000000000000 ) ) ;
#291 = EDGE_CURVE ( 'NONE', #46, #302, #210, .T. ) ;
#292 = CARTESIAN_POINT ( 'NONE',  ( 0.006993000000000000084, 8.563955066437439857E-19, 0.006992999999999998349 ) ) ;
#293 = CIRCLE ( 'NONE', #152, 0.006992999999999998349 ) ;
#294 = PRODUCT_CONTEXT ( 'NONE', #304, 'mechanical' ) ;
#295 = CIRCLE ( 'NONE', #47, 0.06250000000000000000 ) ;
#296 = DIRECTION ( 'NONE',  ( 1.000000000000000000, 0.0000000000000000000, 0.0000000000000000000 ) ) ;
#297 = DIRECTION ( 'NONE',  ( -0.1736481776669311639, 2.126576849575783008E-17, 0.9848077530122080203 ) ) ;
#298 = ORIENTED_EDGE ( 'NONE', *, *, #224, .T. ) ;
#299 = CARTESIAN_POINT ( 'NONE',  ( -0.06249999999999995837, 0.0000000000000000000, 0.3357958399615185163 ) ) ;
#300 = AXIS2_PLACEMENT_3D ( 'NONE', #237, #312, #68 ) ;
#301 = FACE_OUTER_BOUND ( 'NONE', #254, .T. ) ;
#302 = VERTEX_POINT ( 'NONE', #12 ) ;
#303 = SURFACE_SIDE_STYLE ('',( #305 ) ) ;
#304 = APPLICATION_CONTEXT ( 'automotive_design' ) ;
#305 = SURFACE_STYLE_FILL_AREA ( #186 ) ;
#306 = AXIS2_PLACEMENT_3D ( 'NONE', #77, #155, #81 ) ;
#307 = COLOUR_RGB ( '',0.7921568627450980005, 0.8196078431372548767, 0.9333333333333333481 ) ;
#308 = CARTESIAN_POINT ( 'NONE',  ( 0.006993000000000000951, 0.0000000000000000000, 0.02100000000000000477 ) ) ;
#309 = EDGE_LOOP ( 'NONE', ( #273, #76, #226 ) ) ;
#310 = LINE ( 'NONE', #11, #193 ) ;
#311 = CARTESIAN_POINT ( 'NONE',  ( 0.006992999999999998349, 8.563955066437439857E-19, -8.563955066437440820E-19 ) ) ;
#312 = DIRECTION ( 'NONE',  ( 0.0000000000000000000, 0.0000000000000000000, -1.000000000000000000 ) ) ;
#313 = CARTESIAN_POINT ( 'NONE',  ( 2.571758278209442589E-18, 0.0000000000000000000, 0.02100000000000000477 ) ) ;
#314 = ADVANCED_FACE ( 'NONE', ( #115 ), #217, .T. ) ;
#315 = EDGE_CURVE ( 'NONE', #324, #102, #166, .T. ) ;
#316 = CARTESIAN_POINT ( 'NONE',  ( 0.0000000000000000000, 0.0000000000000000000, 0.0000000000000000000 ) ) ;
#317 = CIRCLE ( 'NONE', #36, 0.006992999999999998349 ) ;
#318 = ORIENTED_EDGE ( 'NONE', *, *, #248, .T. ) ;
#319 = SHAPE_DEFINITION_REPRESENTATION ( #168, #94 ) ;
#320 = ORIENTED_EDGE ( 'NONE', *, *, #234, .T. ) ;
#321 = EDGE_LOOP ( 'NONE', ( #84, #187, #124, #58 ) ) ;
#322 = DIRECTION ( 'NONE',  ( 1.000000000000000000, 0.0000000000000000000, 0.0000000000000000000 ) ) ;
#323 = AXIS2_PLACEMENT_3D ( 'NONE', #88, #194, #240 ) ;
#324 = VERTEX_POINT ( 'NONE', #169 ) ;
#325 = EDGE_CURVE ( 'NONE', #22, #220, #171, .T. ) ;
ENDSEC;
END-ISO-10303-21;
