ISO-10303-21;
HEADER;
FILE_DESCRIPTION (( 'STEP AP214' ),
    '1' );
FILE_NAME ('Micro_SBMM-040-212.STEP',
    '2021-09-02T17:08:37',
    ( '' ),
    ( '' ),
    'SwSTEP 2.0',
    'SolidWorks 2020',
    '' );
FILE_SCHEMA (( 'AUTOMOTIVE_DESIGN' ));
ENDSEC;

DATA;
#1 = CARTESIAN_POINT ( 'NONE',  ( -0.1181100000000000344, 0.0000000000000000000, 2.937755999999999368 ) ) ;
#2 = PRESENTATION_LAYER_ASSIGNMENT (  '', '', ( #129 ) ) ;
#3 = CARTESIAN_POINT ( 'NONE',  ( 0.0000000000000000000, 0.0000000000000000000, 1.181102000000000318 ) ) ;
#4 = EDGE_LOOP ( 'NONE', ( #309, #134, #211, #340 ) ) ;
#5 = UNCERTAINTY_MEASURE_WITH_UNIT (LENGTH_MEASURE( 1.000000000000000082E-05 ), #289, 'distance_accuracy_value', 'NONE');
#6 = DIRECTION ( 'NONE',  ( -0.7071067811865486830, 0.0000000000000000000, -0.7071067811865462405 ) ) ;
#7 = ORIENTED_EDGE ( 'NONE', *, *, #225, .F. ) ;
#8 = CARTESIAN_POINT ( 'NONE',  ( 0.0000000000000000000, 0.0000000000000000000, 0.4724409999999999998 ) ) ;
#9 =( GEOMETRIC_REPRESENTATION_CONTEXT ( 3 ) GLOBAL_UNCERTAINTY_ASSIGNED_CONTEXT ( ( #5 ) ) GLOBAL_UNIT_ASSIGNED_CONTEXT ( ( #289, #288, #27 ) ) REPRESENTATION_CONTEXT ( 'NONE', 'WORKASPACE' ) );
#10 =( GEOMETRIC_REPRESENTATION_CONTEXT ( 3 ) GLOBAL_UNCERTAINTY_ASSIGNED_CONTEXT ( ( #324 ) ) GLOBAL_UNIT_ASSIGNED_CONTEXT ( ( #226, #124, #201 ) ) REPRESENTATION_CONTEXT ( 'NONE', 'WORKASPACE' ) );
#11 = VERTEX_POINT ( 'NONE', #150 ) ;
#12 = DIRECTION ( 'NONE',  ( 0.0000000000000000000, 0.0000000000000000000, 1.000000000000000000 ) ) ;
#13 = EDGE_CURVE ( 'NONE', #199, #283, #300, .T. ) ;
#14 = ORIENTED_EDGE ( 'NONE', *, *, #43, .F. ) ;
#15 = DIRECTION ( 'NONE',  ( -1.000000000000000000, 0.0000000000000000000, 0.0000000000000000000 ) ) ;
#16 = VECTOR ( 'NONE', #219, 39.37007874015748854 ) ;
#17 = CIRCLE ( 'NONE', #229, 0.1031099999999991745 ) ;
#18 = DIRECTION ( 'NONE',  ( 0.09128382184643858699, 0.0000000000000000000, 0.9958249162724878145 ) ) ;
#19 = DIRECTION ( 'NONE',  ( -1.000000000000000000, 0.0000000000000000000, 0.0000000000000000000 ) ) ;
#20 = CARTESIAN_POINT ( 'NONE',  ( 0.1031099999999991745, 1.354581824536882559E-17, 2.952755999999999936 ) ) ;
#21 = DIRECTION ( 'NONE',  ( 0.0000000000000000000, 0.0000000000000000000, -1.000000000000000000 ) ) ;
#22 = COLOUR_RGB ( '',0.7921568627450980005, 0.8196078431372548767, 0.9333333333333333481 ) ;
#23 = ORIENTED_EDGE ( 'NONE', *, *, #305, .F. ) ;
#24 = AXIS2_PLACEMENT_3D ( 'NONE', #91, #271, #196 ) ;
#25 = DIRECTION ( 'NONE',  ( -0.0000000000000000000, -0.0000000000000000000, -1.000000000000000000 ) ) ;
#26 = EDGE_CURVE ( 'NONE', #38, #321, #45, .T. ) ;
#27 =( NAMED_UNIT ( * ) SI_UNIT ( $, .STERADIAN. ) SOLID_ANGLE_UNIT ( ) );
#28 = FILL_AREA_STYLE_COLOUR ( '', #22 ) ;
#29 = ORIENTED_EDGE ( 'NONE', *, *, #312, .T. ) ;
#30 = DIRECTION ( 'NONE',  ( 0.0000000000000000000, 0.0000000000000000000, 1.000000000000000000 ) ) ;
#31 = ORIENTED_EDGE ( 'NONE', *, *, #225, .T. ) ;
#32 = DIRECTION ( 'NONE',  ( 0.7071067811865486830, 8.659560562354947649E-17, -0.7071067811865462405 ) ) ;
#33 = EDGE_LOOP ( 'NONE', ( #215, #164, #144, #187 ) ) ;
#34 = AXIS2_PLACEMENT_3D ( 'NONE', #63, #221, #141 ) ;
#35 = CARTESIAN_POINT ( 'NONE',  ( -0.1181100000000000344, 0.0000000000000000000, 1.181102000000000318 ) ) ;
#36 = VERTEX_POINT ( 'NONE', #200 ) ;
#37 = DIRECTION ( 'NONE',  ( -1.000000000000000000, 0.0000000000000000000, 0.0000000000000000000 ) ) ;
#38 = VERTEX_POINT ( 'NONE', #253 ) ;
#39 = DIRECTION ( 'NONE',  ( 0.0000000000000000000, 0.0000000000000000000, -1.000000000000000000 ) ) ;
#40 = ORIENTED_EDGE ( 'NONE', *, *, #312, .F. ) ;
#41 = MECHANICAL_DESIGN_GEOMETRIC_PRESENTATION_REPRESENTATION (  '', ( #129 ), #9 ) ;
#42 = VERTEX_POINT ( 'NONE', #20 ) ;
#43 = EDGE_CURVE ( 'NONE', #38, #36, #194, .T. ) ;
#44 = FILL_AREA_STYLE ('',( #174 ) ) ;
#45 = LINE ( 'NONE', #227, #16 ) ;
#46 = DIMENSIONAL_EXPONENTS ( 1.000000000000000000, 0.0000000000000000000, 0.0000000000000000000, 0.0000000000000000000, 0.0000000000000000000, 0.0000000000000000000, 0.0000000000000000000 ) ;
#47 = EDGE_LOOP ( 'NONE', ( #14, #66, #160, #98 ) ) ;
#48 = CARTESIAN_POINT ( 'NONE',  ( 0.0000000000000000000, 0.0000000000000000000, 2.952755999999999936 ) ) ;
#49 = MECHANICAL_DESIGN_GEOMETRIC_PRESENTATION_REPRESENTATION (  '', ( #273 ), #10 ) ;
#50 = ADVANCED_FACE ( 'NONE', ( #142 ), #294, .T. ) ;
#51 = EDGE_CURVE ( 'NONE', #283, #191, #250, .T. ) ;
#52 = CARTESIAN_POINT ( 'NONE',  ( 0.0000000000000000000, 0.0000000000000000000, 0.1368357679160022988 ) ) ;
#53 = CARTESIAN_POINT ( 'NONE',  ( 0.0000000000000000000, 0.0000000000000000000, 2.952755999999999936 ) ) ;
#54 = VERTEX_POINT ( 'NONE', #102 ) ;
#55 = AXIS2_PLACEMENT_3D ( 'NONE', #133, #275, #242 ) ;
#56 = DIRECTION ( 'NONE',  ( 1.000000000000000000, 0.0000000000000000000, 0.0000000000000000000 ) ) ;
#57 = PRODUCT ( 'Micro_SBMM-040-212', 'Micro_SBMM-040-212', '', ( #162 ) ) ;
#58 = ORIENTED_EDGE ( 'NONE', *, *, #295, .F. ) ;
#59 = DIRECTION ( 'NONE',  ( 1.000000000000000000, 0.0000000000000000000, 0.0000000000000000000 ) ) ;
#60 = CARTESIAN_POINT ( 'NONE',  ( 0.0000000000000000000, 0.0000000000000000000, 0.1368357679160022988 ) ) ;
#61 = ORIENTED_EDGE ( 'NONE', *, *, #319, .F. ) ;
#62 = EDGE_CURVE ( 'NONE', #36, #191, #255, .T. ) ;
#63 = CARTESIAN_POINT ( 'NONE',  ( 0.0000000000000000000, 0.0000000000000000000, 2.952755999999999936 ) ) ;
#64 = EDGE_LOOP ( 'NONE', ( #304, #205 ) ) ;
#65 = CARTESIAN_POINT ( 'NONE',  ( 0.05314949999999997454, 6.508936505128222953E-18, 0.1368357679160022988 ) ) ;
#66 = ORIENTED_EDGE ( 'NONE', *, *, #26, .T. ) ;
#67 = DIRECTION ( 'NONE',  ( 0.0000000000000000000, 0.0000000000000000000, 1.000000000000000000 ) ) ;
#68 = ORIENTED_EDGE ( 'NONE', *, *, #323, .F. ) ;
#69 = ORIENTED_EDGE ( 'NONE', *, *, #339, .T. ) ;
#70 = ADVANCED_FACE ( 'NONE', ( #338 ), #139, .T. ) ;
#71 = AXIS2_PLACEMENT_3D ( 'NONE', #297, #334, #161 ) ;
#72 = PRODUCT_DEFINITION_FORMATION_WITH_SPECIFIED_SOURCE ( 'ANY', '', #57, .NOT_KNOWN. ) ;
#73 = DIRECTION ( 'NONE',  ( -1.000000000000000000, 0.0000000000000000000, 0.0000000000000000000 ) ) ;
#74 = CARTESIAN_POINT ( 'NONE',  ( 0.1181100000000000344, 1.446430334472939084E-17, 1.181102000000000318 ) ) ;
#75 = AXIS2_PLACEMENT_3D ( 'NONE', #325, #277, #278 ) ;
#76 = ADVANCED_FACE ( 'NONE', ( #117 ), #119, .T. ) ;
#77 = DIRECTION ( 'NONE',  ( 0.0000000000000000000, 0.0000000000000000000, -1.000000000000000000 ) ) ;
#78 = DIRECTION ( 'NONE',  ( -0.0000000000000000000, -0.0000000000000000000, -1.000000000000000000 ) ) ;
#79 = EDGE_LOOP ( 'NONE', ( #7, #291, #246, #315, #330 ) ) ;
#80 = FACE_OUTER_BOUND ( 'NONE', #33, .T. ) ;
#81 =( LENGTH_UNIT ( ) NAMED_UNIT ( * ) SI_UNIT ( $, .METRE. ) );
#82 = CIRCLE ( 'NONE', #71, 0.1181100000000000344 ) ;
#83 = CARTESIAN_POINT ( 'NONE',  ( 0.0000000000000000000, 0.0000000000000000000, 2.937755999999999368 ) ) ;
#84 = EDGE_LOOP ( 'NONE', ( #189, #126, #69, #58 ) ) ;
#85 = CARTESIAN_POINT ( 'NONE',  ( 0.0000000000000000000, 0.0000000000000000000, 2.952755999999999936 ) ) ;
#86 = VERTEX_POINT ( 'NONE', #92 ) ;
#87 = DIRECTION ( 'NONE',  ( 1.000000000000000000, 0.0000000000000000000, 0.0000000000000000000 ) ) ;
#88 = PRODUCT_DEFINITION_SHAPE ( 'NONE', 'NONE',  #111 ) ;
#89 = DIRECTION ( 'NONE',  ( 0.0000000000000000000, 0.0000000000000000000, 1.000000000000000000 ) ) ;
#90 = ORIENTED_EDGE ( 'NONE', *, *, #305, .T. ) ;
#91 = CARTESIAN_POINT ( 'NONE',  ( 0.0000000000000000000, 0.0000000000000000000, 0.07874000000000000443 ) ) ;
#92 = CARTESIAN_POINT ( 'NONE',  ( -0.1031099999999991745, 0.0000000000000000000, 2.952755999999999936 ) ) ;
#93 = DIRECTION ( 'NONE',  ( -0.0000000000000000000, -0.0000000000000000000, -1.000000000000000000 ) ) ;
#94 = FACE_OUTER_BOUND ( 'NONE', #4, .T. ) ;
#95 = APPLICATION_CONTEXT ( 'automotive_design' ) ;
#96 = DIRECTION ( 'NONE',  ( 1.000000000000000000, 0.0000000000000000000, 0.0000000000000000000 ) ) ;
#97 = AXIS2_PLACEMENT_3D ( 'NONE', #52, #179, #239 ) ;
#98 = ORIENTED_EDGE ( 'NONE', *, *, #62, .F. ) ;
#99 = ADVANCED_FACE ( 'NONE', ( #94 ), #306, .T. ) ;
#100 = ADVANCED_FACE ( 'NONE', ( #213 ), #101, .T. ) ;
#101 = CONICAL_SURFACE ( 'NONE', #157, 0.1031099999999991745, 0.7853981633974500554 ) ;
#102 = CARTESIAN_POINT ( 'NONE',  ( 0.0000000000000000000, 0.05314949999999997454, 0.1368357679160022988 ) ) ;
#103 = SURFACE_SIDE_STYLE ('',( #128 ) ) ;
#104 = LINE ( 'NONE', #132, #220 ) ;
#105 = CIRCLE ( 'NONE', #272, 0.05314949999999998842 ) ;
#106 = CARTESIAN_POINT ( 'NONE',  ( 0.0000000000000000000, 0.0000000000000000000, 0.0000000000000000000 ) ) ;
#107 = FACE_OUTER_BOUND ( 'NONE', #307, .T. ) ;
#108 = EDGE_LOOP ( 'NONE', ( #61, #29, #236, #336 ) ) ;
#109 = UNCERTAINTY_MEASURE_WITH_UNIT (LENGTH_MEASURE( 1.000000000000000082E-05 ), #170, 'distance_accuracy_value', 'NONE');
#110 = CARTESIAN_POINT ( 'NONE',  ( -0.05314949999999996760, 0.0000000000000000000, 0.0000000000000000000 ) ) ;
#111 = PRODUCT_DEFINITION ( 'UNKNOWN', '', #72, #263 ) ;
#112 = AXIS2_PLACEMENT_3D ( 'NONE', #53, #318, #152 ) ;
#113 = DIRECTION ( 'NONE',  ( 1.000000000000000000, 0.0000000000000000000, 0.0000000000000000000 ) ) ;
#114 = DIRECTION ( 'NONE',  ( -1.000000000000000000, 0.0000000000000000000, 0.0000000000000000000 ) ) ;
#115 = EDGE_CURVE ( 'NONE', #86, #199, #104, .T. ) ;
#116 = LENGTH_MEASURE_WITH_UNIT ( LENGTH_MEASURE( 0.02539999999999999897 ), #252 );
#117 = FACE_OUTER_BOUND ( 'NONE', #84, .T. ) ;
#118 = AXIS2_PLACEMENT_3D ( 'NONE', #299, #12, #137 ) ;
#119 = SPHERICAL_SURFACE ( 'NONE', #204, 0.07873999999999999055 ) ;
#120 = CARTESIAN_POINT ( 'NONE',  ( 6.508936505128221412E-18, -0.05314949999999997454, 0.1368357679160022988 ) ) ;
#121 = CARTESIAN_POINT ( 'NONE',  ( 0.0000000000000000000, 0.0000000000000000000, 2.952755999999999936 ) ) ;
#122 = CARTESIAN_POINT ( 'NONE',  ( 0.0000000000000000000, 0.0000000000000000000, 0.0000000000000000000 ) ) ;
#123 = VECTOR ( 'NONE', #32, 39.37007874015748854 ) ;
#124 =( NAMED_UNIT ( * ) PLANE_ANGLE_UNIT ( ) SI_UNIT ( $, .RADIAN. ) );
#125 = EDGE_CURVE ( 'NONE', #54, #244, #147, .T. ) ;
#126 = ORIENTED_EDGE ( 'NONE', *, *, #342, .T. ) ;
#127 = CARTESIAN_POINT ( 'NONE',  ( 0.0000000000000000000, 0.0000000000000000000, 2.952755999999999936 ) ) ;
#128 = SURFACE_STYLE_FILL_AREA ( #345 ) ;
#129 = STYLED_ITEM ( 'NONE', ( #209 ), #238 ) ;
#130 = ORIENTED_EDGE ( 'NONE', *, *, #310, .F. ) ;
#131 = CYLINDRICAL_SURFACE ( 'NONE', #166, 0.1181100000000000344 ) ;
#132 = CARTESIAN_POINT ( 'NONE',  ( -0.1031099999999991745, 0.0000000000000000000, 2.952755999999999936 ) ) ;
#133 = CARTESIAN_POINT ( 'NONE',  ( 0.0000000000000000000, 0.0000000000000000000, 1.309949454545451752 ) ) ;
#134 = ORIENTED_EDGE ( 'NONE', *, *, #270, .T. ) ;
#135 = AXIS2_PLACEMENT_3D ( 'NONE', #234, #56, #177 ) ;
#136 = AXIS2_PLACEMENT_3D ( 'NONE', #60, #163, #37 ) ;
#137 = DIRECTION ( 'NONE',  ( 1.000000000000000000, 0.0000000000000000000, 0.0000000000000000000 ) ) ;
#138 = CARTESIAN_POINT ( 'NONE',  ( 0.0000000000000000000, 0.0000000000000000000, 0.1368357679160022988 ) ) ;
#139 = CYLINDRICAL_SURFACE ( 'NONE', #313, 0.05314949999999996760 ) ;
#140 = SHAPE_DEFINITION_REPRESENTATION ( #88, #185 ) ;
#141 = DIRECTION ( 'NONE',  ( 1.000000000000000000, 0.0000000000000000000, -0.0000000000000000000 ) ) ;
#142 = FACE_OUTER_BOUND ( 'NONE', #108, .T. ) ;
#143 = VECTOR ( 'NONE', #78, 39.37007874015748143 ) ;
#144 = ORIENTED_EDGE ( 'NONE', *, *, #155, .T. ) ;
#145 = DIRECTION ( 'NONE',  ( -1.000000000000000000, 0.0000000000000000000, 0.0000000000000000000 ) ) ;
#146 = AXIS2_PLACEMENT_3D ( 'NONE', #222, #21, #281 ) ;
#147 = CIRCLE ( 'NONE', #97, 0.05314949999999998842 ) ;
#148 = AXIS2_PLACEMENT_3D ( 'NONE', #223, #67, #87 ) ;
#149 = EDGE_CURVE ( 'NONE', #38, #11, #259, .T. ) ;
#150 = CARTESIAN_POINT ( 'NONE',  ( -0.05314949999999997454, 0.0000000000000000000, 0.1368357679160022988 ) ) ;
#151 = ADVANCED_FACE ( 'NONE', ( #264 ), #260, .T. ) ;
#152 = DIRECTION ( 'NONE',  ( -1.000000000000000000, 0.0000000000000000000, 0.0000000000000000000 ) ) ;
#153 = VECTOR ( 'NONE', #293, 39.37007874015748143 ) ;
#154 = DIMENSIONAL_EXPONENTS ( 1.000000000000000000, 0.0000000000000000000, 0.0000000000000000000, 0.0000000000000000000, 0.0000000000000000000, 0.0000000000000000000, 0.0000000000000000000 ) ;
#155 = EDGE_CURVE ( 'NONE', #191, #321, #343, .T. ) ;
#156 = DIRECTION ( 'NONE',  ( -1.000000000000000000, 0.0000000000000000000, 0.0000000000000000000 ) ) ;
#157 = AXIS2_PLACEMENT_3D ( 'NONE', #48, #77, #73 ) ;
#158 = ORIENTED_EDGE ( 'NONE', *, *, #284, .F. ) ;
#159 = LENGTH_MEASURE_WITH_UNIT ( LENGTH_MEASURE( 0.02539999999999999897 ), #316 );
#160 = ORIENTED_EDGE ( 'NONE', *, *, #155, .F. ) ;
#161 = DIRECTION ( 'NONE',  ( 1.000000000000000000, 0.0000000000000000000, 0.0000000000000000000 ) ) ;
#162 = PRODUCT_CONTEXT ( 'NONE', #331, 'mechanical' ) ;
#163 = DIRECTION ( 'NONE',  ( -0.0000000000000000000, -0.0000000000000000000, -1.000000000000000000 ) ) ;
#164 = ORIENTED_EDGE ( 'NONE', *, *, #51, .T. ) ;
#165 = APPLICATION_PROTOCOL_DEFINITION ( 'draft international standard', 'automotive_design', 1998, #95 ) ;
#166 = AXIS2_PLACEMENT_3D ( 'NONE', #127, #261, #156 ) ;
#167 = COLOUR_RGB ( '',0.7921568627450980005, 0.8196078431372548767, 0.9333333333333333481 ) ;
#168 = LINE ( 'NONE', #188, #123 ) ;
#169 = CARTESIAN_POINT ( 'NONE',  ( 0.1181100000000000344, 1.446430334472939084E-17, 2.952755999999999936 ) ) ;
#170 =( CONVERSION_BASED_UNIT ( 'INCH', #116 ) LENGTH_UNIT ( ) NAMED_UNIT ( #203 ) );
#171 = DIRECTION ( 'NONE',  ( 0.0000000000000000000, 0.0000000000000000000, -1.000000000000000000 ) ) ;
#172 = ORIENTED_EDGE ( 'NONE', *, *, #62, .T. ) ;
#173 = AXIS2_PLACEMENT_3D ( 'NONE', #8, #298, #19 ) ;
#174 = FILL_AREA_STYLE_COLOUR ( '', #167 ) ;
#175 = ORIENTED_EDGE ( 'NONE', *, *, #339, .F. ) ;
#176 = ORIENTED_EDGE ( 'NONE', *, *, #26, .F. ) ;
#177 = DIRECTION ( 'NONE',  ( 0.0000000000000000000, 1.000000000000000000, 0.0000000000000000000 ) ) ;
#178 = SURFACE_SIDE_STYLE ('',( #254 ) ) ;
#179 = DIRECTION ( 'NONE',  ( -0.0000000000000000000, -0.0000000000000000000, -1.000000000000000000 ) ) ;
#180 = CIRCLE ( 'NONE', #230, 0.1181100000000000344 ) ;
#181 = PRESENTATION_LAYER_ASSIGNMENT (  '', '', ( #273 ) ) ;
#182 = LINE ( 'NONE', #267, #153 ) ;
#183 = CARTESIAN_POINT ( 'NONE',  ( -0.1181100000000000344, 0.0000000000000000000, 2.952755999999999936 ) ) ;
#184 = ORIENTED_EDGE ( 'NONE', *, *, #295, .T. ) ;
#185 = ADVANCED_BREP_SHAPE_REPRESENTATION ( 'Micro_SBMM-040-212', ( #238, #148 ), #235 ) ;
#186 = AXIS2_PLACEMENT_3D ( 'NONE', #106, #25, #237 ) ;
#187 = ORIENTED_EDGE ( 'NONE', *, *, #208, .F. ) ;
#188 = CARTESIAN_POINT ( 'NONE',  ( 0.1031099999999991745, 1.262733314600825725E-17, 2.952755999999999936 ) ) ;
#189 = ORIENTED_EDGE ( 'NONE', *, *, #125, .T. ) ;
#190 = DIRECTION ( 'NONE',  ( -1.000000000000000000, 0.0000000000000000000, 0.0000000000000000000 ) ) ;
#191 = VERTEX_POINT ( 'NONE', #74 ) ;
#192 = CARTESIAN_POINT ( 'NONE',  ( 0.1181100000000000344, 1.446430334472939084E-17, 2.937755999999999368 ) ) ;
#193 = ORIENTED_EDGE ( 'NONE', *, *, #270, .F. ) ;
#194 = CIRCLE ( 'NONE', #233, 0.05314949999999995373 ) ;
#195 = AXIS2_PLACEMENT_3D ( 'NONE', #85, #89, #113 ) ;
#196 = DIRECTION ( 'NONE',  ( -1.224646799147352961E-16, 1.000000000000000000, 0.0000000000000000000 ) ) ;
#197 = DIRECTION ( 'NONE',  ( 0.0000000000000000000, 1.000000000000000000, 0.0000000000000000000 ) ) ;
#198 =( NAMED_UNIT ( * ) PLANE_ANGLE_UNIT ( ) SI_UNIT ( $, .RADIAN. ) );
#199 = VERTEX_POINT ( 'NONE', #1 ) ;
#200 = CARTESIAN_POINT ( 'NONE',  ( 0.05314949999999995373, 0.0000000000000000000, 0.4724409999999999998 ) ) ;
#201 =( NAMED_UNIT ( * ) SI_UNIT ( $, .STERADIAN. ) SOLID_ANGLE_UNIT ( ) );
#202 = CARTESIAN_POINT ( 'NONE',  ( 0.0000000000000000000, 0.0000000000000000000, 0.4724409999999999998 ) ) ;
#203 = DIMENSIONAL_EXPONENTS ( 1.000000000000000000, 0.0000000000000000000, 0.0000000000000000000, 0.0000000000000000000, 0.0000000000000000000, 0.0000000000000000000, 0.0000000000000000000 ) ;
#204 = AXIS2_PLACEMENT_3D ( 'NONE', #337, #96, #197 ) ;
#205 = ORIENTED_EDGE ( 'NONE', *, *, #319, .T. ) ;
#206 = SURFACE_STYLE_USAGE ( .BOTH. , #103 ) ;
#207 = CYLINDRICAL_SURFACE ( 'NONE', #186, 0.05314949999999996760 ) ;
#208 = EDGE_CURVE ( 'NONE', #199, #321, #320, .T. ) ;
#209 = PRESENTATION_STYLE_ASSIGNMENT (( #206 ) ) ;
#210 = ADVANCED_FACE ( 'NONE', ( #80 ), #131, .T. ) ;
#211 = ORIENTED_EDGE ( 'NONE', *, *, #208, .T. ) ;
#212 = ADVANCED_FACE ( 'NONE', ( #107 ), #207, .T. ) ;
#213 = FACE_OUTER_BOUND ( 'NONE', #262, .T. ) ;
#214 = DIRECTION ( 'NONE',  ( 0.0000000000000000000, 0.0000000000000000000, 1.000000000000000000 ) ) ;
#215 = ORIENTED_EDGE ( 'NONE', *, *, #13, .T. ) ;
#216 = FACE_OUTER_BOUND ( 'NONE', #64, .T. ) ;
#217 = ORIENTED_EDGE ( 'NONE', *, *, #43, .T. ) ;
#218 = CARTESIAN_POINT ( 'NONE',  ( 0.0000000000000000000, 0.0000000000000000000, 0.1368357679160022988 ) ) ;
#219 = DIRECTION ( 'NONE',  ( -0.09128382184643858699, 1.117904402381782355E-17, 0.9958249162724878145 ) ) ;
#220 = VECTOR ( 'NONE', #6, 39.37007874015748854 ) ;
#221 = DIRECTION ( 'NONE',  ( 0.0000000000000000000, 0.0000000000000000000, 1.000000000000000000 ) ) ;
#222 = CARTESIAN_POINT ( 'NONE',  ( 0.0000000000000000000, 0.0000000000000000000, 2.937755999999999368 ) ) ;
#223 = CARTESIAN_POINT ( 'NONE',  ( 0.0000000000000000000, 0.0000000000000000000, 0.0000000000000000000 ) ) ;
#224 =( NAMED_UNIT ( * ) SI_UNIT ( $, .STERADIAN. ) SOLID_ANGLE_UNIT ( ) );
#225 = EDGE_CURVE ( 'NONE', #36, #244, #182, .T. ) ;
#226 =( CONVERSION_BASED_UNIT ( 'INCH', #311 ) LENGTH_UNIT ( ) NAMED_UNIT ( #46 ) );
#227 = CARTESIAN_POINT ( 'NONE',  ( -0.1299209999999997867, 1.591073367920230035E-17, 1.309949454545451752 ) ) ;
#228 = DIRECTION ( 'NONE',  ( -1.000000000000000000, 0.0000000000000000000, 0.0000000000000000000 ) ) ;
#229 = AXIS2_PLACEMENT_3D ( 'NONE', #249, #214, #328 ) ;
#230 = AXIS2_PLACEMENT_3D ( 'NONE', #83, #39, #59 ) ;
#231 = DIRECTION ( 'NONE',  ( -0.0000000000000000000, -0.0000000000000000000, -1.000000000000000000 ) ) ;
#232 = PLANE ( 'NONE',  #34 ) ;
#233 = AXIS2_PLACEMENT_3D ( 'NONE', #202, #257, #228 ) ;
#234 = CARTESIAN_POINT ( 'NONE',  ( 0.0000000000000000000, 0.0000000000000000000, 0.07874000000000000443 ) ) ;
#235 =( GEOMETRIC_REPRESENTATION_CONTEXT ( 3 ) GLOBAL_UNCERTAINTY_ASSIGNED_CONTEXT ( ( #109 ) ) GLOBAL_UNIT_ASSIGNED_CONTEXT ( ( #170, #198, #224 ) ) REPRESENTATION_CONTEXT ( 'NONE', 'WORKASPACE' ) );
#236 = ORIENTED_EDGE ( 'NONE', *, *, #13, .F. ) ;
#237 = DIRECTION ( 'NONE',  ( -1.000000000000000000, 0.0000000000000000000, 0.0000000000000000000 ) ) ;
#238 = MANIFOLD_SOLID_BREP ( 'Cut-Revolve3', #292 ) ;
#239 = DIRECTION ( 'NONE',  ( -1.000000000000000000, 0.0000000000000000000, 0.0000000000000000000 ) ) ;
#240 = VERTEX_POINT ( 'NONE', #120 ) ;
#241 = APPLICATION_PROTOCOL_DEFINITION ( 'draft international standard', 'automotive_design', 1998, #331 ) ;
#242 = DIRECTION ( 'NONE',  ( 1.000000000000000000, 0.0000000000000000000, 0.0000000000000000000 ) ) ;
#243 = CIRCLE ( 'NONE', #75, 0.07873999999999996280 ) ;
#244 = VERTEX_POINT ( 'NONE', #65 ) ;
#245 = DIRECTION ( 'NONE',  ( -0.0000000000000000000, -0.0000000000000000000, -1.000000000000000000 ) ) ;
#246 = ORIENTED_EDGE ( 'NONE', *, *, #149, .T. ) ;
#247 = CARTESIAN_POINT ( 'NONE',  ( 0.0000000000000000000, 4.821434448243128484E-18, 1.707404996040164512E-17 ) ) ;
#248 = DIRECTION ( 'NONE',  ( -0.0000000000000000000, -0.0000000000000000000, -1.000000000000000000 ) ) ;
#249 = CARTESIAN_POINT ( 'NONE',  ( 0.0000000000000000000, 0.0000000000000000000, 2.952755999999999936 ) ) ;
#250 = LINE ( 'NONE', #169, #285 ) ;
#251 = VECTOR ( 'NONE', #18, 39.37007874015748854 ) ;
#252 =( LENGTH_UNIT ( ) NAMED_UNIT ( * ) SI_UNIT ( $, .METRE. ) );
#253 = CARTESIAN_POINT ( 'NONE',  ( -0.05314949999999995373, 1.048661992492880574E-17, 0.4724409999999999998 ) ) ;
#254 = SURFACE_STYLE_FILL_AREA ( #44 ) ;
#255 = LINE ( 'NONE', #276, #251 ) ;
#256 = AXIS2_PLACEMENT_3D ( 'NONE', #121, #171, #145 ) ;
#257 = DIRECTION ( 'NONE',  ( -0.0000000000000000000, -0.0000000000000000000, -1.000000000000000000 ) ) ;
#258 = CIRCLE ( 'NONE', #136, 0.05314949999999998842 ) ;
#259 = LINE ( 'NONE', #110, #143 ) ;
#260 = SPHERICAL_SURFACE ( 'NONE', #135, 0.07873999999999999055 ) ;
#261 = DIRECTION ( 'NONE',  ( -0.0000000000000000000, -0.0000000000000000000, -1.000000000000000000 ) ) ;
#262 = EDGE_LOOP ( 'NONE', ( #40, #158, #268, #193 ) ) ;
#263 = PRODUCT_DEFINITION_CONTEXT ( 'detailed design', #95, 'design' ) ;
#264 = FACE_OUTER_BOUND ( 'NONE', #333, .T. ) ;
#265 = CIRCLE ( 'NONE', #173, 0.05314949999999995373 ) ;
#266 = ADVANCED_FACE ( 'NONE', ( #216 ), #232, .T. ) ;
#267 = CARTESIAN_POINT ( 'NONE',  ( 0.05314949999999996760, 6.508936505128221412E-18, 0.0000000000000000000 ) ) ;
#268 = ORIENTED_EDGE ( 'NONE', *, *, #115, .T. ) ;
#269 = FACE_OUTER_BOUND ( 'NONE', #47, .T. ) ;
#270 = EDGE_CURVE ( 'NONE', #283, #199, #180, .T. ) ;
#271 = DIRECTION ( 'NONE',  ( 1.000000000000000000, 1.224646799147353207E-16, -0.0000000000000000000 ) ) ;
#272 = AXIS2_PLACEMENT_3D ( 'NONE', #218, #245, #190 ) ;
#273 = STYLED_ITEM ( 'NONE', ( #282 ), #185 ) ;
#274 = EDGE_LOOP ( 'NONE', ( #176, #68, #172, #130 ) ) ;
#275 = DIRECTION ( 'NONE',  ( 0.0000000000000000000, 0.0000000000000000000, 1.000000000000000000 ) ) ;
#276 = CARTESIAN_POINT ( 'NONE',  ( 0.1299209999999997867, 0.0000000000000000000, 1.309949454545451752 ) ) ;
#277 = DIRECTION ( 'NONE',  ( -1.000000000000000000, 0.0000000000000000000, 0.0000000000000000000 ) ) ;
#278 = DIRECTION ( 'NONE',  ( 0.0000000000000000000, 0.0000000000000000000, 1.000000000000000000 ) ) ;
#279 = ORIENTED_EDGE ( 'NONE', *, *, #125, .F. ) ;
#280 = CONICAL_SURFACE ( 'NONE', #55, 0.1299209999999997867, 0.09141107358620993717 ) ;
#281 = DIRECTION ( 'NONE',  ( 1.000000000000000000, 0.0000000000000000000, 0.0000000000000000000 ) ) ;
#282 = PRESENTATION_STYLE_ASSIGNMENT (( #301 ) ) ;
#283 = VERTEX_POINT ( 'NONE', #192 ) ;
#284 = EDGE_CURVE ( 'NONE', #86, #42, #17, .T. ) ;
#285 = VECTOR ( 'NONE', #231, 39.37007874015748143 ) ;
#286 = DIRECTION ( 'NONE',  ( 1.000000000000000000, 0.0000000000000000000, 0.0000000000000000000 ) ) ;
#287 = CIRCLE ( 'NONE', #195, 0.1031099999999991745 ) ;
#288 =( NAMED_UNIT ( * ) PLANE_ANGLE_UNIT ( ) SI_UNIT ( $, .RADIAN. ) );
#289 =( CONVERSION_BASED_UNIT ( 'INCH', #159 ) LENGTH_UNIT ( ) NAMED_UNIT ( #154 ) );
#290 = DIRECTION ( 'NONE',  ( -0.0000000000000000000, -0.0000000000000000000, -1.000000000000000000 ) ) ;
#291 = ORIENTED_EDGE ( 'NONE', *, *, #323, .T. ) ;
#292 = CLOSED_SHELL ( 'NONE', ( #212, #76, #322, #50, #210, #99, #266, #100, #314, #151, #70 ) ) ;
#293 = DIRECTION ( 'NONE',  ( -0.0000000000000000000, -0.0000000000000000000, -1.000000000000000000 ) ) ;
#294 = CONICAL_SURFACE ( 'NONE', #256, 0.1031099999999991745, 0.7853981633974500554 ) ;
#295 = EDGE_CURVE ( 'NONE', #54, #344, #243, .T. ) ;
#296 = ORIENTED_EDGE ( 'NONE', *, *, #149, .F. ) ;
#297 = CARTESIAN_POINT ( 'NONE',  ( 0.0000000000000000000, 0.0000000000000000000, 1.181102000000000318 ) ) ;
#298 = DIRECTION ( 'NONE',  ( -0.0000000000000000000, -0.0000000000000000000, -1.000000000000000000 ) ) ;
#299 = CARTESIAN_POINT ( 'NONE',  ( 0.0000000000000000000, 0.0000000000000000000, 1.309949454545451752 ) ) ;
#300 = CIRCLE ( 'NONE', #146, 0.1181100000000000344 ) ;
#301 = SURFACE_STYLE_USAGE ( .BOTH. , #178 ) ;
#302 = CONICAL_SURFACE ( 'NONE', #118, 0.1299209999999997867, 0.09141107358620993717 ) ;
#303 = PRODUCT_RELATED_PRODUCT_CATEGORY ( 'part', '', ( #57 ) ) ;
#304 = ORIENTED_EDGE ( 'NONE', *, *, #284, .T. ) ;
#305 = EDGE_CURVE ( 'NONE', #11, #54, #105, .T. ) ;
#306 = CYLINDRICAL_SURFACE ( 'NONE', #112, 0.1181100000000000344 ) ;
#307 = EDGE_LOOP ( 'NONE', ( #217, #31, #279, #23, #296 ) ) ;
#308 = CIRCLE ( 'NONE', #317, 0.05314949999999998842 ) ;
#309 = ORIENTED_EDGE ( 'NONE', *, *, #51, .F. ) ;
#310 = EDGE_CURVE ( 'NONE', #321, #191, #82, .T. ) ;
#311 = LENGTH_MEASURE_WITH_UNIT ( LENGTH_MEASURE( 0.02539999999999999897 ), #81 );
#312 = EDGE_CURVE ( 'NONE', #42, #283, #168, .T. ) ;
#313 = AXIS2_PLACEMENT_3D ( 'NONE', #122, #248, #15 ) ;
#314 = ADVANCED_FACE ( 'NONE', ( #332 ), #302, .T. ) ;
#315 = ORIENTED_EDGE ( 'NONE', *, *, #329, .F. ) ;
#316 =( LENGTH_UNIT ( ) NAMED_UNIT ( * ) SI_UNIT ( $, .METRE. ) );
#317 = AXIS2_PLACEMENT_3D ( 'NONE', #138, #93, #114 ) ;
#318 = DIRECTION ( 'NONE',  ( -0.0000000000000000000, -0.0000000000000000000, -1.000000000000000000 ) ) ;
#319 = EDGE_CURVE ( 'NONE', #42, #86, #287, .T. ) ;
#320 = LINE ( 'NONE', #183, #335 ) ;
#321 = VERTEX_POINT ( 'NONE', #35 ) ;
#322 = ADVANCED_FACE ( 'NONE', ( #269 ), #280, .T. ) ;
#323 = EDGE_CURVE ( 'NONE', #36, #38, #265, .T. ) ;
#324 = UNCERTAINTY_MEASURE_WITH_UNIT (LENGTH_MEASURE( 1.000000000000000082E-05 ), #226, 'distance_accuracy_value', 'NONE');
#325 = CARTESIAN_POINT ( 'NONE',  ( 0.0000000000000000000, 0.0000000000000000000, 0.07874000000000000443 ) ) ;
#326 = AXIS2_PLACEMENT_3D ( 'NONE', #3, #30, #286 ) ;
#327 = ORIENTED_EDGE ( 'NONE', *, *, #329, .T. ) ;
#328 = DIRECTION ( 'NONE',  ( 1.000000000000000000, 0.0000000000000000000, 0.0000000000000000000 ) ) ;
#329 = EDGE_CURVE ( 'NONE', #240, #11, #258, .T. ) ;
#330 = ORIENTED_EDGE ( 'NONE', *, *, #342, .F. ) ;
#331 = APPLICATION_CONTEXT ( 'automotive_design' ) ;
#332 = FACE_OUTER_BOUND ( 'NONE', #274, .T. ) ;
#333 = EDGE_LOOP ( 'NONE', ( #175, #327, #90, #184 ) ) ;
#334 = DIRECTION ( 'NONE',  ( 0.0000000000000000000, 0.0000000000000000000, 1.000000000000000000 ) ) ;
#335 = VECTOR ( 'NONE', #290, 39.37007874015748143 ) ;
#336 = ORIENTED_EDGE ( 'NONE', *, *, #115, .F. ) ;
#337 = CARTESIAN_POINT ( 'NONE',  ( 0.0000000000000000000, 0.0000000000000000000, 0.07874000000000000443 ) ) ;
#338 = FACE_OUTER_BOUND ( 'NONE', #79, .T. ) ;
#339 = EDGE_CURVE ( 'NONE', #240, #344, #341, .T. ) ;
#340 = ORIENTED_EDGE ( 'NONE', *, *, #310, .T. ) ;
#341 = CIRCLE ( 'NONE', #24, 0.07873999999999999055 ) ;
#342 = EDGE_CURVE ( 'NONE', #244, #240, #308, .T. ) ;
#343 = CIRCLE ( 'NONE', #326, 0.1181100000000000344 ) ;
#344 = VERTEX_POINT ( 'NONE', #247 ) ;
#345 = FILL_AREA_STYLE ('',( #28 ) ) ;
ENDSEC;
END-ISO-10303-21;
