ISO-10303-21;
HEADER;
FILE_DESCRIPTION (( 'STEP AP214' ),
    '1' );
FILE_NAME ('Micro_SME-027-2.STEP',
    '2021-09-02T11:20:13',
    ( '' ),
    ( '' ),
    'SwSTEP 2.0',
    'SolidWorks 2020',
    '' );
FILE_SCHEMA (( 'AUTOMOTIVE_DESIGN' ));
ENDSEC;

DATA;
#1 = EDGE_CURVE ( 'NONE', #135, #240, #146, .T. ) ;
#2 = PRESENTATION_LAYER_ASSIGNMENT (  '', '', ( #261 ) ) ;
#3 = FACE_OUTER_BOUND ( 'NONE', #81, .T. ) ;
#4 = EDGE_LOOP ( 'NONE', ( #68, #53, #263, #149 ) ) ;
#5 = DIRECTION ( 'NONE',  ( -1.224646799147353700E-16, -0.0000000000000000000, -1.000000000000000000 ) ) ;
#6 = EDGE_CURVE ( 'NONE', #180, #240, #153, .T. ) ;
#7 = SURFACE_SIDE_STYLE ('',( #118 ) ) ;
#8 = ORIENTED_EDGE ( 'NONE', *, *, #49, .T. ) ;
#9 = CLOSED_SHELL ( 'NONE', ( #259, #188, #201, #96, #58, #143, #41, #105, #69, #191 ) ) ;
#10 = CIRCLE ( 'NONE', #196, 0.04750000000000064587 ) ;
#11 =( NAMED_UNIT ( * ) PLANE_ANGLE_UNIT ( ) SI_UNIT ( $, .RADIAN. ) );
#12 = ORIENTED_EDGE ( 'NONE', *, *, #209, .T. ) ;
#13 = EDGE_LOOP ( 'NONE', ( #186, #173 ) ) ;
#14 = EDGE_CURVE ( 'NONE', #130, #244, #223, .T. ) ;
#15 = AXIS2_PLACEMENT_3D ( 'NONE', #74, #203, #293 ) ;
#16 =( NAMED_UNIT ( * ) PLANE_ANGLE_UNIT ( ) SI_UNIT ( $, .RADIAN. ) );
#17 = DIRECTION ( 'NONE',  ( 0.0000000000000000000, 0.0000000000000000000, -1.000000000000000000 ) ) ;
#18 = CARTESIAN_POINT ( 'NONE',  ( -0.01348649999999999502, 1.651619905670077742E-18, 0.04000000000000000083 ) ) ;
#19 = ORIENTED_EDGE ( 'NONE', *, *, #75, .F. ) ;
#20 =( CONVERSION_BASED_UNIT ( 'INCH', #231 ) LENGTH_UNIT ( ) NAMED_UNIT ( #80 ) );
#21 = EDGE_CURVE ( 'NONE', #241, #227, #255, .T. ) ;
#22 = ORIENTED_EDGE ( 'NONE', *, *, #123, .F. ) ;
#23 = CIRCLE ( 'NONE', #131, 0.06250000000000002776 ) ;
#24 = DIRECTION ( 'NONE',  ( -1.000000000000000000, 0.0000000000000000000, 0.0000000000000000000 ) ) ;
#25 = CARTESIAN_POINT ( 'NONE',  ( 4.898587196589415078E-18, 0.0000000000000000000, 0.04000000000000000083 ) ) ;
#26 = DIRECTION ( 'NONE',  ( -1.224646799147353700E-16, -0.0000000000000000000, -1.000000000000000000 ) ) ;
#27 = DIRECTION ( 'NONE',  ( 1.000000000000000000, 0.0000000000000000000, 0.0000000000000000000 ) ) ;
#28 =( GEOMETRIC_REPRESENTATION_CONTEXT ( 3 ) GLOBAL_UNCERTAINTY_ASSIGNED_CONTEXT ( ( #222 ) ) GLOBAL_UNIT_ASSIGNED_CONTEXT ( ( #20, #16, #42 ) ) REPRESENTATION_CONTEXT ( 'NONE', 'WORKASPACE' ) );
#29 = UNCERTAINTY_MEASURE_WITH_UNIT (LENGTH_MEASURE( 1.000000000000000082E-05 ), #284, 'distance_accuracy_value', 'NONE');
#30 = CARTESIAN_POINT ( 'NONE',  ( 0.0000000000000000000, 0.0000000000000000000, 0.0000000000000000000 ) ) ;
#31 = AXIS2_PLACEMENT_3D ( 'NONE', #198, #133, #126 ) ;
#32 = ORIENTED_EDGE ( 'NONE', *, *, #6, .T. ) ;
#33 = ORIENTED_EDGE ( 'NONE', *, *, #65, .T. ) ;
#34 = AXIS2_PLACEMENT_3D ( 'NONE', #225, #17, #151 ) ;
#35 = ORIENTED_EDGE ( 'NONE', *, *, #115, .T. ) ;
#36 = CARTESIAN_POINT ( 'NONE',  ( 2.022651030886916308E-34, 0.0000000000000000000, 1.651619905670079090E-18 ) ) ;
#37 = FACE_OUTER_BOUND ( 'NONE', #194, .T. ) ;
#38 = EDGE_LOOP ( 'NONE', ( #175, #252, #95, #285 ) ) ;
#39 = FACE_OUTER_BOUND ( 'NONE', #13, .T. ) ;
#40 = CARTESIAN_POINT ( 'NONE',  ( 0.06250000000000002776, 7.654042494670959086E-18, 1.500000000000000222 ) ) ;
#41 = ADVANCED_FACE ( 'NONE', ( #269 ), #52, .T. ) ;
#42 =( NAMED_UNIT ( * ) SI_UNIT ( $, .STERADIAN. ) SOLID_ANGLE_UNIT ( ) );
#43 = LINE ( 'NONE', #40, #250 ) ;
#44 = DIRECTION ( 'NONE',  ( 1.000000000000000000, 0.0000000000000000000, 0.0000000000000000000 ) ) ;
#45 = CARTESIAN_POINT ( 'NONE',  ( 4.898587196589415078E-18, 0.0000000000000000000, 0.04000000000000000083 ) ) ;
#46 = CARTESIAN_POINT ( 'NONE',  ( 0.01348650000000000369, 0.0000000000000000000, 0.04000000000000000083 ) ) ;
#47 = CARTESIAN_POINT ( 'NONE',  ( 4.898587196589415078E-18, 0.0000000000000000000, 0.04000000000000000083 ) ) ;
#48 = PRESENTATION_LAYER_ASSIGNMENT (  '', '', ( #218 ) ) ;
#49 = EDGE_CURVE ( 'NONE', #240, #244, #43, .T. ) ;
#50 = ORIENTED_EDGE ( 'NONE', *, *, #1, .F. ) ;
#51 = EDGE_LOOP ( 'NONE', ( #127, #220, #33, #197 ) ) ;
#52 = CONICAL_SURFACE ( 'NONE', #161, 0.04750000000000064587, 0.7853981633974466137 ) ;
#53 = ORIENTED_EDGE ( 'NONE', *, *, #145, .F. ) ;
#54 = DIMENSIONAL_EXPONENTS ( 1.000000000000000000, 0.0000000000000000000, 0.0000000000000000000, 0.0000000000000000000, 0.0000000000000000000, 0.0000000000000000000, 0.0000000000000000000 ) ;
#55 = DIRECTION ( 'NONE',  ( 1.000000000000000000, 0.0000000000000000000, 0.0000000000000000000 ) ) ;
#56 = ORIENTED_EDGE ( 'NONE', *, *, #65, .F. ) ;
#57 = DIRECTION ( 'NONE',  ( -1.224646799147353700E-16, -0.0000000000000000000, -1.000000000000000000 ) ) ;
#58 = ADVANCED_FACE ( 'NONE', ( #134 ), #205, .T. ) ;
#59 = AXIS2_PLACEMENT_3D ( 'NONE', #45, #163, #279 ) ;
#60 = LINE ( 'NONE', #179, #172 ) ;
#61 = ORIENTED_EDGE ( 'NONE', *, *, #75, .T. ) ;
#62 = CYLINDRICAL_SURFACE ( 'NONE', #264, 0.06250000000000002776 ) ;
#63 = DIRECTION ( 'NONE',  ( 0.0000000000000000000, 0.0000000000000000000, 1.000000000000000000 ) ) ;
#64 = CIRCLE ( 'NONE', #94, 0.04750000000000064587 ) ;
#65 = EDGE_CURVE ( 'NONE', #266, #227, #256, .T. ) ;
#66 = CARTESIAN_POINT ( 'NONE',  ( 0.0000000000000000000, 0.0000000000000000000, 1.485000000000000764 ) ) ;
#67 = CARTESIAN_POINT ( 'NONE',  ( -0.04750000000000064587, 0.0000000000000000000, 1.500000000000000222 ) ) ;
#68 = ORIENTED_EDGE ( 'NONE', *, *, #6, .F. ) ;
#69 = ADVANCED_FACE ( 'NONE', ( #296 ), #160, .T. ) ;
#70 = VECTOR ( 'NONE', #141, 39.37007874015748854 ) ;
#71 = AXIS2_PLACEMENT_3D ( 'NONE', #25, #93, #236 ) ;
#72 = EDGE_CURVE ( 'NONE', #240, #135, #142, .T. ) ;
#73 = ORIENTED_EDGE ( 'NONE', *, *, #14, .F. ) ;
#74 = CARTESIAN_POINT ( 'NONE',  ( 0.0000000000000000000, 0.0000000000000000000, 1.500000000000000222 ) ) ;
#75 = EDGE_CURVE ( 'NONE', #103, #244, #23, .T. ) ;
#76 = ORIENTED_EDGE ( 'NONE', *, *, #145, .T. ) ;
#77 = DIRECTION ( 'NONE',  ( -1.224646799147353700E-16, -0.0000000000000000000, -1.000000000000000000 ) ) ;
#78 = EDGE_LOOP ( 'NONE', ( #280, #12, #61, #73 ) ) ;
#79 = LENGTH_MEASURE_WITH_UNIT ( LENGTH_MEASURE( 0.02539999999999999897 ), #290 );
#80 = DIMENSIONAL_EXPONENTS ( 1.000000000000000000, 0.0000000000000000000, 0.0000000000000000000, 0.0000000000000000000, 0.0000000000000000000, 0.0000000000000000000, 0.0000000000000000000 ) ;
#81 = EDGE_LOOP ( 'NONE', ( #273, #8, #19, #288 ) ) ;
#82 = DIRECTION ( 'NONE',  ( 0.0000000000000000000, 0.0000000000000000000, -1.000000000000000000 ) ) ;
#83 = CARTESIAN_POINT ( 'NONE',  ( 0.01348650000000000369, 0.0000000000000000000, 0.04000000000000000083 ) ) ;
#84 = VECTOR ( 'NONE', #291, 39.37007874015748143 ) ;
#85 = SURFACE_STYLE_FILL_AREA ( #268 ) ;
#86 = DIRECTION ( 'NONE',  ( 0.0000000000000000000, 0.0000000000000000000, -1.000000000000000000 ) ) ;
#87 = PLANE ( 'NONE',  #248 ) ;
#88 = ADVANCED_BREP_SHAPE_REPRESENTATION ( 'Micro_SME-027-2', ( #262, #270 ), #294 ) ;
#89 = DIRECTION ( 'NONE',  ( -1.224646799147353700E-16, -0.0000000000000000000, -1.000000000000000000 ) ) ;
#90 = COLOUR_RGB ( '',0.7921568627450980005, 0.8196078431372548767, 0.9333333333333333481 ) ;
#91 = DIRECTION ( 'NONE',  ( -1.224646799147353700E-16, -0.0000000000000000000, -1.000000000000000000 ) ) ;
#92 = PRODUCT_DEFINITION_CONTEXT ( 'detailed design', #233, 'design' ) ;
#93 = DIRECTION ( 'NONE',  ( 1.224646799147353700E-16, 0.0000000000000000000, 1.000000000000000000 ) ) ;
#94 = AXIS2_PLACEMENT_3D ( 'NONE', #208, #299, #27 ) ;
#95 = ORIENTED_EDGE ( 'NONE', *, *, #247, .T. ) ;
#96 = ADVANCED_FACE ( 'NONE', ( #3 ), #62, .T. ) ;
#97 = PRODUCT_CONTEXT ( 'NONE', #170, 'mechanical' ) ;
#98 = CONICAL_SURFACE ( 'NONE', #31, 0.01348650000000000022, 0.1745329251994338637 ) ;
#99 = SHAPE_DEFINITION_REPRESENTATION ( #176, #88 ) ;
#100 = EDGE_CURVE ( 'NONE', #266, #130, #167, .T. ) ;
#101 = ORIENTED_EDGE ( 'NONE', *, *, #169, .F. ) ;
#102 =( GEOMETRIC_REPRESENTATION_CONTEXT ( 3 ) GLOBAL_UNCERTAINTY_ASSIGNED_CONTEXT ( ( #29 ) ) GLOBAL_UNIT_ASSIGNED_CONTEXT ( ( #284, #11, #157 ) ) REPRESENTATION_CONTEXT ( 'NONE', 'WORKASPACE' ) );
#103 = VERTEX_POINT ( 'NONE', #254 ) ;
#104 = CONICAL_SURFACE ( 'NONE', #71, 0.01348650000000000022, 0.1745329251994338637 ) ;
#105 = ADVANCED_FACE ( 'NONE', ( #136 ), #104, .T. ) ;
#106 = ORIENTED_EDGE ( 'NONE', *, *, #162, .T. ) ;
#107 = SURFACE_STYLE_USAGE ( .BOTH. , #271 ) ;
#108 = CARTESIAN_POINT ( 'NONE',  ( 0.04750000000000064587, 5.817072295950006528E-18, 1.500000000000000222 ) ) ;
#109 = CARTESIAN_POINT ( 'NONE',  ( 0.0000000000000000000, 0.0000000000000000000, 0.0000000000000000000 ) ) ;
#110 = DIRECTION ( 'NONE',  ( 0.0000000000000000000, 0.0000000000000000000, 1.000000000000000000 ) ) ;
#111 = DIRECTION ( 'NONE',  ( -0.0000000000000000000, -0.0000000000000000000, -1.000000000000000000 ) ) ;
#112 = AXIS2_PLACEMENT_3D ( 'NONE', #287, #77, #55 ) ;
#113 =( LENGTH_UNIT ( ) NAMED_UNIT ( * ) SI_UNIT ( $, .METRE. ) );
#114 = DIRECTION ( 'NONE',  ( -1.000000000000000000, 0.0000000000000000000, 1.224646799147353700E-16 ) ) ;
#115 = EDGE_CURVE ( 'NONE', #130, #241, #138, .T. ) ;
#116 =( LENGTH_UNIT ( ) NAMED_UNIT ( * ) SI_UNIT ( $, .METRE. ) );
#117 = CARTESIAN_POINT ( 'NONE',  ( 0.0000000000000000000, 0.0000000000000000000, 1.500000000000000222 ) ) ;
#118 = SURFACE_STYLE_FILL_AREA ( #211 ) ;
#119 = LINE ( 'NONE', #67, #70 ) ;
#120 = COLOUR_RGB ( '',0.7921568627450980005, 0.8196078431372548767, 0.9333333333333333481 ) ;
#121 = VECTOR ( 'NONE', #91, 39.37007874015748143 ) ;
#122 = FACE_OUTER_BOUND ( 'NONE', #78, .T. ) ;
#123 = EDGE_CURVE ( 'NONE', #227, #241, #281, .T. ) ;
#124 = PRESENTATION_STYLE_ASSIGNMENT (( #217 ) ) ;
#125 = ORIENTED_EDGE ( 'NONE', *, *, #209, .F. ) ;
#126 = DIRECTION ( 'NONE',  ( 1.000000000000000000, 0.0000000000000000000, 0.0000000000000000000 ) ) ;
#127 = ORIENTED_EDGE ( 'NONE', *, *, #115, .F. ) ;
#128 = VECTOR ( 'NONE', #89, 39.37007874015748143 ) ;
#129 = CARTESIAN_POINT ( 'NONE',  ( 0.06250000000000006939, 7.654042494670963708E-18, 0.3179693714658312631 ) ) ;
#130 = VERTEX_POINT ( 'NONE', #46 ) ;
#131 = AXIS2_PLACEMENT_3D ( 'NONE', #185, #5, #182 ) ;
#132 = EDGE_CURVE ( 'NONE', #130, #266, #239, .T. ) ;
#133 = DIRECTION ( 'NONE',  ( 1.224646799147353700E-16, 0.0000000000000000000, 1.000000000000000000 ) ) ;
#134 = FACE_OUTER_BOUND ( 'NONE', #38, .T. ) ;
#135 = VERTEX_POINT ( 'NONE', #298 ) ;
#136 = FACE_OUTER_BOUND ( 'NONE', #166, .T. ) ;
#137 = CONICAL_SURFACE ( 'NONE', #242, 0.04750000000000064587, 0.7853981633974466137 ) ;
#138 = LINE ( 'NONE', #258, #121 ) ;
#139 = DIRECTION ( 'NONE',  ( -1.000000000000000000, 0.0000000000000000000, 1.224646799147353700E-16 ) ) ;
#140 = PRODUCT_DEFINITION ( 'UNKNOWN', '', #187, #92 ) ;
#141 = DIRECTION ( 'NONE',  ( -0.7071067811865462405, 0.0000000000000000000, -0.7071067811865486830 ) ) ;
#142 = CIRCLE ( 'NONE', #212, 0.06250000000000002776 ) ;
#143 = ADVANCED_FACE ( 'NONE', ( #278 ), #87, .T. ) ;
#144 = CIRCLE ( 'NONE', #112, 0.06250000000000002776 ) ;
#145 = EDGE_CURVE ( 'NONE', #199, #180, #10, .T. ) ;
#146 = CIRCLE ( 'NONE', #34, 0.06250000000000002776 ) ;
#147 = DIMENSIONAL_EXPONENTS ( 1.000000000000000000, 0.0000000000000000000, 0.0000000000000000000, 0.0000000000000000000, 0.0000000000000000000, 0.0000000000000000000, 0.0000000000000000000 ) ;
#148 = AXIS2_PLACEMENT_3D ( 'NONE', #257, #26, #114 ) ;
#149 = ORIENTED_EDGE ( 'NONE', *, *, #72, .F. ) ;
#150 = PRESENTATION_STYLE_ASSIGNMENT (( #107 ) ) ;
#151 = DIRECTION ( 'NONE',  ( 1.000000000000000000, 0.0000000000000000000, 0.0000000000000000000 ) ) ;
#152 = LINE ( 'NONE', #18, #277 ) ;
#153 = LINE ( 'NONE', #108, #165 ) ;
#154 = CARTESIAN_POINT ( 'NONE',  ( 0.0000000000000000000, 0.0000000000000000000, 1.500000000000000222 ) ) ;
#155 = DIRECTION ( 'NONE',  ( -0.1736481776669311639, 2.126576849575783008E-17, 0.9848077530122080203 ) ) ;
#156 = ORIENTED_EDGE ( 'NONE', *, *, #100, .T. ) ;
#157 =( NAMED_UNIT ( * ) SI_UNIT ( $, .STERADIAN. ) SOLID_ANGLE_UNIT ( ) );
#158 = PRODUCT_RELATED_PRODUCT_CATEGORY ( 'part', '', ( #216 ) ) ;
#159 = DIRECTION ( 'NONE',  ( -1.000000000000000000, 0.0000000000000000000, 0.0000000000000000000 ) ) ;
#160 = CYLINDRICAL_SURFACE ( 'NONE', #193, 0.01348650000000000196 ) ;
#161 = AXIS2_PLACEMENT_3D ( 'NONE', #154, #251, #229 ) ;
#162 = EDGE_CURVE ( 'NONE', #180, #199, #64, .T. ) ;
#163 = DIRECTION ( 'NONE',  ( -1.224646799147353700E-16, -0.0000000000000000000, -1.000000000000000000 ) ) ;
#164 = DIRECTION ( 'NONE',  ( -0.0000000000000000000, -0.0000000000000000000, -1.000000000000000000 ) ) ;
#165 = VECTOR ( 'NONE', #246, 39.37007874015748854 ) ;
#166 = EDGE_LOOP ( 'NONE', ( #125, #190, #171, #267 ) ) ;
#167 = CIRCLE ( 'NONE', #59, 0.01348650000000000022 ) ;
#168 = MECHANICAL_DESIGN_GEOMETRIC_PRESENTATION_REPRESENTATION (  '', ( #261 ), #28 ) ;
#169 = EDGE_CURVE ( 'NONE', #199, #135, #119, .T. ) ;
#170 = APPLICATION_CONTEXT ( 'automotive_design' ) ;
#171 = ORIENTED_EDGE ( 'NONE', *, *, #14, .T. ) ;
#172 = VECTOR ( 'NONE', #274, 39.37007874015748143 ) ;
#173 = ORIENTED_EDGE ( 'NONE', *, *, #21, .T. ) ;
#174 = CARTESIAN_POINT ( 'NONE',  ( 0.06250000000000002776, 7.654042494670959086E-18, 1.485000000000000764 ) ) ;
#175 = ORIENTED_EDGE ( 'NONE', *, *, #49, .F. ) ;
#176 = PRODUCT_DEFINITION_SHAPE ( 'NONE', 'NONE',  #140 ) ;
#177 =( CONVERSION_BASED_UNIT ( 'INCH', #79 ) LENGTH_UNIT ( ) NAMED_UNIT ( #147 ) );
#178 = DIRECTION ( 'NONE',  ( -1.000000000000000000, 0.0000000000000000000, 1.224646799147353700E-16 ) ) ;
#179 = CARTESIAN_POINT ( 'NONE',  ( -0.06250000000000002776, 0.0000000000000000000, 1.500000000000000222 ) ) ;
#180 = VERTEX_POINT ( 'NONE', #238 ) ;
#181 = AXIS2_PLACEMENT_3D ( 'NONE', #36, #57, #178 ) ;
#182 = DIRECTION ( 'NONE',  ( 1.000000000000000000, 0.0000000000000000000, 0.0000000000000000000 ) ) ;
#183 = DIRECTION ( 'NONE',  ( 0.0000000000000000000, 0.0000000000000000000, 1.000000000000000000 ) ) ;
#184 = DIRECTION ( 'NONE',  ( -1.224646799147353700E-16, -0.0000000000000000000, -1.000000000000000000 ) ) ;
#185 = CARTESIAN_POINT ( 'NONE',  ( 3.894001729925261274E-17, 0.0000000000000000000, 0.3179693714658312631 ) ) ;
#186 = ORIENTED_EDGE ( 'NONE', *, *, #123, .T. ) ;
#187 = PRODUCT_DEFINITION_FORMATION_WITH_SPECIFIED_SOURCE ( 'ANY', '', #216, .NOT_KNOWN. ) ;
#188 = ADVANCED_FACE ( 'NONE', ( #122 ), #98, .T. ) ;
#189 = AXIS2_PLACEMENT_3D ( 'NONE', #47, #184, #207 ) ;
#190 = ORIENTED_EDGE ( 'NONE', *, *, #132, .F. ) ;
#191 = ADVANCED_FACE ( 'NONE', ( #39 ), #226, .F. ) ;
#192 =( NAMED_UNIT ( * ) SI_UNIT ( $, .STERADIAN. ) SOLID_ANGLE_UNIT ( ) );
#193 = AXIS2_PLACEMENT_3D ( 'NONE', #30, #275, #139 ) ;
#194 = EDGE_LOOP ( 'NONE', ( #156, #35, #22, #56 ) ) ;
#195 = DIRECTION ( 'NONE',  ( 1.000000000000000000, 0.0000000000000000000, -0.0000000000000000000 ) ) ;
#196 = AXIS2_PLACEMENT_3D ( 'NONE', #210, #63, #234 ) ;
#197 = ORIENTED_EDGE ( 'NONE', *, *, #21, .F. ) ;
#198 = CARTESIAN_POINT ( 'NONE',  ( 4.898587196589415078E-18, 0.0000000000000000000, 0.04000000000000000083 ) ) ;
#199 = VERTEX_POINT ( 'NONE', #297 ) ;
#200 = FACE_OUTER_BOUND ( 'NONE', #215, .T. ) ;
#201 = ADVANCED_FACE ( 'NONE', ( #200 ), #137, .T. ) ;
#202 = CARTESIAN_POINT ( 'NONE',  ( 0.0000000000000000000, 0.0000000000000000000, 0.0000000000000000000 ) ) ;
#203 = DIRECTION ( 'NONE',  ( -0.0000000000000000000, -0.0000000000000000000, -1.000000000000000000 ) ) ;
#204 = DIRECTION ( 'NONE',  ( -1.000000000000000000, 0.0000000000000000000, 1.224646799147353700E-16 ) ) ;
#205 = CYLINDRICAL_SURFACE ( 'NONE', #15, 0.06250000000000002776 ) ;
#206 = CYLINDRICAL_SURFACE ( 'NONE', #283, 0.01348650000000000196 ) ;
#207 = DIRECTION ( 'NONE',  ( -1.000000000000000000, 0.0000000000000000000, 0.0000000000000000000 ) ) ;
#208 = CARTESIAN_POINT ( 'NONE',  ( 0.0000000000000000000, 0.0000000000000000000, 1.500000000000000222 ) ) ;
#209 = EDGE_CURVE ( 'NONE', #266, #103, #152, .T. ) ;
#210 = CARTESIAN_POINT ( 'NONE',  ( 0.0000000000000000000, 0.0000000000000000000, 1.500000000000000222 ) ) ;
#211 = FILL_AREA_STYLE ('',( #289 ) ) ;
#212 = AXIS2_PLACEMENT_3D ( 'NONE', #66, #86, #44 ) ;
#213 = CARTESIAN_POINT ( 'NONE',  ( -0.01348650000000000196, 0.0000000000000000000, 1.651619905670078705E-18 ) ) ;
#214 = UNCERTAINTY_MEASURE_WITH_UNIT (LENGTH_MEASURE( 1.000000000000000082E-05 ), #177, 'distance_accuracy_value', 'NONE');
#215 = EDGE_LOOP ( 'NONE', ( #243, #32, #50, #101 ) ) ;
#216 = PRODUCT ( 'Micro_SME-027-2', 'Micro_SME-027-2', '', ( #97 ) ) ;
#217 = SURFACE_STYLE_USAGE ( .BOTH. , #7 ) ;
#218 = STYLED_ITEM ( 'NONE', ( #124 ), #88 ) ;
#219 = APPLICATION_PROTOCOL_DEFINITION ( 'draft international standard', 'automotive_design', 1998, #233 ) ;
#220 = ORIENTED_EDGE ( 'NONE', *, *, #132, .T. ) ;
#221 = CARTESIAN_POINT ( 'NONE',  ( -0.01348649999999999502, 4.652831200170519473E-18, 0.04000000000000000083 ) ) ;
#222 = UNCERTAINTY_MEASURE_WITH_UNIT (LENGTH_MEASURE( 1.000000000000000082E-05 ), #20, 'distance_accuracy_value', 'NONE');
#223 = LINE ( 'NONE', #83, #84 ) ;
#224 = DIRECTION ( 'NONE',  ( -1.224646799147353700E-16, -0.0000000000000000000, -1.000000000000000000 ) ) ;
#225 = CARTESIAN_POINT ( 'NONE',  ( 0.0000000000000000000, 0.0000000000000000000, 1.485000000000000764 ) ) ;
#226 = PLANE ( 'NONE',  #272 ) ;
#227 = VERTEX_POINT ( 'NONE', #245 ) ;
#228 = DIRECTION ( 'NONE',  ( 0.0000000000000000000, 0.0000000000000000000, 1.000000000000000000 ) ) ;
#229 = DIRECTION ( 'NONE',  ( -1.000000000000000000, 0.0000000000000000000, 0.0000000000000000000 ) ) ;
#230 = LENGTH_MEASURE_WITH_UNIT ( LENGTH_MEASURE( 0.02539999999999999897 ), #116 );
#231 = LENGTH_MEASURE_WITH_UNIT ( LENGTH_MEASURE( 0.02539999999999999897 ), #113 );
#232 = CARTESIAN_POINT ( 'NONE',  ( 0.0000000000000000000, 0.0000000000000000000, 1.500000000000000222 ) ) ;
#233 = APPLICATION_CONTEXT ( 'automotive_design' ) ;
#234 = DIRECTION ( 'NONE',  ( 1.000000000000000000, 0.0000000000000000000, 0.0000000000000000000 ) ) ;
#235 = EDGE_CURVE ( 'NONE', #244, #103, #144, .T. ) ;
#236 = DIRECTION ( 'NONE',  ( 1.000000000000000000, 0.0000000000000000000, 0.0000000000000000000 ) ) ;
#237 = DIRECTION ( 'NONE',  ( 1.000000000000000000, 0.0000000000000000000, 0.0000000000000000000 ) ) ;
#238 = CARTESIAN_POINT ( 'NONE',  ( 0.04750000000000064587, 6.735557395310483192E-18, 1.500000000000000222 ) ) ;
#239 = CIRCLE ( 'NONE', #189, 0.01348650000000000022 ) ;
#240 = VERTEX_POINT ( 'NONE', #174 ) ;
#241 = VERTEX_POINT ( 'NONE', #265 ) ;
#242 = AXIS2_PLACEMENT_3D ( 'NONE', #295, #82, #24 ) ;
#243 = ORIENTED_EDGE ( 'NONE', *, *, #162, .F. ) ;
#244 = VERTEX_POINT ( 'NONE', #129 ) ;
#245 = CARTESIAN_POINT ( 'NONE',  ( -0.01348650000000000369, 0.0000000000000000000, 3.303239811340158180E-18 ) ) ;
#246 = DIRECTION ( 'NONE',  ( 0.7071067811865462405, 8.659560562354916834E-17, -0.7071067811865486830 ) ) ;
#247 = EDGE_CURVE ( 'NONE', #135, #103, #60, .T. ) ;
#248 = AXIS2_PLACEMENT_3D ( 'NONE', #117, #183, #276 ) ;
#249 =( NAMED_UNIT ( * ) PLANE_ANGLE_UNIT ( ) SI_UNIT ( $, .RADIAN. ) );
#250 = VECTOR ( 'NONE', #111, 39.37007874015748143 ) ;
#251 = DIRECTION ( 'NONE',  ( 0.0000000000000000000, 0.0000000000000000000, -1.000000000000000000 ) ) ;
#252 = ORIENTED_EDGE ( 'NONE', *, *, #72, .T. ) ;
#253 = FILL_AREA_STYLE_COLOUR ( '', #90 ) ;
#254 = CARTESIAN_POINT ( 'NONE',  ( -0.06249999999999997918, 0.0000000000000000000, 0.3179693714658312631 ) ) ;
#255 = CIRCLE ( 'NONE', #181, 0.01348650000000000369 ) ;
#256 = LINE ( 'NONE', #213, #128 ) ;
#257 = CARTESIAN_POINT ( 'NONE',  ( 2.022651030886916308E-34, 0.0000000000000000000, 1.651619905670079090E-18 ) ) ;
#258 = CARTESIAN_POINT ( 'NONE',  ( 0.01348650000000000196, 1.651619905670078127E-18, -1.651619905670078705E-18 ) ) ;
#259 = ADVANCED_FACE ( 'NONE', ( #37 ), #206, .T. ) ;
#260 = MECHANICAL_DESIGN_GEOMETRIC_PRESENTATION_REPRESENTATION (  '', ( #218 ), #102 ) ;
#261 = STYLED_ITEM ( 'NONE', ( #150 ), #262 ) ;
#262 = MANIFOLD_SOLID_BREP ( 'Cut-Revolve1', #9 ) ;
#263 = ORIENTED_EDGE ( 'NONE', *, *, #169, .T. ) ;
#264 = AXIS2_PLACEMENT_3D ( 'NONE', #232, #164, #159 ) ;
#265 = CARTESIAN_POINT ( 'NONE',  ( 0.01348650000000000369, 1.651619905670078127E-18, 0.0000000000000000000 ) ) ;
#266 = VERTEX_POINT ( 'NONE', #221 ) ;
#267 = ORIENTED_EDGE ( 'NONE', *, *, #235, .T. ) ;
#268 = FILL_AREA_STYLE ('',( #253 ) ) ;
#269 = FACE_OUTER_BOUND ( 'NONE', #4, .T. ) ;
#270 = AXIS2_PLACEMENT_3D ( 'NONE', #202, #110, #237 ) ;
#271 = SURFACE_SIDE_STYLE ('',( #85 ) ) ;
#272 = AXIS2_PLACEMENT_3D ( 'NONE', #292, #228, #195 ) ;
#273 = ORIENTED_EDGE ( 'NONE', *, *, #1, .T. ) ;
#274 = DIRECTION ( 'NONE',  ( -0.0000000000000000000, -0.0000000000000000000, -1.000000000000000000 ) ) ;
#275 = DIRECTION ( 'NONE',  ( -1.224646799147353700E-16, -0.0000000000000000000, -1.000000000000000000 ) ) ;
#276 = DIRECTION ( 'NONE',  ( 1.000000000000000000, 0.0000000000000000000, -0.0000000000000000000 ) ) ;
#277 = VECTOR ( 'NONE', #155, 39.37007874015747433 ) ;
#278 = FACE_OUTER_BOUND ( 'NONE', #286, .T. ) ;
#279 = DIRECTION ( 'NONE',  ( -1.000000000000000000, 0.0000000000000000000, 0.0000000000000000000 ) ) ;
#280 = ORIENTED_EDGE ( 'NONE', *, *, #100, .F. ) ;
#281 = CIRCLE ( 'NONE', #148, 0.01348650000000000369 ) ;
#282 = APPLICATION_PROTOCOL_DEFINITION ( 'draft international standard', 'automotive_design', 1998, #170 ) ;
#283 = AXIS2_PLACEMENT_3D ( 'NONE', #109, #224, #204 ) ;
#284 =( CONVERSION_BASED_UNIT ( 'INCH', #230 ) LENGTH_UNIT ( ) NAMED_UNIT ( #54 ) );
#285 = ORIENTED_EDGE ( 'NONE', *, *, #235, .F. ) ;
#286 = EDGE_LOOP ( 'NONE', ( #76, #106 ) ) ;
#287 = CARTESIAN_POINT ( 'NONE',  ( 3.894001729925261274E-17, 0.0000000000000000000, 0.3179693714658312631 ) ) ;
#288 = ORIENTED_EDGE ( 'NONE', *, *, #247, .F. ) ;
#289 = FILL_AREA_STYLE_COLOUR ( '', #120 ) ;
#290 =( LENGTH_UNIT ( ) NAMED_UNIT ( * ) SI_UNIT ( $, .METRE. ) );
#291 = DIRECTION ( 'NONE',  ( 0.1736481776669313581, 0.0000000000000000000, 0.9848077530122077983 ) ) ;
#292 = CARTESIAN_POINT ( 'NONE',  ( 0.0000000000000000000, 0.0000000000000000000, 0.0000000000000000000 ) ) ;
#293 = DIRECTION ( 'NONE',  ( -1.000000000000000000, 0.0000000000000000000, 0.0000000000000000000 ) ) ;
#294 =( GEOMETRIC_REPRESENTATION_CONTEXT ( 3 ) GLOBAL_UNCERTAINTY_ASSIGNED_CONTEXT ( ( #214 ) ) GLOBAL_UNIT_ASSIGNED_CONTEXT ( ( #177, #249, #192 ) ) REPRESENTATION_CONTEXT ( 'NONE', 'WORKASPACE' ) );
#295 = CARTESIAN_POINT ( 'NONE',  ( 0.0000000000000000000, 0.0000000000000000000, 1.500000000000000222 ) ) ;
#296 = FACE_OUTER_BOUND ( 'NONE', #51, .T. ) ;
#297 = CARTESIAN_POINT ( 'NONE',  ( -0.04750000000000064587, 0.0000000000000000000, 1.500000000000000222 ) ) ;
#298 = CARTESIAN_POINT ( 'NONE',  ( -0.06250000000000002776, 0.0000000000000000000, 1.485000000000000764 ) ) ;
#299 = DIRECTION ( 'NONE',  ( 0.0000000000000000000, 0.0000000000000000000, 1.000000000000000000 ) ) ;
ENDSEC;
END-ISO-10303-21;
