ISO-10303-21;
HEADER;
FILE_DESCRIPTION (( 'STEP AP214' ),
    '1' );
FILE_NAME ('59905.STEP',
    '2023-06-22T23:51:45',
    ( '' ),
    ( '' ),
    'SwSTEP 2.0',
    'SolidWorks 2023',
    '' );
FILE_SCHEMA (( 'AUTOMOTIVE_DESIGN' ));
ENDSEC;

DATA;
#1 = FILL_AREA_STYLE_COLOUR ( '', #164 ) ;
#2 = PRESENTATION_STYLE_ASSIGNMENT (( #140 ) ) ;
#3 = LINE ( 'NONE', #47, #176 ) ;
#4 = LENGTH_MEASURE_WITH_UNIT ( LENGTH_MEASURE( 0.02539999999999999897 ), #44 );
#5 =( GEOMETRIC_REPRESENTATION_CONTEXT ( 3 ) GLOBAL_UNCERTAINTY_ASSIGNED_CONTEXT ( ( #227 ) ) GLOBAL_UNIT_ASSIGNED_CONTEXT ( ( #151, #125, #301 ) ) REPRESENTATION_CONTEXT ( 'NONE', 'WORKASPACE' ) );
#6 = MECHANICAL_DESIGN_GEOMETRIC_PRESENTATION_REPRESENTATION (  '', ( #177 ), #303 ) ;
#7 = DIRECTION ( 'NONE',  ( 0.000000000000000000, -0.000000000000000000, 1.000000000000000000 ) ) ;
#8 = VERTEX_POINT ( 'NONE', #21 ) ;
#9 = AXIS2_PLACEMENT_3D ( 'NONE', #255, #127, #285 ) ;
#10 = CIRCLE ( 'NONE', #149, 0.1875000000000000278 ) ;
#11 = ADVANCED_FACE ( 'NONE', ( #267 ), #242, .F. ) ;
#12 = ORIENTED_EDGE ( 'NONE', *, *, #67, .T. ) ;
#13 = PRODUCT_RELATED_PRODUCT_CATEGORY ( 'part', '', ( #272 ) ) ;
#14 = SURFACE_SIDE_STYLE ('',( #234 ) ) ;
#15 =( LENGTH_UNIT ( ) NAMED_UNIT ( * ) SI_UNIT ( $, .METRE. ) );
#16 = DIMENSIONAL_EXPONENTS ( 1.000000000000000000, 0.000000000000000000, 0.000000000000000000, 0.000000000000000000, 0.000000000000000000, 0.000000000000000000, 0.000000000000000000 ) ;
#17 = STYLED_ITEM ( 'NONE', ( #2 ), #109 ) ;
#18 = DIRECTION ( 'NONE',  ( 4.082155997157844435E-17, 1.000000000000000000, -0.000000000000000000 ) ) ;
#19 =( NAMED_UNIT ( * ) SI_UNIT ( $, .STERADIAN. ) SOLID_ANGLE_UNIT ( ) );
#20 =( LENGTH_UNIT ( ) NAMED_UNIT ( * ) SI_UNIT ( $, .METRE. ) );
#21 = CARTESIAN_POINT ( 'NONE',  ( 0.1875000000000000278, 0.5000000000000001110, 2.296212748401287109E-17 ) ) ;
#22 =( NAMED_UNIT ( * ) PLANE_ANGLE_UNIT ( ) SI_UNIT ( $, .RADIAN. ) );
#23 = EDGE_CURVE ( 'NONE', #208, #126, #3, .T. ) ;
#24 = CARTESIAN_POINT ( 'NONE',  ( -0.1874999999999999167, 2.000000000000000000, 0.000000000000000000 ) ) ;
#25 = ORIENTED_EDGE ( 'NONE', *, *, #62, .F. ) ;
#26 =( NAMED_UNIT ( * ) SI_UNIT ( $, .STERADIAN. ) SOLID_ANGLE_UNIT ( ) );
#27 = STYLED_ITEM ( 'NONE', ( #275 ), #305 ) ;
#28 = SHAPE_DEFINITION_REPRESENTATION ( #306, #174 ) ;
#29 = CARTESIAN_POINT ( 'NONE',  ( 0.1875000000000000278, 2.000000000000000000, 0.000000000000000000 ) ) ;
#30 = LINE ( 'NONE', #146, #91 ) ;
#31 = FILL_AREA_STYLE_COLOUR ( '', #262 ) ;
#32 = PLANE ( 'NONE',  #186 ) ;
#33 = DIRECTION ( 'NONE',  ( -1.000000000000000000, 0.000000000000000000, 0.000000000000000000 ) ) ;
#34 = LENGTH_MEASURE_WITH_UNIT ( LENGTH_MEASURE( 0.02539999999999999897 ), #84 );
#35 = FILL_AREA_STYLE ('',( #209 ) ) ;
#36 = COLOUR_RGB ( '',1.000000000000000000, 0.000000000000000000, 0.000000000000000000 ) ;
#37 = AXIS2_PLACEMENT_3D ( 'NONE', #150, #39, #273 ) ;
#38 = VERTEX_POINT ( 'NONE', #188 ) ;
#39 = DIRECTION ( 'NONE',  ( 0.000000000000000000, 0.000000000000000000, 1.000000000000000000 ) ) ;
#40 = APPLICATION_CONTEXT ( 'automotive_design' ) ;
#41 = EDGE_LOOP ( 'NONE', ( #220, #185 ) ) ;
#42 = FILL_AREA_STYLE ('',( #78 ) ) ;
#43 = CARTESIAN_POINT ( 'NONE',  ( 0.000000000000000000, 0.5000000000000001110, 0.000000000000000000 ) ) ;
#44 =( LENGTH_UNIT ( ) NAMED_UNIT ( * ) SI_UNIT ( $, .METRE. ) );
#45 = ADVANCED_FACE ( 'NONE', ( #289 ), #284, .T. ) ;
#46 = PRESENTATION_STYLE_ASSIGNMENT (( #64 ) ) ;
#47 = CARTESIAN_POINT ( 'NONE',  ( 0.000000000000000000, 0.000000000000000000, -0.1875000000000000278 ) ) ;
#48 = AXIS2_PLACEMENT_3D ( 'NONE', #307, #89, #175 ) ;
#49 = SURFACE_SIDE_STYLE ('',( #66 ) ) ;
#50 = PLANE ( 'NONE',  #308 ) ;
#51 =( LENGTH_UNIT ( ) NAMED_UNIT ( * ) SI_UNIT ( $, .METRE. ) );
#52 = PRODUCT_CONTEXT ( 'NONE', #40, 'mechanical' ) ;
#53 = DIRECTION ( 'NONE',  ( -0.000000000000000000, -1.000000000000000000, -0.000000000000000000 ) ) ;
#54 =( GEOMETRIC_REPRESENTATION_CONTEXT ( 3 ) GLOBAL_UNCERTAINTY_ASSIGNED_CONTEXT ( ( #134 ) ) GLOBAL_UNIT_ASSIGNED_CONTEXT ( ( #192, #118, #143 ) ) REPRESENTATION_CONTEXT ( 'NONE', 'WORKASPACE' ) );
#55 = ORIENTED_EDGE ( 'NONE', *, *, #120, .F. ) ;
#56 = ORIENTED_EDGE ( 'NONE', *, *, #260, .F. ) ;
#57 = SURFACE_STYLE_USAGE ( .BOTH. , #194 ) ;
#58 = FILL_AREA_STYLE ('',( #131 ) ) ;
#59 = SURFACE_STYLE_FILL_AREA ( #42 ) ;
#60 = AXIS2_PLACEMENT_3D ( 'NONE', #29, #113, #117 ) ;
#61 = STYLED_ITEM ( 'NONE', ( #46 ), #92 ) ;
#62 = EDGE_CURVE ( 'NONE', #115, #94, #277, .T. ) ;
#63 =( LENGTH_UNIT ( ) NAMED_UNIT ( * ) SI_UNIT ( $, .METRE. ) );
#64 = SURFACE_STYLE_USAGE ( .BOTH. , #200 ) ;
#65 = PRESENTATION_LAYER_ASSIGNMENT (  '', '', ( #61 ) ) ;
#66 = SURFACE_STYLE_FILL_AREA ( #286 ) ;
#67 = EDGE_CURVE ( 'NONE', #8, #263, #271, .T. ) ;
#68 = MECHANICAL_DESIGN_GEOMETRIC_PRESENTATION_REPRESENTATION (  '', ( #17 ), #121 ) ;
#69 = DIRECTION ( 'NONE',  ( 0.000000000000000000, 0.000000000000000000, -1.000000000000000000 ) ) ;
#70 = EDGE_LOOP ( 'NONE', ( #25, #248, #196, #75 ) ) ;
#71 = ORIENTED_EDGE ( 'NONE', *, *, #278, .T. ) ;
#72 = CIRCLE ( 'NONE', #259, 0.1875000000000000278 ) ;
#73 = DIRECTION ( 'NONE',  ( -0.000000000000000000, -1.000000000000000000, -0.000000000000000000 ) ) ;
#74 = ORIENTED_EDGE ( 'NONE', *, *, #62, .T. ) ;
#75 = ORIENTED_EDGE ( 'NONE', *, *, #88, .F. ) ;
#76 = CARTESIAN_POINT ( 'NONE',  ( 0.000000000000000000, 0.5000000000000000000, 0.000000000000000000 ) ) ;
#77 = ADVANCED_FACE ( 'NONE', ( #292 ), #197, .T. ) ;
#78 = FILL_AREA_STYLE_COLOUR ( '', #36 ) ;
#79 = SURFACE_STYLE_USAGE ( .BOTH. , #14 ) ;
#80 = ADVANCED_FACE ( 'NONE', ( #232 ), #50, .F. ) ;
#81 = CIRCLE ( 'NONE', #163, 0.1875000000000000278 ) ;
#82 =( GEOMETRIC_REPRESENTATION_CONTEXT ( 3 ) GLOBAL_UNCERTAINTY_ASSIGNED_CONTEXT ( ( #161 ) ) GLOBAL_UNIT_ASSIGNED_CONTEXT ( ( #90, #22, #204 ) ) REPRESENTATION_CONTEXT ( 'NONE', 'WORKASPACE' ) );
#83 = PRESENTATION_STYLE_ASSIGNMENT (( #57 ) ) ;
#84 =( LENGTH_UNIT ( ) NAMED_UNIT ( * ) SI_UNIT ( $, .METRE. ) );
#85 = DIRECTION ( 'NONE',  ( 0.000000000000000000, 0.000000000000000000, -1.000000000000000000 ) ) ;
#86 = CLOSED_SHELL ( 'NONE', ( #305, #45, #250, #109 ) ) ;
#87 = CARTESIAN_POINT ( 'NONE',  ( 0.000000000000000000, 0.5000000000000000000, 0.000000000000000000 ) ) ;
#88 = EDGE_CURVE ( 'NONE', #94, #126, #206, .T. ) ;
#89 = DIRECTION ( 'NONE',  ( -0.000000000000000000, -1.000000000000000000, -0.000000000000000000 ) ) ;
#90 =( CONVERSION_BASED_UNIT ( 'INCH', #214 ) LENGTH_UNIT ( ) NAMED_UNIT ( #225 ) );
#91 = VECTOR ( 'NONE', #217, 39.37007874015748143 ) ;
#92 = MANIFOLD_SOLID_BREP ( 'Revolve - Cutting Edge', #86 ) ;
#93 = DIRECTION ( 'NONE',  ( 4.082155997157844435E-17, 1.000000000000000000, -0.000000000000000000 ) ) ;
#94 = VERTEX_POINT ( 'NONE', #212 ) ;
#95 = AXIS2_PLACEMENT_3D ( 'NONE', #183, #205, #187 ) ;
#96 = CARTESIAN_POINT ( 'NONE',  ( 0.000000000000000000, 0.5000000000000000000, -0.1875000000000000278 ) ) ;
#97 =( CONVERSION_BASED_UNIT ( 'INCH', #34 ) LENGTH_UNIT ( ) NAMED_UNIT ( #130 ) );
#98 = CYLINDRICAL_SURFACE ( 'NONE', #9, 0.1874999999999999722 ) ;
#99 = CARTESIAN_POINT ( 'NONE',  ( -0.1874999999999998890, 2.000000000000000000, 0.000000000000000000 ) ) ;
#100 = SURFACE_STYLE_USAGE ( .BOTH. , #122 ) ;
#101 =( NAMED_UNIT ( * ) PLANE_ANGLE_UNIT ( ) SI_UNIT ( $, .RADIAN. ) );
#102 = FACE_OUTER_BOUND ( 'NONE', #181, .T. ) ;
#103 = EDGE_CURVE ( 'NONE', #8, #38, #30, .T. ) ;
#104 = SURFACE_STYLE_FILL_AREA ( #226 ) ;
#105 = APPLICATION_CONTEXT ( 'automotive_design' ) ;
#106 = DIMENSIONAL_EXPONENTS ( 1.000000000000000000, 0.000000000000000000, 0.000000000000000000, 0.000000000000000000, 0.000000000000000000, 0.000000000000000000, 0.000000000000000000 ) ;
#107 = DIRECTION ( 'NONE',  ( 0.000000000000000000, 1.000000000000000000, 0.000000000000000000 ) ) ;
#108 = CIRCLE ( 'NONE', #309, 0.1874999999999999445 ) ;
#109 = ADVANCED_FACE ( 'NONE', ( #244 ), #32, .T. ) ;
#110 = PRODUCT_DEFINITION_CONTEXT ( 'detailed design', #105, 'design' ) ;
#111 = CYLINDRICAL_SURFACE ( 'NONE', #48, 0.1875000000000000278 ) ;
#112 =( NAMED_UNIT ( * ) SI_UNIT ( $, .STERADIAN. ) SOLID_ANGLE_UNIT ( ) );
#113 = DIRECTION ( 'NONE',  ( -4.082155997157844435E-17, -1.000000000000000000, 0.000000000000000000 ) ) ;
#114 = AXIS2_PLACEMENT_3D ( 'NONE', #139, #107, #7 ) ;
#115 = VERTEX_POINT ( 'NONE', #184 ) ;
#116 = DIRECTION ( 'NONE',  ( 0.000000000000000000, -1.000000000000000000, -0.000000000000000000 ) ) ;
#117 = DIRECTION ( 'NONE',  ( 1.000000000000000000, -4.082155997157844435E-17, 0.000000000000000000 ) ) ;
#118 =( NAMED_UNIT ( * ) PLANE_ANGLE_UNIT ( ) SI_UNIT ( $, .RADIAN. ) );
#119 = SURFACE_STYLE_FILL_AREA ( #35 ) ;
#120 = EDGE_CURVE ( 'NONE', #115, #208, #72, .T. ) ;
#121 =( GEOMETRIC_REPRESENTATION_CONTEXT ( 3 ) GLOBAL_UNCERTAINTY_ASSIGNED_CONTEXT ( ( #169 ) ) GLOBAL_UNIT_ASSIGNED_CONTEXT ( ( #291, #238, #19 ) ) REPRESENTATION_CONTEXT ( 'NONE', 'WORKASPACE' ) );
#122 = SURFACE_SIDE_STYLE ('',( #59 ) ) ;
#123 = DIRECTION ( 'NONE',  ( -1.000000000000000000, 0.000000000000000000, 0.000000000000000000 ) ) ;
#124 = FILL_AREA_STYLE_COLOUR ( '', #157 ) ;
#125 =( NAMED_UNIT ( * ) PLANE_ANGLE_UNIT ( ) SI_UNIT ( $, .RADIAN. ) );
#126 = VERTEX_POINT ( 'NONE', #240 ) ;
#127 = DIRECTION ( 'NONE',  ( 4.082155997157844435E-17, 1.000000000000000000, -0.000000000000000000 ) ) ;
#128 = AXIS2_PLACEMENT_3D ( 'NONE', #167, #245, #33 ) ;
#129 = AXIS2_PLACEMENT_3D ( 'NONE', #268, #53, #69 ) ;
#130 = DIMENSIONAL_EXPONENTS ( 1.000000000000000000, 0.000000000000000000, 0.000000000000000000, 0.000000000000000000, 0.000000000000000000, 0.000000000000000000, 0.000000000000000000 ) ;
#131 = FILL_AREA_STYLE_COLOUR ( '', #159 ) ;
#132 = EDGE_CURVE ( 'NONE', #230, #38, #258, .T. ) ;
#133 = DIRECTION ( 'NONE',  ( 4.082155997157844435E-17, 1.000000000000000000, -0.000000000000000000 ) ) ;
#134 = UNCERTAINTY_MEASURE_WITH_UNIT (LENGTH_MEASURE( 1.000000000000000082E-05 ), #192, 'distance_accuracy_value', 'NONE');
#135 = DIRECTION ( 'NONE',  ( 0.000000000000000000, 0.000000000000000000, -1.000000000000000000 ) ) ;
#136 = FILL_AREA_STYLE ('',( #31 ) ) ;
#137 = PRESENTATION_LAYER_ASSIGNMENT (  '', '', ( #17 ) ) ;
#138 = ORIENTED_EDGE ( 'NONE', *, *, #132, .T. ) ;
#139 = CARTESIAN_POINT ( 'NONE',  ( 0.000000000000000000, 0.5000000000000000000, 0.000000000000000000 ) ) ;
#140 = SURFACE_STYLE_USAGE ( .BOTH. , #49 ) ;
#141 = EDGE_LOOP ( 'NONE', ( #222, #155, #153, #190 ) ) ;
#142 = DIRECTION ( 'NONE',  ( 0.000000000000000000, 0.000000000000000000, -1.000000000000000000 ) ) ;
#143 =( NAMED_UNIT ( * ) SI_UNIT ( $, .STERADIAN. ) SOLID_ANGLE_UNIT ( ) );
#144 = CARTESIAN_POINT ( 'NONE',  ( 0.000000000000000000, 0.000000000000000000, 0.000000000000000000 ) ) ;
#145 = UNCERTAINTY_MEASURE_WITH_UNIT (LENGTH_MEASURE( 1.000000000000000082E-05 ), #97, 'distance_accuracy_value', 'NONE');
#146 = CARTESIAN_POINT ( 'NONE',  ( 0.1875000000000000555, 2.000000000000000000, 2.296212748401286801E-17 ) ) ;
#147 = ORIENTED_EDGE ( 'NONE', *, *, #293, .T. ) ;
#148 = PRESENTATION_STYLE_ASSIGNMENT (( #251 ) ) ;
#149 = AXIS2_PLACEMENT_3D ( 'NONE', #43, #276, #253 ) ;
#150 = CARTESIAN_POINT ( 'NONE',  ( 0.000000000000000000, 0.000000000000000000, 0.000000000000000000 ) ) ;
#151 =( CONVERSION_BASED_UNIT ( 'INCH', #224 ) LENGTH_UNIT ( ) NAMED_UNIT ( #154 ) );
#152 = ORIENTED_EDGE ( 'NONE', *, *, #23, .F. ) ;
#153 = ORIENTED_EDGE ( 'NONE', *, *, #132, .F. ) ;
#154 = DIMENSIONAL_EXPONENTS ( 1.000000000000000000, 0.000000000000000000, 0.000000000000000000, 0.000000000000000000, 0.000000000000000000, 0.000000000000000000, 0.000000000000000000 ) ;
#155 = ORIENTED_EDGE ( 'NONE', *, *, #103, .T. ) ;
#156 = MECHANICAL_DESIGN_GEOMETRIC_PRESENTATION_REPRESENTATION (  '', ( #280 ), #5 ) ;
#157 = COLOUR_RGB ( '',0.7921568627450980005, 0.8196078431372548767, 0.9333333333333333481 ) ;
#158 = PRODUCT_DEFINITION ( 'UNKNOWN', '', #195, #110 ) ;
#159 = COLOUR_RGB ( '',1.000000000000000000, 0.000000000000000000, 0.000000000000000000 ) ;
#160 = STYLED_ITEM ( 'NONE', ( #211 ), #298 ) ;
#161 = UNCERTAINTY_MEASURE_WITH_UNIT (LENGTH_MEASURE( 1.000000000000000082E-05 ), #90, 'distance_accuracy_value', 'NONE');
#162 = CLOSED_SHELL ( 'NONE', ( #77, #80, #178, #11 ) ) ;
#163 = AXIS2_PLACEMENT_3D ( 'NONE', #76, #73, #252 ) ;
#164 = COLOUR_RGB ( '',1.000000000000000000, 0.000000000000000000, 0.000000000000000000 ) ;
#165 = LENGTH_MEASURE_WITH_UNIT ( LENGTH_MEASURE( 0.02539999999999999897 ), #269 );
#166 =( GEOMETRIC_REPRESENTATION_CONTEXT ( 3 ) GLOBAL_UNCERTAINTY_ASSIGNED_CONTEXT ( ( #145 ) ) GLOBAL_UNIT_ASSIGNED_CONTEXT ( ( #97, #101, #219 ) ) REPRESENTATION_CONTEXT ( 'NONE', 'WORKASPACE' ) );
#167 = CARTESIAN_POINT ( 'NONE',  ( 6.123233995736766036E-17, 2.000000000000000000, 0.000000000000000000 ) ) ;
#168 = EDGE_CURVE ( 'NONE', #263, #8, #10, .T. ) ;
#169 = UNCERTAINTY_MEASURE_WITH_UNIT (LENGTH_MEASURE( 1.000000000000000082E-05 ), #291, 'distance_accuracy_value', 'NONE');
#170 = MECHANICAL_DESIGN_GEOMETRIC_PRESENTATION_REPRESENTATION (  '', ( #160 ), #166 ) ;
#171 = SURFACE_STYLE_FILL_AREA ( #58 ) ;
#172 = DIMENSIONAL_EXPONENTS ( 1.000000000000000000, 0.000000000000000000, 0.000000000000000000, 0.000000000000000000, 0.000000000000000000, 0.000000000000000000, 0.000000000000000000 ) ;
#173 = DIRECTION ( 'NONE',  ( 4.082155997157844435E-17, 1.000000000000000000, -0.000000000000000000 ) ) ;
#174 = ADVANCED_BREP_SHAPE_REPRESENTATION ( '59905', ( #92, #298, #37 ), #82 ) ;
#175 = DIRECTION ( 'NONE',  ( 0.000000000000000000, 0.000000000000000000, -1.000000000000000000 ) ) ;
#176 = VECTOR ( 'NONE', #216, 39.37007874015748143 ) ;
#177 = STYLED_ITEM ( 'NONE', ( #83 ), #250 ) ;
#178 = ADVANCED_FACE ( 'NONE', ( #281 ), #98, .T. ) ;
#179 = CARTESIAN_POINT ( 'NONE',  ( 6.123233995736766036E-17, 2.000000000000000000, 0.000000000000000000 ) ) ;
#180 = MECHANICAL_DESIGN_GEOMETRIC_PRESENTATION_REPRESENTATION (  '', ( #27 ), #54 ) ;
#181 = EDGE_LOOP ( 'NONE', ( #147, #74, #56, #152 ) ) ;
#182 = DIRECTION ( 'NONE',  ( -0.000000000000000000, -1.000000000000000000, -0.000000000000000000 ) ) ;
#183 = CARTESIAN_POINT ( 'NONE',  ( 0.000000000000000000, 0.000000000000000000, 0.000000000000000000 ) ) ;
#184 = CARTESIAN_POINT ( 'NONE',  ( 2.296212748401287726E-17, 0.5000000000000000000, 0.1875000000000000278 ) ) ;
#185 = ORIENTED_EDGE ( 'NONE', *, *, #88, .T. ) ;
#186 = AXIS2_PLACEMENT_3D ( 'NONE', #144, #116, #135 ) ;
#187 = DIRECTION ( 'NONE',  ( 0.000000000000000000, 0.000000000000000000, -1.000000000000000000 ) ) ;
#188 = CARTESIAN_POINT ( 'NONE',  ( 0.1875000000000000278, 2.000000000000000000, 2.296212748401287109E-17 ) ) ;
#189 = UNCERTAINTY_MEASURE_WITH_UNIT (LENGTH_MEASURE( 1.000000000000000082E-05 ), #231, 'distance_accuracy_value', 'NONE');
#190 = ORIENTED_EDGE ( 'NONE', *, *, #278, .F. ) ;
#191 =( NAMED_UNIT ( * ) PLANE_ANGLE_UNIT ( ) SI_UNIT ( $, .RADIAN. ) );
#192 =( CONVERSION_BASED_UNIT ( 'INCH', #270 ) LENGTH_UNIT ( ) NAMED_UNIT ( #199 ) );
#193 = COLOUR_RGB ( '',1.000000000000000000, 0.000000000000000000, 0.000000000000000000 ) ;
#194 = SURFACE_SIDE_STYLE ('',( #119 ) ) ;
#195 = PRODUCT_DEFINITION_FORMATION_WITH_SPECIFIED_SOURCE ( 'ANY', '', #272, .NOT_KNOWN. ) ;
#196 = ORIENTED_EDGE ( 'NONE', *, *, #23, .T. ) ;
#197 = CYLINDRICAL_SURFACE ( 'NONE', #128, 0.1874999999999999722 ) ;
#198 = AXIS2_PLACEMENT_3D ( 'NONE', #233, #133, #229 ) ;
#199 = DIMENSIONAL_EXPONENTS ( 1.000000000000000000, 0.000000000000000000, 0.000000000000000000, 0.000000000000000000, 0.000000000000000000, 0.000000000000000000, 0.000000000000000000 ) ;
#200 = SURFACE_SIDE_STYLE ('',( #104 ) ) ;
#201 = SURFACE_SIDE_STYLE ('',( #171 ) ) ;
#202 = EDGE_LOOP ( 'NONE', ( #257, #237 ) ) ;
#203 = DIRECTION ( 'NONE',  ( -0.000000000000000000, -1.000000000000000000, -0.000000000000000000 ) ) ;
#204 =( NAMED_UNIT ( * ) SI_UNIT ( $, .STERADIAN. ) SOLID_ANGLE_UNIT ( ) );
#205 = DIRECTION ( 'NONE',  ( -0.000000000000000000, -1.000000000000000000, -0.000000000000000000 ) ) ;
#206 = CIRCLE ( 'NONE', #228, 0.1875000000000000278 ) ;
#207 = DIRECTION ( 'NONE',  ( -1.000000000000000000, 4.082155997157844435E-17, 0.000000000000000000 ) ) ;
#208 = VERTEX_POINT ( 'NONE', #96 ) ;
#209 = FILL_AREA_STYLE_COLOUR ( '', #193 ) ;
#210 = MECHANICAL_DESIGN_GEOMETRIC_PRESENTATION_REPRESENTATION (  '', ( #61 ), #249 ) ;
#211 = PRESENTATION_STYLE_ASSIGNMENT (( #79 ) ) ;
#212 = CARTESIAN_POINT ( 'NONE',  ( 2.296212748401287726E-17, 0.000000000000000000, 0.1875000000000000278 ) ) ;
#213 = UNCERTAINTY_MEASURE_WITH_UNIT (LENGTH_MEASURE( 1.000000000000000082E-05 ), #243, 'distance_accuracy_value', 'NONE');
#214 = LENGTH_MEASURE_WITH_UNIT ( LENGTH_MEASURE( 0.02539999999999999897 ), #15 );
#215 = APPLICATION_PROTOCOL_DEFINITION ( 'draft international standard', 'automotive_design', 1998, #105 ) ;
#216 = DIRECTION ( 'NONE',  ( -0.000000000000000000, -1.000000000000000000, -0.000000000000000000 ) ) ;
#217 = DIRECTION ( 'NONE',  ( 4.082155997157844435E-17, 1.000000000000000000, -0.000000000000000000 ) ) ;
#218 = CIRCLE ( 'NONE', #95, 0.1875000000000000278 ) ;
#219 =( NAMED_UNIT ( * ) SI_UNIT ( $, .STERADIAN. ) SOLID_ANGLE_UNIT ( ) );
#220 = ORIENTED_EDGE ( 'NONE', *, *, #260, .T. ) ;
#221 = LENGTH_MEASURE_WITH_UNIT ( LENGTH_MEASURE( 0.02539999999999999897 ), #20 );
#222 = ORIENTED_EDGE ( 'NONE', *, *, #168, .T. ) ;
#223 = PRESENTATION_LAYER_ASSIGNMENT (  '', '', ( #27 ) ) ;
#224 = LENGTH_MEASURE_WITH_UNIT ( LENGTH_MEASURE( 0.02539999999999999897 ), #63 );
#225 = DIMENSIONAL_EXPONENTS ( 1.000000000000000000, 0.000000000000000000, 0.000000000000000000, 0.000000000000000000, 0.000000000000000000, 0.000000000000000000, 0.000000000000000000 ) ;
#226 = FILL_AREA_STYLE ('',( #124 ) ) ;
#227 = UNCERTAINTY_MEASURE_WITH_UNIT (LENGTH_MEASURE( 1.000000000000000082E-05 ), #151, 'distance_accuracy_value', 'NONE');
#228 = AXIS2_PLACEMENT_3D ( 'NONE', #287, #300, #85 ) ;
#229 = DIRECTION ( 'NONE',  ( -1.000000000000000000, 0.000000000000000000, 0.000000000000000000 ) ) ;
#230 = VERTEX_POINT ( 'NONE', #99 ) ;
#231 =( CONVERSION_BASED_UNIT ( 'INCH', #4 ) LENGTH_UNIT ( ) NAMED_UNIT ( #16 ) );
#232 = FACE_OUTER_BOUND ( 'NONE', #202, .T. ) ;
#233 = CARTESIAN_POINT ( 'NONE',  ( 0.000000000000000000, 0.5000000000000001110, 0.000000000000000000 ) ) ;
#234 = SURFACE_STYLE_FILL_AREA ( #136 ) ;
#235 = CARTESIAN_POINT ( 'NONE',  ( 1.562249773606102102E-34, 0.5000000000000000000, 0.000000000000000000 ) ) ;
#236 = EDGE_CURVE ( 'NONE', #38, #230, #108, .T. ) ;
#237 = ORIENTED_EDGE ( 'NONE', *, *, #67, .F. ) ;
#238 =( NAMED_UNIT ( * ) PLANE_ANGLE_UNIT ( ) SI_UNIT ( $, .RADIAN. ) );
#239 =( NAMED_UNIT ( * ) PLANE_ANGLE_UNIT ( ) SI_UNIT ( $, .RADIAN. ) );
#240 = CARTESIAN_POINT ( 'NONE',  ( 0.000000000000000000, 0.000000000000000000, -0.1875000000000000278 ) ) ;
#241 = AXIS2_PLACEMENT_3D ( 'NONE', #256, #282, #123 ) ;
#242 = PLANE ( 'NONE',  #60 ) ;
#243 =( CONVERSION_BASED_UNIT ( 'INCH', #165 ) LENGTH_UNIT ( ) NAMED_UNIT ( #172 ) );
#244 = FACE_OUTER_BOUND ( 'NONE', #41, .T. ) ;
#245 = DIRECTION ( 'NONE',  ( 4.082155997157844435E-17, 1.000000000000000000, -0.000000000000000000 ) ) ;
#246 = ORIENTED_EDGE ( 'NONE', *, *, #293, .F. ) ;
#247 = DIRECTION ( 'NONE',  ( -1.000000000000000000, 0.000000000000000000, 0.000000000000000000 ) ) ;
#248 = ORIENTED_EDGE ( 'NONE', *, *, #120, .T. ) ;
#249 =( GEOMETRIC_REPRESENTATION_CONTEXT ( 3 ) GLOBAL_UNCERTAINTY_ASSIGNED_CONTEXT ( ( #213 ) ) GLOBAL_UNIT_ASSIGNED_CONTEXT ( ( #243, #191, #26 ) ) REPRESENTATION_CONTEXT ( 'NONE', 'WORKASPACE' ) );
#250 = ADVANCED_FACE ( 'NONE', ( #297 ), #111, .T. ) ;
#251 = SURFACE_STYLE_USAGE ( .BOTH. , #201 ) ;
#252 = DIRECTION ( 'NONE',  ( 0.000000000000000000, 0.000000000000000000, -1.000000000000000000 ) ) ;
#253 = DIRECTION ( 'NONE',  ( -1.000000000000000000, 0.000000000000000000, 0.000000000000000000 ) ) ;
#254 = EDGE_LOOP ( 'NONE', ( #138, #302 ) ) ;
#255 = CARTESIAN_POINT ( 'NONE',  ( 6.123233995736766036E-17, 2.000000000000000000, 0.000000000000000000 ) ) ;
#256 = CARTESIAN_POINT ( 'NONE',  ( 6.123233995736766036E-17, 2.000000000000000000, 0.000000000000000000 ) ) ;
#257 = ORIENTED_EDGE ( 'NONE', *, *, #168, .F. ) ;
#258 = CIRCLE ( 'NONE', #241, 0.1874999999999999445 ) ;
#259 = AXIS2_PLACEMENT_3D ( 'NONE', #87, #182, #142 ) ;
#260 = EDGE_CURVE ( 'NONE', #126, #94, #218, .T. ) ;
#261 = PRESENTATION_LAYER_ASSIGNMENT (  '', '', ( #280 ) ) ;
#262 = COLOUR_RGB ( '',0.7921568627450980005, 0.8196078431372548767, 0.9333333333333333481 ) ;
#263 = VERTEX_POINT ( 'NONE', #288 ) ;
#264 = LINE ( 'NONE', #24, #283 ) ;
#265 = CYLINDRICAL_SURFACE ( 'NONE', #129, 0.1875000000000000278 ) ;
#266 = ORIENTED_EDGE ( 'NONE', *, *, #236, .F. ) ;
#267 = FACE_OUTER_BOUND ( 'NONE', #254, .T. ) ;
#268 = CARTESIAN_POINT ( 'NONE',  ( 0.000000000000000000, 0.000000000000000000, 0.000000000000000000 ) ) ;
#269 =( LENGTH_UNIT ( ) NAMED_UNIT ( * ) SI_UNIT ( $, .METRE. ) );
#270 = LENGTH_MEASURE_WITH_UNIT ( LENGTH_MEASURE( 0.02539999999999999897 ), #51 );
#271 = CIRCLE ( 'NONE', #198, 0.1875000000000000278 ) ;
#272 = PRODUCT ( '59905', '59905', '', ( #52 ) ) ;
#273 = DIRECTION ( 'NONE',  ( 1.000000000000000000, 0.000000000000000000, 0.000000000000000000 ) ) ;
#274 = ORIENTED_EDGE ( 'NONE', *, *, #103, .F. ) ;
#275 = PRESENTATION_STYLE_ASSIGNMENT (( #100 ) ) ;
#276 = DIRECTION ( 'NONE',  ( 4.082155997157844435E-17, 1.000000000000000000, -0.000000000000000000 ) ) ;
#277 = LINE ( 'NONE', #290, #295 ) ;
#278 = EDGE_CURVE ( 'NONE', #263, #230, #264, .T. ) ;
#279 = EDGE_LOOP ( 'NONE', ( #274, #12, #71, #266 ) ) ;
#280 = STYLED_ITEM ( 'NONE', ( #148 ), #45 ) ;
#281 = FACE_OUTER_BOUND ( 'NONE', #279, .T. ) ;
#282 = DIRECTION ( 'NONE',  ( 4.082155997157844435E-17, 1.000000000000000000, -0.000000000000000000 ) ) ;
#283 = VECTOR ( 'NONE', #93, 39.37007874015748143 ) ;
#284 = PLANE ( 'NONE',  #114 ) ;
#285 = DIRECTION ( 'NONE',  ( -1.000000000000000000, 0.000000000000000000, 0.000000000000000000 ) ) ;
#286 = FILL_AREA_STYLE ('',( #1 ) ) ;
#287 = CARTESIAN_POINT ( 'NONE',  ( 0.000000000000000000, 0.000000000000000000, 0.000000000000000000 ) ) ;
#288 = CARTESIAN_POINT ( 'NONE',  ( -0.1875000000000000278, 0.5000000000000001110, 0.000000000000000000 ) ) ;
#289 = FACE_OUTER_BOUND ( 'NONE', #294, .T. ) ;
#290 = CARTESIAN_POINT ( 'NONE',  ( 2.296212748401287726E-17, 0.000000000000000000, 0.1875000000000000278 ) ) ;
#291 =( CONVERSION_BASED_UNIT ( 'INCH', #221 ) LENGTH_UNIT ( ) NAMED_UNIT ( #106 ) );
#292 = FACE_OUTER_BOUND ( 'NONE', #141, .T. ) ;
#293 = EDGE_CURVE ( 'NONE', #208, #115, #81, .T. ) ;
#294 = EDGE_LOOP ( 'NONE', ( #246, #55 ) ) ;
#295 = VECTOR ( 'NONE', #203, 39.37007874015748143 ) ;
#296 = APPLICATION_PROTOCOL_DEFINITION ( 'draft international standard', 'automotive_design', 1998, #40 ) ;
#297 = FACE_OUTER_BOUND ( 'NONE', #70, .T. ) ;
#298 = MANIFOLD_SOLID_BREP ( 'Revolve - Tool Body (Straight Shanked)', #162 ) ;
#299 = PRESENTATION_LAYER_ASSIGNMENT (  '', '', ( #177 ) ) ;
#300 = DIRECTION ( 'NONE',  ( -0.000000000000000000, -1.000000000000000000, -0.000000000000000000 ) ) ;
#301 =( NAMED_UNIT ( * ) SI_UNIT ( $, .STERADIAN. ) SOLID_ANGLE_UNIT ( ) );
#302 = ORIENTED_EDGE ( 'NONE', *, *, #236, .T. ) ;
#303 =( GEOMETRIC_REPRESENTATION_CONTEXT ( 3 ) GLOBAL_UNCERTAINTY_ASSIGNED_CONTEXT ( ( #189 ) ) GLOBAL_UNIT_ASSIGNED_CONTEXT ( ( #231, #239, #112 ) ) REPRESENTATION_CONTEXT ( 'NONE', 'WORKASPACE' ) );
#304 = PRESENTATION_LAYER_ASSIGNMENT (  '', '', ( #160 ) ) ;
#305 = ADVANCED_FACE ( 'NONE', ( #102 ), #265, .T. ) ;
#306 = PRODUCT_DEFINITION_SHAPE ( 'NONE', 'NONE',  #158 ) ;
#307 = CARTESIAN_POINT ( 'NONE',  ( 0.000000000000000000, 0.000000000000000000, 0.000000000000000000 ) ) ;
#308 = AXIS2_PLACEMENT_3D ( 'NONE', #235, #18, #207 ) ;
#309 = AXIS2_PLACEMENT_3D ( 'NONE', #179, #173, #247 ) ;
ENDSEC;
END-ISO-10303-21;
