ISO-10303-21;
HEADER;
FILE_DESCRIPTION (( 'STEP AP214' ),
    '1' );
FILE_NAME ('Micro_AEMM-030-4X.STEP',
    '2022-03-15T14:24:26',
    ( '' ),
    ( '' ),
    'SwSTEP 2.0',
    'SolidWorks 2022',
    '' );
FILE_SCHEMA (( 'AUTOMOTIVE_DESIGN' ));
ENDSEC;

DATA;
#1 = AXIS2_PLACEMENT_3D ( 'NONE', #47, #145, #120 ) ;
#2 = CARTESIAN_POINT ( 'NONE',  ( 3.857159805062494824E-17, 0.000000000000000000, 0.3149609999999999910 ) ) ;
#3 = DIMENSIONAL_EXPONENTS ( 1.000000000000000000, 0.000000000000000000, 0.000000000000000000, 0.000000000000000000, 0.000000000000000000, 0.000000000000000000, 0.000000000000000000 ) ;
#4 = SURFACE_STYLE_FILL_AREA ( #161 ) ;
#5 = AXIS2_PLACEMENT_3D ( 'NONE', #2, #13, #63 ) ;
#6 = LINE ( 'NONE', #26, #282 ) ;
#7 = LINE ( 'NONE', #96, #64 ) ;
#8 = AXIS2_PLACEMENT_3D ( 'NONE', #276, #191, #218 ) ;
#9 = AXIS2_PLACEMENT_3D ( 'NONE', #292, #80, #274 ) ;
#10 = AXIS2_PLACEMENT_3D ( 'NONE', #186, #94, #261 ) ;
#11 = ORIENTED_EDGE ( 'NONE', *, *, #136, .T. ) ;
#12 = FACE_OUTER_BOUND ( 'NONE', #54, .T. ) ;
#13 = DIRECTION ( 'NONE',  ( -1.224646799147353207E-16, -0.000000000000000000, -1.000000000000000000 ) ) ;
#14 = MECHANICAL_DESIGN_GEOMETRIC_PRESENTATION_REPRESENTATION (  '', ( #108 ), #98 ) ;
#15 = ADVANCED_FACE ( 'NONE', ( #87 ), #221, .T. ) ;
#16 = PRODUCT_CONTEXT ( 'NONE', #137, 'mechanical' ) ;
#17 = ORIENTED_EDGE ( 'NONE', *, *, #136, .F. ) ;
#18 = DIRECTION ( 'NONE',  ( -0.000000000000000000, -0.000000000000000000, -1.000000000000000000 ) ) ;
#19 = ORIENTED_EDGE ( 'NONE', *, *, #234, .T. ) ;
#20 = AXIS2_PLACEMENT_3D ( 'NONE', #173, #104, #125 ) ;
#21 = DIRECTION ( 'NONE',  ( -1.224646799147353207E-16, -0.000000000000000000, -1.000000000000000000 ) ) ;
#22 = DIMENSIONAL_EXPONENTS ( 1.000000000000000000, 0.000000000000000000, 0.000000000000000000, 0.000000000000000000, 0.000000000000000000, 0.000000000000000000, 0.000000000000000000 ) ;
#23 =( NAMED_UNIT ( * ) SI_UNIT ( $, .STERADIAN. ) SOLID_ANGLE_UNIT ( ) );
#24 = DIRECTION ( 'NONE',  ( 1.000000000000000000, 0.000000000000000000, 0.000000000000000000 ) ) ;
#25 = EDGE_CURVE ( 'NONE', #88, #91, #134, .T. ) ;
#26 = CARTESIAN_POINT ( 'NONE',  ( -0.05899594499999993857, 7.224919520692326607E-18, 0.3149609999999999910 ) ) ;
#27 = ORIENTED_EDGE ( 'NONE', *, *, #76, .F. ) ;
#28 = PRODUCT_DEFINITION ( 'UNKNOWN', '', #148, #123 ) ;
#29 = VECTOR ( 'NONE', #139, 39.37007874015748143 ) ;
#30 = DIRECTION ( 'NONE',  ( 0.000000000000000000, 0.000000000000000000, 1.000000000000000000 ) ) ;
#31 = CARTESIAN_POINT ( 'NONE',  ( -0.1031100000000002570, 0.000000000000000000, 2.244094000000000033 ) ) ;
#32 = COLOUR_RGB ( '',0.7921568627450980005, 0.8196078431372548767, 0.9333333333333333481 ) ;
#33 = ORIENTED_EDGE ( 'NONE', *, *, #25, .F. ) ;
#34 = CARTESIAN_POINT ( 'NONE',  ( 0.000000000000000000, 0.000000000000000000, 0.000000000000000000 ) ) ;
#35 =( CONVERSION_BASED_UNIT ( 'INCH', #131 ) LENGTH_UNIT ( ) NAMED_UNIT ( #22 ) );
#36 = APPLICATION_PROTOCOL_DEFINITION ( 'draft international standard', 'automotive_design', 1998, #137 ) ;
#37 = CIRCLE ( 'NONE', #290, 0.1031100000000002570 ) ;
#38 = DIRECTION ( 'NONE',  ( -1.000000000000000000, 0.000000000000000000, 0.000000000000000000 ) ) ;
#39 = ORIENTED_EDGE ( 'NONE', *, *, #298, .T. ) ;
#40 =( NAMED_UNIT ( * ) PLANE_ANGLE_UNIT ( ) SI_UNIT ( $, .RADIAN. ) );
#41 = DIRECTION ( 'NONE',  ( -0.1736481776669311916, 2.126576849575783316E-17, 0.9848077530122080203 ) ) ;
#42 = ADVANCED_FACE ( 'NONE', ( #279 ), #255, .T. ) ;
#43 = CARTESIAN_POINT ( 'NONE',  ( 0.000000000000000000, 0.000000000000000000, 2.229093999999999465 ) ) ;
#44 = VECTOR ( 'NONE', #157, 39.37007874015748143 ) ;
#45 = LINE ( 'NONE', #240, #207 ) ;
#46 = ORIENTED_EDGE ( 'NONE', *, *, #231, .F. ) ;
#47 = CARTESIAN_POINT ( 'NONE',  ( 0.000000000000000000, 0.000000000000000000, 2.244094000000000033 ) ) ;
#48 = ORIENTED_EDGE ( 'NONE', *, *, #142, .F. ) ;
#49 = VECTOR ( 'NONE', #155, 39.37007874015748143 ) ;
#50 = UNCERTAINTY_MEASURE_WITH_UNIT (LENGTH_MEASURE( 1.000000000000000082E-05 ), #35, 'distance_accuracy_value', 'NONE');
#51 = EDGE_CURVE ( 'NONE', #180, #91, #112, .T. ) ;
#52 = ORIENTED_EDGE ( 'NONE', *, *, #121, .F. ) ;
#53 = PLANE ( 'NONE',  #20 ) ;
#54 = EDGE_LOOP ( 'NONE', ( #17, #81, #122, #72 ) ) ;
#55 = PRESENTATION_LAYER_ASSIGNMENT (  '', '', ( #108 ) ) ;
#56 = ADVANCED_FACE ( 'NONE', ( #58 ), #206, .T. ) ;
#57 = SURFACE_STYLE_USAGE ( .BOTH. , #183 ) ;
#58 = FACE_OUTER_BOUND ( 'NONE', #297, .T. ) ;
#59 = CARTESIAN_POINT ( 'NONE',  ( 0.05899594500000001490, 7.224919520692329689E-18, -1.895600338963814870E-33 ) ) ;
#60 =( NAMED_UNIT ( * ) PLANE_ANGLE_UNIT ( ) SI_UNIT ( $, .RADIAN. ) );
#61 = STYLED_ITEM ( 'NONE', ( #250 ), #244 ) ;
#62 = CARTESIAN_POINT ( 'NONE',  ( 0.000000000000000000, 0.000000000000000000, 2.244094000000000033 ) ) ;
#63 = DIRECTION ( 'NONE',  ( -1.000000000000000000, 0.000000000000000000, 0.000000000000000000 ) ) ;
#64 = VECTOR ( 'NONE', #285, 39.37007874015748854 ) ;
#65 = DIRECTION ( 'NONE',  ( -0.000000000000000000, -0.000000000000000000, -1.000000000000000000 ) ) ;
#66 = EDGE_CURVE ( 'NONE', #180, #189, #89, .T. ) ;
#67 = PRESENTATION_STYLE_ASSIGNMENT (( #185 ) ) ;
#68 = CARTESIAN_POINT ( 'NONE',  ( 8.847974565113091896E-34, 0.000000000000000000, 7.224919520692329689E-18 ) ) ;
#69 = AXIS2_PLACEMENT_3D ( 'NONE', #119, #138, #116 ) ;
#70 =( GEOMETRIC_REPRESENTATION_CONTEXT ( 3 ) GLOBAL_UNCERTAINTY_ASSIGNED_CONTEXT ( ( #77 ) ) GLOBAL_UNIT_ASSIGNED_CONTEXT ( ( #225, #247, #220 ) ) REPRESENTATION_CONTEXT ( 'NONE', 'WORKASPACE' ) );
#71 = ORIENTED_EDGE ( 'NONE', *, *, #156, .F. ) ;
#72 = ORIENTED_EDGE ( 'NONE', *, *, #142, .T. ) ;
#73 = DIRECTION ( 'NONE',  ( 1.000000000000000000, 0.000000000000000000, 0.000000000000000000 ) ) ;
#74 = ORIENTED_EDGE ( 'NONE', *, *, #90, .T. ) ;
#75 = CIRCLE ( 'NONE', #253, 0.1181100000000000066 ) ;
#76 = EDGE_CURVE ( 'NONE', #78, #180, #272, .T. ) ;
#77 = UNCERTAINTY_MEASURE_WITH_UNIT (LENGTH_MEASURE( 1.000000000000000082E-05 ), #225, 'distance_accuracy_value', 'NONE');
#78 = VERTEX_POINT ( 'NONE', #79 ) ;
#79 = CARTESIAN_POINT ( 'NONE',  ( 0.1031100000000002570, 1.354581824536888722E-17, 2.244094000000000033 ) ) ;
#80 = DIRECTION ( 'NONE',  ( 1.224646799147353207E-16, 0.000000000000000000, 1.000000000000000000 ) ) ;
#81 = ORIENTED_EDGE ( 'NONE', *, *, #203, .F. ) ;
#82 =( CONVERSION_BASED_UNIT ( 'INCH', #293 ) LENGTH_UNIT ( ) NAMED_UNIT ( #3 ) );
#83 = PLANE ( 'NONE',  #103 ) ;
#84 = SURFACE_STYLE_FILL_AREA ( #86 ) ;
#85 = EDGE_CURVE ( 'NONE', #88, #232, #165, .T. ) ;
#86 = FILL_AREA_STYLE ('',( #92 ) ) ;
#87 = FACE_OUTER_BOUND ( 'NONE', #197, .T. ) ;
#88 = VERTEX_POINT ( 'NONE', #167 ) ;
#89 = CIRCLE ( 'NONE', #214, 0.1181100000000000066 ) ;
#90 = EDGE_CURVE ( 'NONE', #271, #91, #75, .T. ) ;
#91 = VERTEX_POINT ( 'NONE', #238 ) ;
#92 = FILL_AREA_STYLE_COLOUR ( '', #32 ) ;
#93 = SURFACE_SIDE_STYLE ('',( #4 ) ) ;
#94 = DIRECTION ( 'NONE',  ( 0.000000000000000000, 0.000000000000000000, -1.000000000000000000 ) ) ;
#95 =( LENGTH_UNIT ( ) NAMED_UNIT ( * ) SI_UNIT ( $, .METRE. ) );
#96 = CARTESIAN_POINT ( 'NONE',  ( -0.1031100000000002570, 0.000000000000000000, 2.244094000000000033 ) ) ;
#97 = ORIENTED_EDGE ( 'NONE', *, *, #66, .F. ) ;
#98 =( GEOMETRIC_REPRESENTATION_CONTEXT ( 3 ) GLOBAL_UNCERTAINTY_ASSIGNED_CONTEXT ( ( #50 ) ) GLOBAL_UNIT_ASSIGNED_CONTEXT ( ( #35, #60, #176 ) ) REPRESENTATION_CONTEXT ( 'NONE', 'WORKASPACE' ) );
#99 = ORIENTED_EDGE ( 'NONE', *, *, #121, .T. ) ;
#100 = ORIENTED_EDGE ( 'NONE', *, *, #133, .T. ) ;
#101 = EDGE_CURVE ( 'NONE', #223, #147, #162, .T. ) ;
#102 = SHAPE_DEFINITION_REPRESENTATION ( #110, #237 ) ;
#103 = AXIS2_PLACEMENT_3D ( 'NONE', #270, #30, #249 ) ;
#104 = DIRECTION ( 'NONE',  ( 0.000000000000000000, 0.000000000000000000, 1.000000000000000000 ) ) ;
#105 = DIRECTION ( 'NONE',  ( -0.000000000000000000, -0.000000000000000000, -1.000000000000000000 ) ) ;
#106 = DIRECTION ( 'NONE',  ( 0.000000000000000000, 0.000000000000000000, 1.000000000000000000 ) ) ;
#107 = CARTESIAN_POINT ( 'NONE',  ( -0.05899594499999993857, 1.084461143271085796E-17, 0.3149609999999999910 ) ) ;
#108 = STYLED_ITEM ( 'NONE', ( #67 ), #237 ) ;
#109 = ORIENTED_EDGE ( 'NONE', *, *, #298, .F. ) ;
#110 = PRODUCT_DEFINITION_SHAPE ( 'NONE', 'NONE',  #28 ) ;
#111 = CARTESIAN_POINT ( 'NONE',  ( 0.000000000000000000, 0.000000000000000000, 2.244094000000000033 ) ) ;
#112 = LINE ( 'NONE', #182, #49 ) ;
#113 = CONICAL_SURFACE ( 'NONE', #9, 0.05899594499999998021, 0.1745329251994338915 ) ;
#114 = DIRECTION ( 'NONE',  ( 0.000000000000000000, 0.000000000000000000, -1.000000000000000000 ) ) ;
#115 = DIRECTION ( 'NONE',  ( -1.000000000000000000, 0.000000000000000000, 1.224646799147352961E-16 ) ) ;
#116 = DIRECTION ( 'NONE',  ( 1.000000000000000000, 0.000000000000000000, 0.000000000000000000 ) ) ;
#117 = CIRCLE ( 'NONE', #69, 0.1181100000000000066 ) ;
#118 = AXIS2_PLACEMENT_3D ( 'NONE', #252, #154, #228 ) ;
#119 = CARTESIAN_POINT ( 'NONE',  ( 7.962818391712065690E-17, 0.000000000000000000, 0.6502134654053797203 ) ) ;
#120 = DIRECTION ( 'NONE',  ( 1.000000000000000000, 0.000000000000000000, 0.000000000000000000 ) ) ;
#121 = EDGE_CURVE ( 'NONE', #264, #78, #174, .T. ) ;
#122 = ORIENTED_EDGE ( 'NONE', *, *, #25, .T. ) ;
#123 = PRODUCT_DEFINITION_CONTEXT ( 'detailed design', #256, 'design' ) ;
#124 = VECTOR ( 'NONE', #219, 39.37007874015748854 ) ;
#125 = DIRECTION ( 'NONE',  ( 1.000000000000000000, 0.000000000000000000, -0.000000000000000000 ) ) ;
#126 =( LENGTH_UNIT ( ) NAMED_UNIT ( * ) SI_UNIT ( $, .METRE. ) );
#127 = DIRECTION ( 'NONE',  ( 1.000000000000000000, 0.000000000000000000, 0.000000000000000000 ) ) ;
#128 = CYLINDRICAL_SURFACE ( 'NONE', #153, 0.05899594499999998715 ) ;
#129 = CONICAL_SURFACE ( 'NONE', #236, 0.05899594499999998021, 0.1745329251994338915 ) ;
#130 = CARTESIAN_POINT ( 'NONE',  ( 3.857159805062494824E-17, 0.000000000000000000, 0.3149609999999999910 ) ) ;
#131 = LENGTH_MEASURE_WITH_UNIT ( LENGTH_MEASURE( 0.02539999999999999897 ), #95 );
#132 = ORIENTED_EDGE ( 'NONE', *, *, #85, .T. ) ;
#133 = EDGE_CURVE ( 'NONE', #189, #271, #45, .T. ) ;
#134 = LINE ( 'NONE', #208, #44 ) ;
#135 = EDGE_LOOP ( 'NONE', ( #150, #242, #266, #291 ) ) ;
#136 = EDGE_CURVE ( 'NONE', #223, #271, #6, .T. ) ;
#137 = APPLICATION_CONTEXT ( 'automotive_design' ) ;
#138 = DIRECTION ( 'NONE',  ( -1.224646799147353207E-16, -0.000000000000000000, -1.000000000000000000 ) ) ;
#139 = DIRECTION ( 'NONE',  ( -1.224646799147353207E-16, -0.000000000000000000, -1.000000000000000000 ) ) ;
#140 = CLOSED_SHELL ( 'NONE', ( #56, #245, #15, #42, #210, #267, #146, #217, #280, #288 ) ) ;
#141 = PRODUCT ( 'Micro_AEMM-030-4X', 'Micro_AEMM-030-4X', '', ( #16 ) ) ;
#142 = EDGE_CURVE ( 'NONE', #91, #271, #117, .T. ) ;
#143 = CARTESIAN_POINT ( 'NONE',  ( 0.05899594499999998715, 7.224919520692328148E-18, -7.224919520692328148E-18 ) ) ;
#144 = EDGE_LOOP ( 'NONE', ( #27, #52, #296, #97 ) ) ;
#145 = DIRECTION ( 'NONE',  ( 0.000000000000000000, 0.000000000000000000, 1.000000000000000000 ) ) ;
#146 = ADVANCED_FACE ( 'NONE', ( #235 ), #277, .T. ) ;
#147 = VERTEX_POINT ( 'NONE', #212 ) ;
#148 = PRODUCT_DEFINITION_FORMATION_WITH_SPECIFIED_SOURCE ( 'ANY', '', #141, .NOT_KNOWN. ) ;
#149 = LENGTH_MEASURE_WITH_UNIT ( LENGTH_MEASURE( 0.02539999999999999897 ), #126 );
#150 = ORIENTED_EDGE ( 'NONE', *, *, #85, .F. ) ;
#151 = CARTESIAN_POINT ( 'NONE',  ( 0.000000000000000000, 0.000000000000000000, 2.244094000000000033 ) ) ;
#152 = CIRCLE ( 'NONE', #166, 0.1181100000000000066 ) ;
#153 = AXIS2_PLACEMENT_3D ( 'NONE', #34, #195, #248 ) ;
#154 = DIRECTION ( 'NONE',  ( 0.000000000000000000, 0.000000000000000000, 1.000000000000000000 ) ) ;
#155 = DIRECTION ( 'NONE',  ( -0.000000000000000000, -0.000000000000000000, -1.000000000000000000 ) ) ;
#156 = EDGE_CURVE ( 'NONE', #189, #180, #152, .T. ) ;
#157 = DIRECTION ( 'NONE',  ( 0.1736481776669313859, 0.000000000000000000, 0.9848077530122077983 ) ) ;
#158 = ORIENTED_EDGE ( 'NONE', *, *, #156, .T. ) ;
#159 = AXIS2_PLACEMENT_3D ( 'NONE', #201, #105, #278 ) ;
#160 = CARTESIAN_POINT ( 'NONE',  ( -0.1181100000000000066, 0.000000000000000000, 2.229093999999999465 ) ) ;
#161 = FILL_AREA_STYLE ('',( #281 ) ) ;
#162 = LINE ( 'NONE', #260, #29 ) ;
#163 = DIRECTION ( 'NONE',  ( -1.224646799147353207E-16, -0.000000000000000000, -1.000000000000000000 ) ) ;
#164 = PRODUCT_RELATED_PRODUCT_CATEGORY ( 'part', '', ( #141 ) ) ;
#165 = LINE ( 'NONE', #143, #233 ) ;
#166 = AXIS2_PLACEMENT_3D ( 'NONE', #43, #283, #24 ) ;
#167 = CARTESIAN_POINT ( 'NONE',  ( 0.05899594500000002184, 0.000000000000000000, 0.3149609999999999910 ) ) ;
#168 = ORIENTED_EDGE ( 'NONE', *, *, #51, .T. ) ;
#169 = CIRCLE ( 'NONE', #222, 0.05899594500000000796 ) ;
#170 = FACE_OUTER_BOUND ( 'NONE', #216, .T. ) ;
#171 = APPLICATION_PROTOCOL_DEFINITION ( 'draft international standard', 'automotive_design', 1998, #256 ) ;
#172 = EDGE_LOOP ( 'NONE', ( #46, #11, #74, #33 ) ) ;
#173 = CARTESIAN_POINT ( 'NONE',  ( 0.000000000000000000, 0.000000000000000000, 0.000000000000000000 ) ) ;
#174 = CIRCLE ( 'NONE', #1, 0.1031100000000002570 ) ;
#175 = CIRCLE ( 'NONE', #181, 0.05899594500000000796 ) ;
#176 =( NAMED_UNIT ( * ) SI_UNIT ( $, .STERADIAN. ) SOLID_ANGLE_UNIT ( ) );
#177 = DIRECTION ( 'NONE',  ( -1.000000000000000000, 0.000000000000000000, 0.000000000000000000 ) ) ;
#178 = EDGE_CURVE ( 'NONE', #264, #189, #7, .T. ) ;
#179 = ORIENTED_EDGE ( 'NONE', *, *, #76, .T. ) ;
#180 = VERTEX_POINT ( 'NONE', #187 ) ;
#181 = AXIS2_PLACEMENT_3D ( 'NONE', #68, #286, #211 ) ;
#182 = CARTESIAN_POINT ( 'NONE',  ( 0.1181100000000000066, 1.446430334472939084E-17, 2.244094000000000033 ) ) ;
#183 = SURFACE_SIDE_STYLE ('',( #84 ) ) ;
#184 = DIMENSIONAL_EXPONENTS ( 1.000000000000000000, 0.000000000000000000, 0.000000000000000000, 0.000000000000000000, 0.000000000000000000, 0.000000000000000000, 0.000000000000000000 ) ;
#185 = SURFACE_STYLE_USAGE ( .BOTH. , #93 ) ;
#186 = CARTESIAN_POINT ( 'NONE',  ( 0.000000000000000000, 0.000000000000000000, 2.244094000000000033 ) ) ;
#187 = CARTESIAN_POINT ( 'NONE',  ( 0.1181100000000000066, 1.446430334472939084E-17, 2.229093999999999465 ) ) ;
#188 = COLOUR_RGB ( '',0.7921568627450980005, 0.8196078431372548767, 0.9333333333333333481 ) ;
#189 = VERTEX_POINT ( 'NONE', #160 ) ;
#190 = ORIENTED_EDGE ( 'NONE', *, *, #234, .F. ) ;
#191 = DIRECTION ( 'NONE',  ( -1.224646799147353207E-16, -0.000000000000000000, -1.000000000000000000 ) ) ;
#192 = CIRCLE ( 'NONE', #229, 0.05899594499999998021 ) ;
#193 = CARTESIAN_POINT ( 'NONE',  ( 0.000000000000000000, 0.000000000000000000, 2.229093999999999465 ) ) ;
#194 = EDGE_CURVE ( 'NONE', #232, #147, #175, .T. ) ;
#195 = DIRECTION ( 'NONE',  ( -1.224646799147353207E-16, -0.000000000000000000, -1.000000000000000000 ) ) ;
#196 = FACE_OUTER_BOUND ( 'NONE', #172, .T. ) ;
#197 = EDGE_LOOP ( 'NONE', ( #109, #179, #71, #251 ) ) ;
#198 =( LENGTH_UNIT ( ) NAMED_UNIT ( * ) SI_UNIT ( $, .METRE. ) );
#199 = CARTESIAN_POINT ( 'NONE',  ( 8.847974565113091896E-34, 0.000000000000000000, 7.224919520692329689E-18 ) ) ;
#200 = CARTESIAN_POINT ( 'NONE',  ( -0.1181099999999999234, 0.000000000000000000, 0.6502134654053797203 ) ) ;
#201 = CARTESIAN_POINT ( 'NONE',  ( 0.000000000000000000, 0.000000000000000000, 2.244094000000000033 ) ) ;
#202 = ORIENTED_EDGE ( 'NONE', *, *, #231, .T. ) ;
#203 = EDGE_CURVE ( 'NONE', #88, #223, #192, .T. ) ;
#204 = DIRECTION ( 'NONE',  ( -1.000000000000000000, 0.000000000000000000, 0.000000000000000000 ) ) ;
#205 = ORIENTED_EDGE ( 'NONE', *, *, #133, .F. ) ;
#206 = CYLINDRICAL_SURFACE ( 'NONE', #8, 0.05899594499999998715 ) ;
#207 = VECTOR ( 'NONE', #65, 39.37007874015748143 ) ;
#208 = CARTESIAN_POINT ( 'NONE',  ( 0.05899594500000002184, 0.000000000000000000, 0.3149609999999999910 ) ) ;
#209 = DIRECTION ( 'NONE',  ( 1.224646799147353207E-16, 0.000000000000000000, 1.000000000000000000 ) ) ;
#210 = ADVANCED_FACE ( 'NONE', ( #227 ), #257, .T. ) ;
#211 = DIRECTION ( 'NONE',  ( -1.000000000000000000, 0.000000000000000000, 1.224646799147352961E-16 ) ) ;
#212 = CARTESIAN_POINT ( 'NONE',  ( -0.05899594500000000796, 0.000000000000000000, 1.444983904138465938E-17 ) ) ;
#213 = ORIENTED_EDGE ( 'NONE', *, *, #90, .F. ) ;
#214 = AXIS2_PLACEMENT_3D ( 'NONE', #193, #289, #269 ) ;
#215 = ORIENTED_EDGE ( 'NONE', *, *, #194, .T. ) ;
#216 = EDGE_LOOP ( 'NONE', ( #99, #39 ) ) ;
#217 = ADVANCED_FACE ( 'NONE', ( #12 ), #129, .T. ) ;
#218 = DIRECTION ( 'NONE',  ( -1.000000000000000000, 0.000000000000000000, 1.224646799147353207E-16 ) ) ;
#219 = DIRECTION ( 'NONE',  ( 0.7071067811865358044, 8.659560562354788645E-17, -0.7071067811865590080 ) ) ;
#220 =( NAMED_UNIT ( * ) SI_UNIT ( $, .STERADIAN. ) SOLID_ANGLE_UNIT ( ) );
#221 = CONICAL_SURFACE ( 'NONE', #295, 0.1031100000000002570, 0.7853981633974318477 ) ;
#222 = AXIS2_PLACEMENT_3D ( 'NONE', #199, #21, #115 ) ;
#223 = VERTEX_POINT ( 'NONE', #107 ) ;
#224 = DIRECTION ( 'NONE',  ( 1.000000000000000000, 0.000000000000000000, 0.000000000000000000 ) ) ;
#225 =( CONVERSION_BASED_UNIT ( 'INCH', #149 ) LENGTH_UNIT ( ) NAMED_UNIT ( #184 ) );
#226 = FACE_OUTER_BOUND ( 'NONE', #230, .T. ) ;
#227 = FACE_OUTER_BOUND ( 'NONE', #275, .T. ) ;
#228 = DIRECTION ( 'NONE',  ( 1.000000000000000000, 0.000000000000000000, 0.000000000000000000 ) ) ;
#229 = AXIS2_PLACEMENT_3D ( 'NONE', #259, #163, #204 ) ;
#230 = EDGE_LOOP ( 'NONE', ( #19, #215 ) ) ;
#231 = EDGE_CURVE ( 'NONE', #223, #88, #258, .T. ) ;
#232 = VERTEX_POINT ( 'NONE', #59 ) ;
#233 = VECTOR ( 'NONE', #243, 39.37007874015748143 ) ;
#234 = EDGE_CURVE ( 'NONE', #147, #232, #169, .T. ) ;
#235 = FACE_OUTER_BOUND ( 'NONE', #144, .T. ) ;
#236 = AXIS2_PLACEMENT_3D ( 'NONE', #130, #209, #127 ) ;
#237 = ADVANCED_BREP_SHAPE_REPRESENTATION ( 'Micro_AEMM-030-4X', ( #244, #118 ), #254 ) ;
#238 = CARTESIAN_POINT ( 'NONE',  ( 0.1181100000000000899, 1.446430334472940009E-17, 0.6502134654053797203 ) ) ;
#239 = EDGE_LOOP ( 'NONE', ( #158, #168, #213, #205 ) ) ;
#240 = CARTESIAN_POINT ( 'NONE',  ( -0.1181100000000000066, 0.000000000000000000, 2.244094000000000033 ) ) ;
#241 = MECHANICAL_DESIGN_GEOMETRIC_PRESENTATION_REPRESENTATION (  '', ( #61 ), #70 ) ;
#242 = ORIENTED_EDGE ( 'NONE', *, *, #203, .T. ) ;
#243 = DIRECTION ( 'NONE',  ( -1.224646799147353207E-16, -0.000000000000000000, -1.000000000000000000 ) ) ;
#244 = MANIFOLD_SOLID_BREP ( 'Cut-Revolve1', #140 ) ;
#245 = ADVANCED_FACE ( 'NONE', ( #196 ), #113, .T. ) ;
#246 = ORIENTED_EDGE ( 'NONE', *, *, #101, .F. ) ;
#247 =( NAMED_UNIT ( * ) PLANE_ANGLE_UNIT ( ) SI_UNIT ( $, .RADIAN. ) );
#248 = DIRECTION ( 'NONE',  ( -1.000000000000000000, 0.000000000000000000, 1.224646799147353207E-16 ) ) ;
#249 = DIRECTION ( 'NONE',  ( 1.000000000000000000, 0.000000000000000000, -0.000000000000000000 ) ) ;
#250 = PRESENTATION_STYLE_ASSIGNMENT (( #57 ) ) ;
#251 = ORIENTED_EDGE ( 'NONE', *, *, #178, .F. ) ;
#252 = CARTESIAN_POINT ( 'NONE',  ( 0.000000000000000000, 0.000000000000000000, 0.000000000000000000 ) ) ;
#253 = AXIS2_PLACEMENT_3D ( 'NONE', #265, #284, #73 ) ;
#254 =( GEOMETRIC_REPRESENTATION_CONTEXT ( 3 ) GLOBAL_UNCERTAINTY_ASSIGNED_CONTEXT ( ( #287 ) ) GLOBAL_UNIT_ASSIGNED_CONTEXT ( ( #82, #40, #23 ) ) REPRESENTATION_CONTEXT ( 'NONE', 'WORKASPACE' ) );
#255 = CYLINDRICAL_SURFACE ( 'NONE', #262, 0.1181100000000000066 ) ;
#256 = APPLICATION_CONTEXT ( 'automotive_design' ) ;
#257 = CYLINDRICAL_SURFACE ( 'NONE', #159, 0.1181100000000000066 ) ;
#258 = CIRCLE ( 'NONE', #5, 0.05899594499999998021 ) ;
#259 = CARTESIAN_POINT ( 'NONE',  ( 3.857159805062494824E-17, 0.000000000000000000, 0.3149609999999999910 ) ) ;
#260 = CARTESIAN_POINT ( 'NONE',  ( -0.05899594499999998715, 0.000000000000000000, 7.224919520692328148E-18 ) ) ;
#261 = DIRECTION ( 'NONE',  ( -1.000000000000000000, 0.000000000000000000, 0.000000000000000000 ) ) ;
#262 = AXIS2_PLACEMENT_3D ( 'NONE', #111, #18, #38 ) ;
#263 = PRESENTATION_LAYER_ASSIGNMENT (  '', '', ( #61 ) ) ;
#264 = VERTEX_POINT ( 'NONE', #31 ) ;
#265 = CARTESIAN_POINT ( 'NONE',  ( 7.962818391712065690E-17, 0.000000000000000000, 0.6502134654053797203 ) ) ;
#266 = ORIENTED_EDGE ( 'NONE', *, *, #101, .T. ) ;
#267 = ADVANCED_FACE ( 'NONE', ( #170 ), #83, .T. ) ;
#268 = ORIENTED_EDGE ( 'NONE', *, *, #51, .F. ) ;
#269 = DIRECTION ( 'NONE',  ( 1.000000000000000000, 0.000000000000000000, 0.000000000000000000 ) ) ;
#270 = CARTESIAN_POINT ( 'NONE',  ( 0.000000000000000000, 0.000000000000000000, 2.244094000000000033 ) ) ;
#271 = VERTEX_POINT ( 'NONE', #200 ) ;
#272 = LINE ( 'NONE', #294, #124 ) ;
#273 = FACE_OUTER_BOUND ( 'NONE', #135, .T. ) ;
#274 = DIRECTION ( 'NONE',  ( 1.000000000000000000, 0.000000000000000000, 0.000000000000000000 ) ) ;
#275 = EDGE_LOOP ( 'NONE', ( #268, #299, #100, #48 ) ) ;
#276 = CARTESIAN_POINT ( 'NONE',  ( 0.000000000000000000, 0.000000000000000000, 0.000000000000000000 ) ) ;
#277 = CONICAL_SURFACE ( 'NONE', #10, 0.1031100000000002570, 0.7853981633974318477 ) ;
#278 = DIRECTION ( 'NONE',  ( -1.000000000000000000, 0.000000000000000000, 0.000000000000000000 ) ) ;
#279 = FACE_OUTER_BOUND ( 'NONE', #239, .T. ) ;
#280 = ADVANCED_FACE ( 'NONE', ( #273 ), #128, .T. ) ;
#281 = FILL_AREA_STYLE_COLOUR ( '', #188 ) ;
#282 = VECTOR ( 'NONE', #41, 39.37007874015747433 ) ;
#283 = DIRECTION ( 'NONE',  ( 0.000000000000000000, 0.000000000000000000, -1.000000000000000000 ) ) ;
#284 = DIRECTION ( 'NONE',  ( -1.224646799147353207E-16, -0.000000000000000000, -1.000000000000000000 ) ) ;
#285 = DIRECTION ( 'NONE',  ( -0.7071067811865358044, 0.000000000000000000, -0.7071067811865590080 ) ) ;
#286 = DIRECTION ( 'NONE',  ( -1.224646799147353207E-16, -0.000000000000000000, -1.000000000000000000 ) ) ;
#287 = UNCERTAINTY_MEASURE_WITH_UNIT (LENGTH_MEASURE( 1.000000000000000082E-05 ), #82, 'distance_accuracy_value', 'NONE');
#288 = ADVANCED_FACE ( 'NONE', ( #226 ), #53, .F. ) ;
#289 = DIRECTION ( 'NONE',  ( 0.000000000000000000, 0.000000000000000000, -1.000000000000000000 ) ) ;
#290 = AXIS2_PLACEMENT_3D ( 'NONE', #151, #106, #224 ) ;
#291 = ORIENTED_EDGE ( 'NONE', *, *, #194, .F. ) ;
#292 = CARTESIAN_POINT ( 'NONE',  ( 3.857159805062494824E-17, 0.000000000000000000, 0.3149609999999999910 ) ) ;
#293 = LENGTH_MEASURE_WITH_UNIT ( LENGTH_MEASURE( 0.02539999999999999897 ), #198 );
#294 = CARTESIAN_POINT ( 'NONE',  ( 0.1031100000000002570, 1.262733314600838667E-17, 2.244094000000000033 ) ) ;
#295 = AXIS2_PLACEMENT_3D ( 'NONE', #62, #114, #177 ) ;
#296 = ORIENTED_EDGE ( 'NONE', *, *, #178, .T. ) ;
#297 = EDGE_LOOP ( 'NONE', ( #202, #132, #190, #246 ) ) ;
#298 = EDGE_CURVE ( 'NONE', #78, #264, #37, .T. ) ;
#299 = ORIENTED_EDGE ( 'NONE', *, *, #66, .T. ) ;
ENDSEC;
END-ISO-10303-21;
