ISO-10303-21;
HEADER;
FILE_DESCRIPTION (( 'STEP AP214' ),
    '1' );
FILE_NAME ('Micro_EMHM-080-4.STEP',
    '2021-09-01T17:23:06',
    ( '' ),
    ( '' ),
    'SwSTEP 2.0',
    'SolidWorks 2020',
    '' );
FILE_SCHEMA (( 'AUTOMOTIVE_DESIGN' ));
ENDSEC;

DATA;
#1 = CARTESIAN_POINT ( 'NONE',  ( 9.653830909561145841E-17, 0.0000000000000000000, 0.7882951162965942116 ) ) ;
#2 = DIRECTION ( 'NONE',  ( -1.224646799147353207E-16, -0.0000000000000000000, -1.000000000000000000 ) ) ;
#3 = ADVANCED_FACE ( 'NONE', ( #279 ), #79, .T. ) ;
#4 = CIRCLE ( 'NONE', #77, 0.1424804999999990940 ) ;
#5 = ORIENTED_EDGE ( 'NONE', *, *, #233, .F. ) ;
#6 = FACE_OUTER_BOUND ( 'NONE', #61, .T. ) ;
#7 = APPLICATION_PROTOCOL_DEFINITION ( 'draft international standard', 'automotive_design', 1998, #27 ) ;
#8 = ORIENTED_EDGE ( 'NONE', *, *, #109, .T. ) ;
#9 = STYLED_ITEM ( 'NONE', ( #33 ), #165 ) ;
#10 = PLANE ( 'NONE',  #149 ) ;
#11 =( LENGTH_UNIT ( ) NAMED_UNIT ( * ) SI_UNIT ( $, .METRE. ) );
#12 = VERTEX_POINT ( 'NONE', #264 ) ;
#13 = CLOSED_SHELL ( 'NONE', ( #134, #285, #39, #156, #98, #51, #53, #297, #3, #105 ) ) ;
#14 = FACE_OUTER_BOUND ( 'NONE', #30, .T. ) ;
#15 = AXIS2_PLACEMENT_3D ( 'NONE', #1, #277, #22 ) ;
#16 = CARTESIAN_POINT ( 'NONE',  ( -0.1573230194999999942, 0.0000000000000000000, 3.853302645257433254E-17 ) ) ;
#17 = ORIENTED_EDGE ( 'NONE', *, *, #43, .F. ) ;
#18 = CARTESIAN_POINT ( 'NONE',  ( 0.1574805000000000788, 1.928579902531248645E-17, 0.7882951162965942116 ) ) ;
#19 = DIRECTION ( 'NONE',  ( -0.0000000000000000000, -0.0000000000000000000, -1.000000000000000000 ) ) ;
#20 =( NAMED_UNIT ( * ) SI_UNIT ( $, .STERADIAN. ) SOLID_ANGLE_UNIT ( ) );
#21 = AXIS2_PLACEMENT_3D ( 'NONE', #155, #133, #68 ) ;
#22 = DIRECTION ( 'NONE',  ( 1.000000000000000000, 0.0000000000000000000, 0.0000000000000000000 ) ) ;
#23 = DIRECTION ( 'NONE',  ( 1.000000000000000000, 0.0000000000000000000, 0.0000000000000000000 ) ) ;
#24 = DIRECTION ( 'NONE',  ( 0.7071067811865627828, 8.659560562355118980E-17, -0.7071067811865321406 ) ) ;
#25 = VECTOR ( 'NONE', #24, 39.37007874015748854 ) ;
#26 = LINE ( 'NONE', #206, #52 ) ;
#27 = APPLICATION_CONTEXT ( 'automotive_design' ) ;
#28 = AXIS2_PLACEMENT_3D ( 'NONE', #244, #54, #58 ) ;
#29 =( GEOMETRIC_REPRESENTATION_CONTEXT ( 3 ) GLOBAL_UNCERTAINTY_ASSIGNED_CONTEXT ( ( #32 ) ) GLOBAL_UNIT_ASSIGNED_CONTEXT ( ( #74, #122, #161 ) ) REPRESENTATION_CONTEXT ( 'NONE', 'WORKASPACE' ) );
#30 = EDGE_LOOP ( 'NONE', ( #8, #139, #106, #284 ) ) ;
#31 = DIRECTION ( 'NONE',  ( 0.0000000000000000000, 0.0000000000000000000, 1.000000000000000000 ) ) ;
#32 = UNCERTAINTY_MEASURE_WITH_UNIT (LENGTH_MEASURE( 1.000000000000000082E-05 ), #74, 'distance_accuracy_value', 'NONE');
#33 = PRESENTATION_STYLE_ASSIGNMENT (( #242 ) ) ;
#34 = ORIENTED_EDGE ( 'NONE', *, *, #211, .T. ) ;
#35 = CARTESIAN_POINT ( 'NONE',  ( 0.0000000000000000000, 0.0000000000000000000, 0.0000000000000000000 ) ) ;
#36 = VERTEX_POINT ( 'NONE', #266 ) ;
#37 = AXIS2_PLACEMENT_3D ( 'NONE', #190, #130, #145 ) ;
#38 = DIRECTION ( 'NONE',  ( 0.0000000000000000000, 0.0000000000000000000, -1.000000000000000000 ) ) ;
#39 = ADVANCED_FACE ( 'NONE', ( #215 ), #196, .T. ) ;
#40 = CARTESIAN_POINT ( 'NONE',  ( 2.359467375330272285E-33, 0.0000000000000000000, 1.926651322628716627E-17 ) ) ;
#41 = DIRECTION ( 'NONE',  ( 0.0000000000000000000, 0.0000000000000000000, 1.000000000000000000 ) ) ;
#42 = CARTESIAN_POINT ( 'NONE',  ( -0.1424804999999990940, 0.0000000000000000000, 2.480315000000000047 ) ) ;
#43 = EDGE_CURVE ( 'NONE', #295, #36, #219, .T. ) ;
#44 = DIRECTION ( 'NONE',  ( -1.224646799147353207E-16, -0.0000000000000000000, -1.000000000000000000 ) ) ;
#45 = EDGE_CURVE ( 'NONE', #192, #216, #276, .T. ) ;
#46 = DIRECTION ( 'NONE',  ( -0.7071067811865627828, 0.0000000000000000000, -0.7071067811865321406 ) ) ;
#47 = CARTESIAN_POINT ( 'NONE',  ( 0.1574804999999999955, 1.928579902531247412E-17, 2.465314999999999923 ) ) ;
#48 = ORIENTED_EDGE ( 'NONE', *, *, #101, .T. ) ;
#49 = DIRECTION ( 'NONE',  ( 1.000000000000000000, 0.0000000000000000000, 0.0000000000000000000 ) ) ;
#50 = CARTESIAN_POINT ( 'NONE',  ( -0.1573230194999999942, 0.0000000000000000000, 1.926651322628716627E-17 ) ) ;
#51 = ADVANCED_FACE ( 'NONE', ( #6 ), #10, .T. ) ;
#52 = VECTOR ( 'NONE', #78, 39.37007874015748143 ) ;
#53 = ADVANCED_FACE ( 'NONE', ( #104 ), #227, .T. ) ;
#54 = DIRECTION ( 'NONE',  ( -1.224646799147353207E-16, -0.0000000000000000000, -1.000000000000000000 ) ) ;
#55 = AXIS2_PLACEMENT_3D ( 'NONE', #298, #185, #23 ) ;
#56 = ORIENTED_EDGE ( 'NONE', *, *, #265, .F. ) ;
#57 = UNCERTAINTY_MEASURE_WITH_UNIT (LENGTH_MEASURE( 1.000000000000000082E-05 ), #111, 'distance_accuracy_value', 'NONE');
#58 = DIRECTION ( 'NONE',  ( -1.000000000000000000, 0.0000000000000000000, 1.224646799147353454E-16 ) ) ;
#59 = EDGE_CURVE ( 'NONE', #240, #216, #288, .T. ) ;
#60 = EDGE_LOOP ( 'NONE', ( #56, #148, #221, #144 ) ) ;
#61 = EDGE_LOOP ( 'NONE', ( #222, #103 ) ) ;
#62 = AXIS2_PLACEMENT_3D ( 'NONE', #296, #212, #229 ) ;
#63 = DIRECTION ( 'NONE',  ( -1.000000000000000000, 0.0000000000000000000, 0.0000000000000000000 ) ) ;
#64 = PRESENTATION_STYLE_ASSIGNMENT (( #93 ) ) ;
#65 = EDGE_CURVE ( 'NONE', #12, #69, #174, .T. ) ;
#66 = CONICAL_SURFACE ( 'NONE', #55, 0.1573230194999999942, 0.1745329251994339748 ) ;
#67 = PLANE ( 'NONE',  #73 ) ;
#68 = DIRECTION ( 'NONE',  ( -1.000000000000000000, 0.0000000000000000000, 1.224646799147353454E-16 ) ) ;
#69 = VERTEX_POINT ( 'NONE', #42 ) ;
#70 = DIRECTION ( 'NONE',  ( -1.224646799147353207E-16, -0.0000000000000000000, -1.000000000000000000 ) ) ;
#71 = AXIS2_PLACEMENT_3D ( 'NONE', #40, #143, #223 ) ;
#72 = DIRECTION ( 'NONE',  ( -1.000000000000000000, 0.0000000000000000000, 0.0000000000000000000 ) ) ;
#73 = AXIS2_PLACEMENT_3D ( 'NONE', #226, #272, #254 ) ;
#74 =( CONVERSION_BASED_UNIT ( 'INCH', #274 ) LENGTH_UNIT ( ) NAMED_UNIT ( #207 ) );
#75 = LINE ( 'NONE', #159, #249 ) ;
#76 = LINE ( 'NONE', #235, #25 ) ;
#77 = AXIS2_PLACEMENT_3D ( 'NONE', #115, #41, #225 ) ;
#78 = DIRECTION ( 'NONE',  ( -0.0000000000000000000, -0.0000000000000000000, -1.000000000000000000 ) ) ;
#79 = CYLINDRICAL_SURFACE ( 'NONE', #28, 0.1573230194999999942 ) ;
#80 = ORIENTED_EDGE ( 'NONE', *, *, #109, .F. ) ;
#81 = CIRCLE ( 'NONE', #237, 0.1574804999999999955 ) ;
#82 = ORIENTED_EDGE ( 'NONE', *, *, #59, .F. ) ;
#83 =( NAMED_UNIT ( * ) SI_UNIT ( $, .STERADIAN. ) SOLID_ANGLE_UNIT ( ) );
#84 = EDGE_LOOP ( 'NONE', ( #262, #140, #127, #236 ) ) ;
#85 = SHAPE_DEFINITION_REPRESENTATION ( #89, #165 ) ;
#86 = CARTESIAN_POINT ( 'NONE',  ( 0.0000000000000000000, 0.0000000000000000000, 2.480315000000000047 ) ) ;
#87 = VECTOR ( 'NONE', #46, 39.37007874015748854 ) ;
#88 = DIRECTION ( 'NONE',  ( -0.0000000000000000000, -0.0000000000000000000, -1.000000000000000000 ) ) ;
#89 = PRODUCT_DEFINITION_SHAPE ( 'NONE', 'NONE',  #278 ) ;
#90 = DIRECTION ( 'NONE',  ( 1.000000000000000000, 0.0000000000000000000, 0.0000000000000000000 ) ) ;
#91 = DIRECTION ( 'NONE',  ( 0.0000000000000000000, 0.0000000000000000000, 1.000000000000000000 ) ) ;
#92 = PRODUCT_DEFINITION_FORMATION_WITH_SPECIFIED_SOURCE ( 'ANY', '', #177, .NOT_KNOWN. ) ;
#93 = SURFACE_STYLE_USAGE ( .BOTH. , #293 ) ;
#94 = ORIENTED_EDGE ( 'NONE', *, *, #45, .F. ) ;
#95 = FACE_OUTER_BOUND ( 'NONE', #172, .T. ) ;
#96 = DIRECTION ( 'NONE',  ( -1.224646799147353207E-16, -0.0000000000000000000, -1.000000000000000000 ) ) ;
#97 = CARTESIAN_POINT ( 'NONE',  ( -0.1573230194999999110, 1.926651322628716627E-17, 0.7874019999999999353 ) ) ;
#98 = ADVANCED_FACE ( 'NONE', ( #250 ), #131, .T. ) ;
#99 = DIRECTION ( 'NONE',  ( 1.224646799147353207E-16, 0.0000000000000000000, 1.000000000000000000 ) ) ;
#100 = AXIS2_PLACEMENT_3D ( 'NONE', #110, #112, #194 ) ;
#101 = EDGE_CURVE ( 'NONE', #69, #36, #247, .T. ) ;
#102 = PRODUCT_CONTEXT ( 'NONE', #166, 'mechanical' ) ;
#103 = ORIENTED_EDGE ( 'NONE', *, *, #65, .T. ) ;
#104 = FACE_OUTER_BOUND ( 'NONE', #245, .T. ) ;
#105 = ADVANCED_FACE ( 'NONE', ( #180 ), #67, .F. ) ;
#106 = ORIENTED_EDGE ( 'NONE', *, *, #241, .F. ) ;
#107 = AXIS2_PLACEMENT_3D ( 'NONE', #86, #38, #63 ) ;
#108 = AXIS2_PLACEMENT_3D ( 'NONE', #234, #99, #49 ) ;
#109 = EDGE_CURVE ( 'NONE', #36, #295, #169, .T. ) ;
#110 = CARTESIAN_POINT ( 'NONE',  ( 0.0000000000000000000, 0.0000000000000000000, 2.480315000000000047 ) ) ;
#111 =( CONVERSION_BASED_UNIT ( 'INCH', #283 ) LENGTH_UNIT ( ) NAMED_UNIT ( #231 ) );
#112 = DIRECTION ( 'NONE',  ( 0.0000000000000000000, 0.0000000000000000000, -1.000000000000000000 ) ) ;
#113 = CYLINDRICAL_SURFACE ( 'NONE', #187, 0.1574804999999999955 ) ;
#114 = LINE ( 'NONE', #97, #294 ) ;
#115 = CARTESIAN_POINT ( 'NONE',  ( 0.0000000000000000000, 0.0000000000000000000, 2.480315000000000047 ) ) ;
#116 = DIRECTION ( 'NONE',  ( 0.0000000000000000000, 0.0000000000000000000, -1.000000000000000000 ) ) ;
#117 =( LENGTH_UNIT ( ) NAMED_UNIT ( * ) SI_UNIT ( $, .METRE. ) );
#118 = FACE_OUTER_BOUND ( 'NONE', #84, .T. ) ;
#119 = CIRCLE ( 'NONE', #281, 0.1573230194999999942 ) ;
#120 = DIRECTION ( 'NONE',  ( 0.1736481776669314692, 0.0000000000000000000, 0.9848077530122077983 ) ) ;
#121 = AXIS2_PLACEMENT_3D ( 'NONE', #290, #116, #90 ) ;
#122 =( NAMED_UNIT ( * ) PLANE_ANGLE_UNIT ( ) SI_UNIT ( $, .RADIAN. ) );
#123 = FILL_AREA_STYLE_COLOUR ( '', #137 ) ;
#124 = SURFACE_SIDE_STYLE ('',( #170 ) ) ;
#125 = DIRECTION ( 'NONE',  ( 0.0000000000000000000, 0.0000000000000000000, 1.000000000000000000 ) ) ;
#126 = DIRECTION ( 'NONE',  ( 1.000000000000000000, 0.0000000000000000000, -0.0000000000000000000 ) ) ;
#127 = ORIENTED_EDGE ( 'NONE', *, *, #233, .T. ) ;
#128 = ORIENTED_EDGE ( 'NONE', *, *, #65, .F. ) ;
#129 = CIRCLE ( 'NONE', #214, 0.1573230194999999942 ) ;
#130 = DIRECTION ( 'NONE',  ( 0.0000000000000000000, 0.0000000000000000000, -1.000000000000000000 ) ) ;
#131 = CYLINDRICAL_SURFACE ( 'NONE', #255, 0.1574804999999999955 ) ;
#132 = ORIENTED_EDGE ( 'NONE', *, *, #261, .F. ) ;
#133 = DIRECTION ( 'NONE',  ( -1.224646799147353207E-16, -0.0000000000000000000, -1.000000000000000000 ) ) ;
#134 = ADVANCED_FACE ( 'NONE', ( #95 ), #200, .T. ) ;
#135 = DIRECTION ( 'NONE',  ( 1.000000000000000000, 0.0000000000000000000, 0.0000000000000000000 ) ) ;
#136 =( CONVERSION_BASED_UNIT ( 'INCH', #152 ) LENGTH_UNIT ( ) NAMED_UNIT ( #181 ) );
#137 = COLOUR_RGB ( '',0.7921568627450980005, 0.8196078431372548767, 0.9333333333333333481 ) ;
#138 = CARTESIAN_POINT ( 'NONE',  ( 9.653830909561145841E-17, 0.0000000000000000000, 0.7882951162965942116 ) ) ;
#139 = ORIENTED_EDGE ( 'NONE', *, *, #265, .T. ) ;
#140 = ORIENTED_EDGE ( 'NONE', *, *, #205, .F. ) ;
#141 = CARTESIAN_POINT ( 'NONE',  ( 9.642893389422242582E-17, 0.0000000000000000000, 0.7874019999999999353 ) ) ;
#142 = MANIFOLD_SOLID_BREP ( 'Cut-Revolve1', #13 ) ;
#143 = DIRECTION ( 'NONE',  ( -1.224646799147353207E-16, -0.0000000000000000000, -1.000000000000000000 ) ) ;
#144 = ORIENTED_EDGE ( 'NONE', *, *, #201, .F. ) ;
#145 = DIRECTION ( 'NONE',  ( 1.000000000000000000, 0.0000000000000000000, 0.0000000000000000000 ) ) ;
#146 = EDGE_CURVE ( 'NONE', #216, #192, #129, .T. ) ;
#147 = ORIENTED_EDGE ( 'NONE', *, *, #146, .F. ) ;
#148 = ORIENTED_EDGE ( 'NONE', *, *, #43, .T. ) ;
#149 = AXIS2_PLACEMENT_3D ( 'NONE', #238, #31, #126 ) ;
#150 = VERTEX_POINT ( 'NONE', #157 ) ;
#151 = ORIENTED_EDGE ( 'NONE', *, *, #261, .T. ) ;
#152 = LENGTH_MEASURE_WITH_UNIT ( LENGTH_MEASURE( 0.02539999999999999897 ), #117 );
#153 = CARTESIAN_POINT ( 'NONE',  ( 0.0000000000000000000, 0.0000000000000000000, 2.480315000000000047 ) ) ;
#154 = CIRCLE ( 'NONE', #15, 0.1574804999999999955 ) ;
#155 = CARTESIAN_POINT ( 'NONE',  ( 0.0000000000000000000, 0.0000000000000000000, 0.0000000000000000000 ) ) ;
#156 = ADVANCED_FACE ( 'NONE', ( #14 ), #113, .T. ) ;
#157 = CARTESIAN_POINT ( 'NONE',  ( -0.1574804999999998845, 0.0000000000000000000, 0.7882951162965942116 ) ) ;
#158 = VECTOR ( 'NONE', #120, 39.37007874015748143 ) ;
#159 = CARTESIAN_POINT ( 'NONE',  ( 0.1574804999999999955, 1.928579902531247412E-17, 2.480315000000000047 ) ) ;
#160 = DIRECTION ( 'NONE',  ( -0.1736481776669312471, 2.126576849575783933E-17, 0.9848077530122077983 ) ) ;
#161 =( NAMED_UNIT ( * ) SI_UNIT ( $, .STERADIAN. ) SOLID_ANGLE_UNIT ( ) );
#162 = MECHANICAL_DESIGN_GEOMETRIC_PRESENTATION_REPRESENTATION (  '', ( #9 ), #179 ) ;
#163 = DIRECTION ( 'NONE',  ( -0.0000000000000000000, -0.0000000000000000000, -1.000000000000000000 ) ) ;
#164 = DIRECTION ( 'NONE',  ( -1.224646799147353207E-16, -0.0000000000000000000, -1.000000000000000000 ) ) ;
#165 = ADVANCED_BREP_SHAPE_REPRESENTATION ( 'Micro_EMHM-080-4', ( #142, #220 ), #29 ) ;
#166 = APPLICATION_CONTEXT ( 'automotive_design' ) ;
#167 = EDGE_LOOP ( 'NONE', ( #128, #286, #80, #263 ) ) ;
#168 = ORIENTED_EDGE ( 'NONE', *, *, #199, .T. ) ;
#169 = CIRCLE ( 'NONE', #121, 0.1574804999999999955 ) ;
#170 = SURFACE_STYLE_FILL_AREA ( #213 ) ;
#171 = VERTEX_POINT ( 'NONE', #18 ) ;
#172 = EDGE_LOOP ( 'NONE', ( #34, #291, #94, #132 ) ) ;
#173 = EDGE_LOOP ( 'NONE', ( #280, #168, #251, #5 ) ) ;
#174 = CIRCLE ( 'NONE', #273, 0.1424804999999990940 ) ;
#175 = MECHANICAL_DESIGN_GEOMETRIC_PRESENTATION_REPRESENTATION (  '', ( #248 ), #259 ) ;
#176 =( NAMED_UNIT ( * ) PLANE_ANGLE_UNIT ( ) SI_UNIT ( $, .RADIAN. ) );
#177 = PRODUCT ( 'Micro_EMHM-080-4', 'Micro_EMHM-080-4', '', ( #102 ) ) ;
#178 = CARTESIAN_POINT ( 'NONE',  ( -0.1424804999999990940, 0.0000000000000000000, 2.480315000000000047 ) ) ;
#179 =( GEOMETRIC_REPRESENTATION_CONTEXT ( 3 ) GLOBAL_UNCERTAINTY_ASSIGNED_CONTEXT ( ( #57 ) ) GLOBAL_UNIT_ASSIGNED_CONTEXT ( ( #111, #193, #83 ) ) REPRESENTATION_CONTEXT ( 'NONE', 'WORKASPACE' ) );
#180 = FACE_OUTER_BOUND ( 'NONE', #218, .T. ) ;
#181 = DIMENSIONAL_EXPONENTS ( 1.000000000000000000, 0.0000000000000000000, 0.0000000000000000000, 0.0000000000000000000, 0.0000000000000000000, 0.0000000000000000000, 0.0000000000000000000 ) ;
#182 = LINE ( 'NONE', #258, #158 ) ;
#183 = CIRCLE ( 'NONE', #62, 0.1573230194999999942 ) ;
#184 = CARTESIAN_POINT ( 'NONE',  ( 0.1573230195000001053, 0.0000000000000000000, 0.7874019999999999353 ) ) ;
#185 = DIRECTION ( 'NONE',  ( 1.224646799147353207E-16, 0.0000000000000000000, 1.000000000000000000 ) ) ;
#186 = EDGE_CURVE ( 'NONE', #69, #12, #4, .T. ) ;
#187 = AXIS2_PLACEMENT_3D ( 'NONE', #195, #88, #269 ) ;
#188 = ORIENTED_EDGE ( 'NONE', *, *, #205, .T. ) ;
#189 = UNCERTAINTY_MEASURE_WITH_UNIT (LENGTH_MEASURE( 1.000000000000000082E-05 ), #136, 'distance_accuracy_value', 'NONE');
#190 = CARTESIAN_POINT ( 'NONE',  ( 0.0000000000000000000, 0.0000000000000000000, 2.465314999999999923 ) ) ;
#191 = EDGE_LOOP ( 'NONE', ( #82, #188, #151, #147 ) ) ;
#192 = VERTEX_POINT ( 'NONE', #16 ) ;
#193 =( NAMED_UNIT ( * ) PLANE_ANGLE_UNIT ( ) SI_UNIT ( $, .RADIAN. ) );
#194 = DIRECTION ( 'NONE',  ( -1.000000000000000000, 0.0000000000000000000, 0.0000000000000000000 ) ) ;
#195 = CARTESIAN_POINT ( 'NONE',  ( 0.0000000000000000000, 0.0000000000000000000, 2.480315000000000047 ) ) ;
#196 = CONICAL_SURFACE ( 'NONE', #107, 0.1424804999999990940, 0.7853981633974699283 ) ;
#197 = CARTESIAN_POINT ( 'NONE',  ( 0.0000000000000000000, 0.0000000000000000000, 2.480315000000000047 ) ) ;
#198 = ORIENTED_EDGE ( 'NONE', *, *, #186, .F. ) ;
#199 = EDGE_CURVE ( 'NONE', #243, #150, #114, .T. ) ;
#200 = CYLINDRICAL_SURFACE ( 'NONE', #21, 0.1573230194999999942 ) ;
#201 = EDGE_CURVE ( 'NONE', #171, #150, #81, .T. ) ;
#202 = SURFACE_STYLE_FILL_AREA ( #224 ) ;
#203 = COLOUR_RGB ( '',0.7921568627450980005, 0.8196078431372548767, 0.9333333333333333481 ) ;
#204 = CARTESIAN_POINT ( 'NONE',  ( 2.359467375330272285E-33, 0.0000000000000000000, 1.926651322628716627E-17 ) ) ;
#205 = EDGE_CURVE ( 'NONE', #240, #243, #119, .T. ) ;
#206 = CARTESIAN_POINT ( 'NONE',  ( -0.1574804999999999955, 0.0000000000000000000, 2.480315000000000047 ) ) ;
#207 = DIMENSIONAL_EXPONENTS ( 1.000000000000000000, 0.0000000000000000000, 0.0000000000000000000, 0.0000000000000000000, 0.0000000000000000000, 0.0000000000000000000, 0.0000000000000000000 ) ;
#208 = CARTESIAN_POINT ( 'NONE',  ( -0.1573230194999999110, 1.927615612579982019E-17, 0.7874019999999999353 ) ) ;
#209 = VECTOR ( 'NONE', #164, 39.37007874015748143 ) ;
#210 = CARTESIAN_POINT ( 'NONE',  ( 0.1573230194999999942, 1.926651322628716627E-17, 0.0000000000000000000 ) ) ;
#211 = EDGE_CURVE ( 'NONE', #243, #240, #183, .T. ) ;
#212 = DIRECTION ( 'NONE',  ( -1.224646799147353207E-16, -0.0000000000000000000, -1.000000000000000000 ) ) ;
#213 = FILL_AREA_STYLE ('',( #123 ) ) ;
#214 = AXIS2_PLACEMENT_3D ( 'NONE', #204, #70, #246 ) ;
#215 = FACE_OUTER_BOUND ( 'NONE', #167, .T. ) ;
#216 = VERTEX_POINT ( 'NONE', #210 ) ;
#217 = PRODUCT_DEFINITION_CONTEXT ( 'detailed design', #27, 'design' ) ;
#218 = EDGE_LOOP ( 'NONE', ( #268, #230 ) ) ;
#219 = CIRCLE ( 'NONE', #37, 0.1574804999999999955 ) ;
#220 = AXIS2_PLACEMENT_3D ( 'NONE', #35, #125, #287 ) ;
#221 = ORIENTED_EDGE ( 'NONE', *, *, #292, .T. ) ;
#222 = ORIENTED_EDGE ( 'NONE', *, *, #186, .T. ) ;
#223 = DIRECTION ( 'NONE',  ( -1.000000000000000000, 0.0000000000000000000, 1.224646799147353454E-16 ) ) ;
#224 = FILL_AREA_STYLE ('',( #270 ) ) ;
#225 = DIRECTION ( 'NONE',  ( 1.000000000000000000, 0.0000000000000000000, 0.0000000000000000000 ) ) ;
#226 = CARTESIAN_POINT ( 'NONE',  ( 0.0000000000000000000, 0.0000000000000000000, 0.0000000000000000000 ) ) ;
#227 = CONICAL_SURFACE ( 'NONE', #100, 0.1424804999999990940, 0.7853981633974699283 ) ;
#228 = PRESENTATION_LAYER_ASSIGNMENT (  '', '', ( #9 ) ) ;
#229 = DIRECTION ( 'NONE',  ( -1.000000000000000000, 0.0000000000000000000, 0.0000000000000000000 ) ) ;
#230 = ORIENTED_EDGE ( 'NONE', *, *, #146, .T. ) ;
#231 = DIMENSIONAL_EXPONENTS ( 1.000000000000000000, 0.0000000000000000000, 0.0000000000000000000, 0.0000000000000000000, 0.0000000000000000000, 0.0000000000000000000, 0.0000000000000000000 ) ;
#232 = CONICAL_SURFACE ( 'NONE', #108, 0.1573230194999999942, 0.1745329251994339748 ) ;
#233 = EDGE_CURVE ( 'NONE', #240, #171, #182, .T. ) ;
#234 = CARTESIAN_POINT ( 'NONE',  ( 9.642893389422242582E-17, 0.0000000000000000000, 0.7874019999999999353 ) ) ;
#235 = CARTESIAN_POINT ( 'NONE',  ( 0.1424804999999990940, 1.744882882659133128E-17, 2.480315000000000047 ) ) ;
#236 = ORIENTED_EDGE ( 'NONE', *, *, #201, .T. ) ;
#237 = AXIS2_PLACEMENT_3D ( 'NONE', #138, #96, #257 ) ;
#238 = CARTESIAN_POINT ( 'NONE',  ( 0.0000000000000000000, 0.0000000000000000000, 2.480315000000000047 ) ) ;
#239 = PRODUCT_RELATED_PRODUCT_CATEGORY ( 'part', '', ( #177 ) ) ;
#240 = VERTEX_POINT ( 'NONE', #184 ) ;
#241 = EDGE_CURVE ( 'NONE', #150, #171, #154, .T. ) ;
#242 = SURFACE_STYLE_USAGE ( .BOTH. , #124 ) ;
#243 = VERTEX_POINT ( 'NONE', #208 ) ;
#244 = CARTESIAN_POINT ( 'NONE',  ( 0.0000000000000000000, 0.0000000000000000000, 0.0000000000000000000 ) ) ;
#245 = EDGE_LOOP ( 'NONE', ( #282, #198, #48, #17 ) ) ;
#246 = DIRECTION ( 'NONE',  ( -1.000000000000000000, 0.0000000000000000000, 1.224646799147353454E-16 ) ) ;
#247 = LINE ( 'NONE', #178, #87 ) ;
#248 = STYLED_ITEM ( 'NONE', ( #64 ), #142 ) ;
#249 = VECTOR ( 'NONE', #163, 39.37007874015748143 ) ;
#250 = FACE_OUTER_BOUND ( 'NONE', #60, .T. ) ;
#251 = ORIENTED_EDGE ( 'NONE', *, *, #241, .T. ) ;
#252 = CARTESIAN_POINT ( 'NONE',  ( 0.1573230194999999942, 1.926651322628716627E-17, -1.926651322628716627E-17 ) ) ;
#253 = EDGE_CURVE ( 'NONE', #12, #295, #76, .T. ) ;
#254 = DIRECTION ( 'NONE',  ( 1.000000000000000000, 0.0000000000000000000, -0.0000000000000000000 ) ) ;
#255 = AXIS2_PLACEMENT_3D ( 'NONE', #197, #19, #271 ) ;
#256 = LINE ( 'NONE', #50, #209 ) ;
#257 = DIRECTION ( 'NONE',  ( 1.000000000000000000, 0.0000000000000000000, 0.0000000000000000000 ) ) ;
#258 = CARTESIAN_POINT ( 'NONE',  ( 0.1573230195000001053, 0.0000000000000000000, 0.7874019999999999353 ) ) ;
#259 =( GEOMETRIC_REPRESENTATION_CONTEXT ( 3 ) GLOBAL_UNCERTAINTY_ASSIGNED_CONTEXT ( ( #189 ) ) GLOBAL_UNIT_ASSIGNED_CONTEXT ( ( #136, #176, #20 ) ) REPRESENTATION_CONTEXT ( 'NONE', 'WORKASPACE' ) );
#260 = FACE_OUTER_BOUND ( 'NONE', #173, .T. ) ;
#261 = EDGE_CURVE ( 'NONE', #243, #192, #256, .T. ) ;
#262 = ORIENTED_EDGE ( 'NONE', *, *, #199, .F. ) ;
#263 = ORIENTED_EDGE ( 'NONE', *, *, #101, .F. ) ;
#264 = CARTESIAN_POINT ( 'NONE',  ( 0.1424804999999990940, 1.836731392595189962E-17, 2.480315000000000047 ) ) ;
#265 = EDGE_CURVE ( 'NONE', #295, #171, #75, .T. ) ;
#266 = CARTESIAN_POINT ( 'NONE',  ( -0.1574804999999999955, 0.0000000000000000000, 2.465314999999999923 ) ) ;
#267 = VECTOR ( 'NONE', #44, 39.37007874015748143 ) ;
#268 = ORIENTED_EDGE ( 'NONE', *, *, #45, .T. ) ;
#269 = DIRECTION ( 'NONE',  ( -1.000000000000000000, 0.0000000000000000000, 0.0000000000000000000 ) ) ;
#270 = FILL_AREA_STYLE_COLOUR ( '', #203 ) ;
#271 = DIRECTION ( 'NONE',  ( -1.000000000000000000, 0.0000000000000000000, 0.0000000000000000000 ) ) ;
#272 = DIRECTION ( 'NONE',  ( 0.0000000000000000000, 0.0000000000000000000, 1.000000000000000000 ) ) ;
#273 = AXIS2_PLACEMENT_3D ( 'NONE', #153, #91, #135 ) ;
#274 = LENGTH_MEASURE_WITH_UNIT ( LENGTH_MEASURE( 0.02539999999999999897 ), #299 );
#275 = APPLICATION_PROTOCOL_DEFINITION ( 'draft international standard', 'automotive_design', 1998, #166 ) ;
#276 = CIRCLE ( 'NONE', #71, 0.1573230194999999942 ) ;
#277 = DIRECTION ( 'NONE',  ( -1.224646799147353207E-16, -0.0000000000000000000, -1.000000000000000000 ) ) ;
#278 = PRODUCT_DEFINITION ( 'UNKNOWN', '', #92, #217 ) ;
#279 = FACE_OUTER_BOUND ( 'NONE', #191, .T. ) ;
#280 = ORIENTED_EDGE ( 'NONE', *, *, #211, .F. ) ;
#281 = AXIS2_PLACEMENT_3D ( 'NONE', #141, #2, #72 ) ;
#282 = ORIENTED_EDGE ( 'NONE', *, *, #253, .F. ) ;
#283 = LENGTH_MEASURE_WITH_UNIT ( LENGTH_MEASURE( 0.02539999999999999897 ), #11 );
#284 = ORIENTED_EDGE ( 'NONE', *, *, #292, .F. ) ;
#285 = ADVANCED_FACE ( 'NONE', ( #260 ), #66, .T. ) ;
#286 = ORIENTED_EDGE ( 'NONE', *, *, #253, .T. ) ;
#287 = DIRECTION ( 'NONE',  ( 1.000000000000000000, 0.0000000000000000000, 0.0000000000000000000 ) ) ;
#288 = LINE ( 'NONE', #252, #267 ) ;
#289 = PRESENTATION_LAYER_ASSIGNMENT (  '', '', ( #248 ) ) ;
#290 = CARTESIAN_POINT ( 'NONE',  ( 0.0000000000000000000, 0.0000000000000000000, 2.465314999999999923 ) ) ;
#291 = ORIENTED_EDGE ( 'NONE', *, *, #59, .T. ) ;
#292 = EDGE_CURVE ( 'NONE', #36, #150, #26, .T. ) ;
#293 = SURFACE_SIDE_STYLE ('',( #202 ) ) ;
#294 = VECTOR ( 'NONE', #160, 39.37007874015748143 ) ;
#295 = VERTEX_POINT ( 'NONE', #47 ) ;
#296 = CARTESIAN_POINT ( 'NONE',  ( 9.642893389422242582E-17, 0.0000000000000000000, 0.7874019999999999353 ) ) ;
#297 = ADVANCED_FACE ( 'NONE', ( #118 ), #232, .T. ) ;
#298 = CARTESIAN_POINT ( 'NONE',  ( 9.642893389422242582E-17, 0.0000000000000000000, 0.7874019999999999353 ) ) ;
#299 =( LENGTH_UNIT ( ) NAMED_UNIT ( * ) SI_UNIT ( $, .METRE. ) );
ENDSEC;
END-ISO-10303-21;
