ISO-10303-21;
HEADER;
FILE_DESCRIPTION (( 'STEP AP214' ),
    '1' );
FILE_NAME ('00090.STEP',
    '2023-06-22T14:02:43',
    ( '' ),
    ( '' ),
    'SwSTEP 2.0',
    'SolidWorks 2023',
    '' );
FILE_SCHEMA (( 'AUTOMOTIVE_DESIGN' ));
ENDSEC;

DATA;
#1 = DIRECTION ( 'NONE',  ( -0.000000000000000000, -1.000000000000000000, -0.000000000000000000 ) ) ;
#2 = PRODUCT ( '00090', '00090', '', ( #260 ) ) ;
#3 = DIRECTION ( 'NONE',  ( -0.000000000000000000, -1.000000000000000000, -0.000000000000000000 ) ) ;
#4 = SURFACE_STYLE_USAGE ( .BOTH. , #119 ) ;
#5 = AXIS2_PLACEMENT_3D ( 'NONE', #113, #110, #300 ) ;
#6 = DIRECTION ( 'NONE',  ( 3.628583108584750472E-17, 1.000000000000000000, -0.000000000000000000 ) ) ;
#7 = MANIFOLD_SOLID_BREP ( 'Revolve - Cutting Edge', #282 ) ;
#8 = PRODUCT_DEFINITION ( 'UNKNOWN', '', #69, #268 ) ;
#9 = CYLINDRICAL_SURFACE ( 'NONE', #284, 0.09375000000000001388 ) ;
#10 = CIRCLE ( 'NONE', #186, 0.09375000000000001388 ) ;
#11 = ADVANCED_FACE ( 'NONE', ( #255 ), #133, .T. ) ;
#12 = LENGTH_MEASURE_WITH_UNIT ( LENGTH_MEASURE( 0.02539999999999999897 ), #252 );
#13 = CARTESIAN_POINT ( 'NONE',  ( 0.09375000000000001388, 2.000000000000000000, 0.000000000000000000 ) ) ;
#14 = VERTEX_POINT ( 'NONE', #162 ) ;
#15 =( NAMED_UNIT ( * ) PLANE_ANGLE_UNIT ( ) SI_UNIT ( $, .RADIAN. ) );
#16 = VECTOR ( 'NONE', #3, 39.37007874015748143 ) ;
#17 = ORIENTED_EDGE ( 'NONE', *, *, #74, .F. ) ;
#18 = AXIS2_PLACEMENT_3D ( 'NONE', #70, #159, #32 ) ;
#19 = DIRECTION ( 'NONE',  ( 0.000000000000000000, 0.000000000000000000, -1.000000000000000000 ) ) ;
#20 = ORIENTED_EDGE ( 'NONE', *, *, #281, .T. ) ;
#21 = DIRECTION ( 'NONE',  ( 1.000000000000000000, -3.628583108584750472E-17, 0.000000000000000000 ) ) ;
#22 = VERTEX_POINT ( 'NONE', #138 ) ;
#23 = CLOSED_SHELL ( 'NONE', ( #146, #103, #47, #221 ) ) ;
#24 = COLOUR_RGB ( '',1.000000000000000000, 0.000000000000000000, 0.000000000000000000 ) ;
#25 = DIRECTION ( 'NONE',  ( 3.628583108584750472E-17, 1.000000000000000000, -0.000000000000000000 ) ) ;
#26 = EDGE_CURVE ( 'NONE', #232, #175, #54, .T. ) ;
#27 = DIMENSIONAL_EXPONENTS ( 1.000000000000000000, 0.000000000000000000, 0.000000000000000000, 0.000000000000000000, 0.000000000000000000, 0.000000000000000000, 0.000000000000000000 ) ;
#28 = CARTESIAN_POINT ( 'NONE',  ( 0.09375000000000001388, 2.000000000000000000, 1.148106374200643401E-17 ) ) ;
#29 = AXIS2_PLACEMENT_3D ( 'NONE', #48, #236, #215 ) ;
#30 = AXIS2_PLACEMENT_3D ( 'NONE', #177, #153, #43 ) ;
#31 =( CONVERSION_BASED_UNIT ( 'INCH', #212 ) LENGTH_UNIT ( ) NAMED_UNIT ( #189 ) );
#32 = DIRECTION ( 'NONE',  ( -1.000000000000000000, 0.000000000000000000, 0.000000000000000000 ) ) ;
#33 = PRODUCT_DEFINITION_SHAPE ( 'NONE', 'NONE',  #8 ) ;
#34 = LINE ( 'NONE', #67, #16 ) ;
#35 = CARTESIAN_POINT ( 'NONE',  ( -0.09374999999999990286, 2.000000000000000000, 0.000000000000000000 ) ) ;
#36 = COLOUR_RGB ( '',0.7921568627450980005, 0.8196078431372548767, 0.9333333333333333481 ) ;
#37 = PRESENTATION_LAYER_ASSIGNMENT (  '', '', ( #192 ) ) ;
#38 = DIRECTION ( 'NONE',  ( 0.000000000000000000, 0.000000000000000000, -1.000000000000000000 ) ) ;
#39 = CARTESIAN_POINT ( 'NONE',  ( 0.09375000000000004163, 2.000000000000000000, 1.148106374200643247E-17 ) ) ;
#40 = EDGE_LOOP ( 'NONE', ( #129, #250, #111, #62 ) ) ;
#41 = SURFACE_STYLE_FILL_AREA ( #131 ) ;
#42 = ORIENTED_EDGE ( 'NONE', *, *, #244, .T. ) ;
#43 = DIRECTION ( 'NONE',  ( 0.000000000000000000, 0.000000000000000000, -1.000000000000000000 ) ) ;
#44 = ORIENTED_EDGE ( 'NONE', *, *, #26, .F. ) ;
#45 = DIRECTION ( 'NONE',  ( -1.000000000000000000, 0.000000000000000000, 0.000000000000000000 ) ) ;
#46 = ORIENTED_EDGE ( 'NONE', *, *, #244, .F. ) ;
#47 = ADVANCED_FACE ( 'NONE', ( #241 ), #306, .T. ) ;
#48 = CARTESIAN_POINT ( 'NONE',  ( 0.000000000000000000, 0.000000000000000000, 0.000000000000000000 ) ) ;
#49 = CIRCLE ( 'NONE', #68, 0.09375000000000001388 ) ;
#50 = CARTESIAN_POINT ( 'NONE',  ( 6.171850957456205586E-35, 0.3125000000000000000, 0.000000000000000000 ) ) ;
#51 =( NAMED_UNIT ( * ) SI_UNIT ( $, .STERADIAN. ) SOLID_ANGLE_UNIT ( ) );
#52 =( NAMED_UNIT ( * ) PLANE_ANGLE_UNIT ( ) SI_UNIT ( $, .RADIAN. ) );
#53 = DIMENSIONAL_EXPONENTS ( 1.000000000000000000, 0.000000000000000000, 0.000000000000000000, 0.000000000000000000, 0.000000000000000000, 0.000000000000000000, 0.000000000000000000 ) ;
#54 = LINE ( 'NONE', #117, #293 ) ;
#55 = SHAPE_DEFINITION_REPRESENTATION ( #33, #228 ) ;
#56 = STYLED_ITEM ( 'NONE', ( #211 ), #11 ) ;
#57 =( LENGTH_UNIT ( ) NAMED_UNIT ( * ) SI_UNIT ( $, .METRE. ) );
#58 =( NAMED_UNIT ( * ) SI_UNIT ( $, .STERADIAN. ) SOLID_ANGLE_UNIT ( ) );
#59 = EDGE_CURVE ( 'NONE', #175, #209, #275, .T. ) ;
#60 = ORIENTED_EDGE ( 'NONE', *, *, #59, .F. ) ;
#61 = SURFACE_STYLE_FILL_AREA ( #220 ) ;
#62 = ORIENTED_EDGE ( 'NONE', *, *, #281, .F. ) ;
#63 = APPLICATION_CONTEXT ( 'automotive_design' ) ;
#64 = EDGE_LOOP ( 'NONE', ( #44, #206, #148, #60 ) ) ;
#65 = DIRECTION ( 'NONE',  ( -3.628583108584750472E-17, -1.000000000000000000, 0.000000000000000000 ) ) ;
#66 = ORIENTED_EDGE ( 'NONE', *, *, #125, .F. ) ;
#67 = CARTESIAN_POINT ( 'NONE',  ( 0.000000000000000000, 0.000000000000000000, -0.09375000000000001388 ) ) ;
#68 = AXIS2_PLACEMENT_3D ( 'NONE', #142, #25, #287 ) ;
#69 = PRODUCT_DEFINITION_FORMATION_WITH_SPECIFIED_SOURCE ( 'ANY', '', #2, .NOT_KNOWN. ) ;
#70 = CARTESIAN_POINT ( 'NONE',  ( 6.123233995736766036E-17, 2.000000000000000000, 0.000000000000000000 ) ) ;
#71 = CARTESIAN_POINT ( 'NONE',  ( 1.148106374200643863E-17, 0.000000000000000000, 0.09375000000000001388 ) ) ;
#72 = CARTESIAN_POINT ( 'NONE',  ( 0.09375000000000001388, 0.3125000000000000000, 1.148106374200643401E-17 ) ) ;
#73 =( GEOMETRIC_REPRESENTATION_CONTEXT ( 3 ) GLOBAL_UNCERTAINTY_ASSIGNED_CONTEXT ( ( #76 ) ) GLOBAL_UNIT_ASSIGNED_CONTEXT ( ( #198, #273, #249 ) ) REPRESENTATION_CONTEXT ( 'NONE', 'WORKASPACE' ) );
#74 = EDGE_CURVE ( 'NONE', #181, #14, #49, .T. ) ;
#75 = FILL_AREA_STYLE ('',( #247 ) ) ;
#76 = UNCERTAINTY_MEASURE_WITH_UNIT (LENGTH_MEASURE( 1.000000000000000082E-05 ), #198, 'distance_accuracy_value', 'NONE');
#77 = FILL_AREA_STYLE_COLOUR ( '', #84 ) ;
#78 = FACE_OUTER_BOUND ( 'NONE', #297, .T. ) ;
#79 =( GEOMETRIC_REPRESENTATION_CONTEXT ( 3 ) GLOBAL_UNCERTAINTY_ASSIGNED_CONTEXT ( ( #251 ) ) GLOBAL_UNIT_ASSIGNED_CONTEXT ( ( #243, #105, #145 ) ) REPRESENTATION_CONTEXT ( 'NONE', 'WORKASPACE' ) );
#80 = FILL_AREA_STYLE ('',( #265 ) ) ;
#81 = UNCERTAINTY_MEASURE_WITH_UNIT (LENGTH_MEASURE( 1.000000000000000082E-05 ), #143, 'distance_accuracy_value', 'NONE');
#82 = DIRECTION ( 'NONE',  ( -0.000000000000000000, -1.000000000000000000, -0.000000000000000000 ) ) ;
#83 = FACE_OUTER_BOUND ( 'NONE', #93, .T. ) ;
#84 = COLOUR_RGB ( '',0.7921568627450980005, 0.8196078431372548767, 0.9333333333333333481 ) ;
#85 = EDGE_CURVE ( 'NONE', #22, #209, #34, .T. ) ;
#86 = VERTEX_POINT ( 'NONE', #99 ) ;
#87 = SURFACE_STYLE_USAGE ( .BOTH. , #233 ) ;
#88 = ORIENTED_EDGE ( 'NONE', *, *, #176, .F. ) ;
#89 = PRESENTATION_STYLE_ASSIGNMENT (( #107 ) ) ;
#90 = UNCERTAINTY_MEASURE_WITH_UNIT (LENGTH_MEASURE( 1.000000000000000082E-05 ), #173, 'distance_accuracy_value', 'NONE');
#91 = PRESENTATION_STYLE_ASSIGNMENT (( #128 ) ) ;
#92 = STYLED_ITEM ( 'NONE', ( #269 ), #210 ) ;
#93 = EDGE_LOOP ( 'NONE', ( #46, #234 ) ) ;
#94 = FILL_AREA_STYLE_COLOUR ( '', #36 ) ;
#95 = CARTESIAN_POINT ( 'NONE',  ( 0.000000000000000000, 0.000000000000000000, 0.000000000000000000 ) ) ;
#96 = CARTESIAN_POINT ( 'NONE',  ( 0.000000000000000000, 0.3125000000000000000, 0.000000000000000000 ) ) ;
#97 = DIMENSIONAL_EXPONENTS ( 1.000000000000000000, 0.000000000000000000, 0.000000000000000000, 0.000000000000000000, 0.000000000000000000, 0.000000000000000000, 0.000000000000000000 ) ;
#98 = DIRECTION ( 'NONE',  ( 3.628583108584750472E-17, 1.000000000000000000, -0.000000000000000000 ) ) ;
#99 = CARTESIAN_POINT ( 'NONE',  ( -0.09374999999999987510, 2.000000000000000000, 0.000000000000000000 ) ) ;
#100 = PRESENTATION_STYLE_ASSIGNMENT (( #169 ) ) ;
#101 = AXIS2_PLACEMENT_3D ( 'NONE', #307, #280, #238 ) ;
#102 = CARTESIAN_POINT ( 'NONE',  ( 0.000000000000000000, 0.000000000000000000, -0.09375000000000001388 ) ) ;
#103 = ADVANCED_FACE ( 'NONE', ( #237 ), #158, .F. ) ;
#104 = FACE_OUTER_BOUND ( 'NONE', #170, .T. ) ;
#105 =( NAMED_UNIT ( * ) PLANE_ANGLE_UNIT ( ) SI_UNIT ( $, .RADIAN. ) );
#106 = CARTESIAN_POINT ( 'NONE',  ( 0.000000000000000000, 0.000000000000000000, 0.000000000000000000 ) ) ;
#107 = SURFACE_STYLE_USAGE ( .BOTH. , #135 ) ;
#108 = CIRCLE ( 'NONE', #152, 0.09374999999999994449 ) ;
#109 = ORIENTED_EDGE ( 'NONE', *, *, #125, .T. ) ;
#110 = DIRECTION ( 'NONE',  ( 0.000000000000000000, 1.000000000000000000, 0.000000000000000000 ) ) ;
#111 = ORIENTED_EDGE ( 'NONE', *, *, #207, .T. ) ;
#112 = APPLICATION_CONTEXT ( 'automotive_design' ) ;
#113 = CARTESIAN_POINT ( 'NONE',  ( 0.000000000000000000, 0.3125000000000000000, 0.000000000000000000 ) ) ;
#114 = EDGE_LOOP ( 'NONE', ( #109, #150, #88, #301 ) ) ;
#115 = STYLED_ITEM ( 'NONE', ( #166 ), #193 ) ;
#116 = ORIENTED_EDGE ( 'NONE', *, *, #59, .T. ) ;
#117 = CARTESIAN_POINT ( 'NONE',  ( 1.148106374200643863E-17, 0.000000000000000000, 0.09375000000000001388 ) ) ;
#118 =( LENGTH_UNIT ( ) NAMED_UNIT ( * ) SI_UNIT ( $, .METRE. ) );
#119 = SURFACE_SIDE_STYLE ('',( #182 ) ) ;
#120 = PRESENTATION_LAYER_ASSIGNMENT (  '', '', ( #115 ) ) ;
#121 = DIRECTION ( 'NONE',  ( -0.000000000000000000, -1.000000000000000000, -0.000000000000000000 ) ) ;
#122 =( NAMED_UNIT ( * ) PLANE_ANGLE_UNIT ( ) SI_UNIT ( $, .RADIAN. ) );
#123 = CIRCLE ( 'NONE', #214, 0.09374999999999994449 ) ;
#124 = DIRECTION ( 'NONE',  ( 0.000000000000000000, 0.000000000000000000, -1.000000000000000000 ) ) ;
#125 = EDGE_CURVE ( 'NONE', #14, #181, #187, .T. ) ;
#126 = SURFACE_STYLE_USAGE ( .BOTH. , #164 ) ;
#127 = SURFACE_STYLE_FILL_AREA ( #80 ) ;
#128 = SURFACE_STYLE_USAGE ( .BOTH. , #171 ) ;
#129 = ORIENTED_EDGE ( 'NONE', *, *, #227, .F. ) ;
#130 = UNCERTAINTY_MEASURE_WITH_UNIT (LENGTH_MEASURE( 1.000000000000000082E-05 ), #31, 'distance_accuracy_value', 'NONE');
#131 = FILL_AREA_STYLE ('',( #180 ) ) ;
#132 = MECHANICAL_DESIGN_GEOMETRIC_PRESENTATION_REPRESENTATION (  '', ( #115 ), #79 ) ;
#133 = CYLINDRICAL_SURFACE ( 'NONE', #29, 0.09375000000000001388 ) ;
#134 = DIRECTION ( 'NONE',  ( 3.628583108584750472E-17, 1.000000000000000000, -0.000000000000000000 ) ) ;
#135 = SURFACE_SIDE_STYLE ('',( #202 ) ) ;
#136 = ORIENTED_EDGE ( 'NONE', *, *, #196, .T. ) ;
#137 =( GEOMETRIC_REPRESENTATION_CONTEXT ( 3 ) GLOBAL_UNCERTAINTY_ASSIGNED_CONTEXT ( ( #90 ) ) GLOBAL_UNIT_ASSIGNED_CONTEXT ( ( #173, #15, #174 ) ) REPRESENTATION_CONTEXT ( 'NONE', 'WORKASPACE' ) );
#138 = CARTESIAN_POINT ( 'NONE',  ( 0.000000000000000000, 0.3125000000000000000, -0.09375000000000001388 ) ) ;
#139 =( LENGTH_UNIT ( ) NAMED_UNIT ( * ) SI_UNIT ( $, .METRE. ) );
#140 = DIRECTION ( 'NONE',  ( 3.628583108584750472E-17, 1.000000000000000000, -0.000000000000000000 ) ) ;
#141 = VECTOR ( 'NONE', #6, 39.37007874015748143 ) ;
#142 = CARTESIAN_POINT ( 'NONE',  ( 0.000000000000000000, 0.3125000000000000000, 0.000000000000000000 ) ) ;
#143 =( CONVERSION_BASED_UNIT ( 'INCH', #294 ) LENGTH_UNIT ( ) NAMED_UNIT ( #309 ) );
#144 = MECHANICAL_DESIGN_GEOMETRIC_PRESENTATION_REPRESENTATION (  '', ( #192 ), #137 ) ;
#145 =( NAMED_UNIT ( * ) SI_UNIT ( $, .STERADIAN. ) SOLID_ANGLE_UNIT ( ) );
#146 = ADVANCED_FACE ( 'NONE', ( #285 ), #263, .T. ) ;
#147 = CIRCLE ( 'NONE', #230, 0.09375000000000001388 ) ;
#148 = ORIENTED_EDGE ( 'NONE', *, *, #85, .T. ) ;
#149 =( NAMED_UNIT ( * ) PLANE_ANGLE_UNIT ( ) SI_UNIT ( $, .RADIAN. ) );
#150 = ORIENTED_EDGE ( 'NONE', *, *, #227, .T. ) ;
#151 = PRESENTATION_LAYER_ASSIGNMENT (  '', '', ( #56 ) ) ;
#152 = AXIS2_PLACEMENT_3D ( 'NONE', #191, #161, #288 ) ;
#153 = DIRECTION ( 'NONE',  ( -0.000000000000000000, -1.000000000000000000, -0.000000000000000000 ) ) ;
#154 = VERTEX_POINT ( 'NONE', #28 ) ;
#155 = DIRECTION ( 'NONE',  ( 1.000000000000000000, 0.000000000000000000, 0.000000000000000000 ) ) ;
#156 = LENGTH_MEASURE_WITH_UNIT ( LENGTH_MEASURE( 0.02539999999999999897 ), #118 );
#157 = APPLICATION_PROTOCOL_DEFINITION ( 'draft international standard', 'automotive_design', 1998, #112 ) ;
#158 = PLANE ( 'NONE',  #308 ) ;
#159 = DIRECTION ( 'NONE',  ( 3.628583108584750472E-17, 1.000000000000000000, -0.000000000000000000 ) ) ;
#160 = APPLICATION_PROTOCOL_DEFINITION ( 'draft international standard', 'automotive_design', 1998, #63 ) ;
#161 = DIRECTION ( 'NONE',  ( 3.628583108584750472E-17, 1.000000000000000000, -0.000000000000000000 ) ) ;
#162 = CARTESIAN_POINT ( 'NONE',  ( -0.09375000000000001388, 0.3125000000000000000, 0.000000000000000000 ) ) ;
#163 = MECHANICAL_DESIGN_GEOMETRIC_PRESENTATION_REPRESENTATION (  '', ( #92 ), #73 ) ;
#164 = SURFACE_SIDE_STYLE ('',( #168 ) ) ;
#165 = DIRECTION ( 'NONE',  ( 0.000000000000000000, 0.000000000000000000, -1.000000000000000000 ) ) ;
#166 = PRESENTATION_STYLE_ASSIGNMENT (( #126 ) ) ;
#167 =( GEOMETRIC_REPRESENTATION_CONTEXT ( 3 ) GLOBAL_UNCERTAINTY_ASSIGNED_CONTEXT ( ( #81 ) ) GLOBAL_UNIT_ASSIGNED_CONTEXT ( ( #143, #122, #58 ) ) REPRESENTATION_CONTEXT ( 'NONE', 'WORKASPACE' ) );
#168 = SURFACE_STYLE_FILL_AREA ( #75 ) ;
#169 = SURFACE_STYLE_USAGE ( .BOTH. , #292 ) ;
#170 = EDGE_LOOP ( 'NONE', ( #136, #116 ) ) ;
#171 = SURFACE_SIDE_STYLE ('',( #41 ) ) ;
#172 = AXIS2_PLACEMENT_3D ( 'NONE', #13, #65, #21 ) ;
#173 =( CONVERSION_BASED_UNIT ( 'INCH', #199 ) LENGTH_UNIT ( ) NAMED_UNIT ( #97 ) );
#174 =( NAMED_UNIT ( * ) SI_UNIT ( $, .STERADIAN. ) SOLID_ANGLE_UNIT ( ) );
#175 = VERTEX_POINT ( 'NONE', #71 ) ;
#176 = EDGE_CURVE ( 'NONE', #86, #154, #108, .T. ) ;
#177 = CARTESIAN_POINT ( 'NONE',  ( 0.000000000000000000, 0.3125000000000000000, 0.000000000000000000 ) ) ;
#178 =( GEOMETRIC_REPRESENTATION_CONTEXT ( 3 ) GLOBAL_UNCERTAINTY_ASSIGNED_CONTEXT ( ( #242 ) ) GLOBAL_UNIT_ASSIGNED_CONTEXT ( ( #272, #149, #299 ) ) REPRESENTATION_CONTEXT ( 'NONE', 'WORKASPACE' ) );
#179 = AXIS2_PLACEMENT_3D ( 'NONE', #96, #98, #188 ) ;
#180 = FILL_AREA_STYLE_COLOUR ( '', #24 ) ;
#181 = VERTEX_POINT ( 'NONE', #72 ) ;
#182 = SURFACE_STYLE_FILL_AREA ( #213 ) ;
#183 =( NAMED_UNIT ( * ) PLANE_ANGLE_UNIT ( ) SI_UNIT ( $, .RADIAN. ) );
#184 = DIRECTION ( 'NONE',  ( 0.000000000000000000, 0.000000000000000000, -1.000000000000000000 ) ) ;
#185 = COLOUR_RGB ( '',1.000000000000000000, 0.000000000000000000, 0.000000000000000000 ) ;
#186 = AXIS2_PLACEMENT_3D ( 'NONE', #267, #218, #165 ) ;
#187 = CIRCLE ( 'NONE', #179, 0.09375000000000001388 ) ;
#188 = DIRECTION ( 'NONE',  ( -1.000000000000000000, 0.000000000000000000, 0.000000000000000000 ) ) ;
#189 = DIMENSIONAL_EXPONENTS ( 1.000000000000000000, 0.000000000000000000, 0.000000000000000000, 0.000000000000000000, 0.000000000000000000, 0.000000000000000000, 0.000000000000000000 ) ;
#190 = ADVANCED_FACE ( 'NONE', ( #104 ), #245, .T. ) ;
#191 = CARTESIAN_POINT ( 'NONE',  ( 6.123233995736766036E-17, 2.000000000000000000, 0.000000000000000000 ) ) ;
#192 = STYLED_ITEM ( 'NONE', ( #91 ), #246 ) ;
#193 = ADVANCED_FACE ( 'NONE', ( #78 ), #9, .T. ) ;
#194 = LINE ( 'NONE', #35, #141 ) ;
#195 =( GEOMETRIC_REPRESENTATION_CONTEXT ( 3 ) GLOBAL_UNCERTAINTY_ASSIGNED_CONTEXT ( ( #130 ) ) GLOBAL_UNIT_ASSIGNED_CONTEXT ( ( #31, #183, #51 ) ) REPRESENTATION_CONTEXT ( 'NONE', 'WORKASPACE' ) );
#196 = EDGE_CURVE ( 'NONE', #209, #175, #10, .T. ) ;
#197 = DIRECTION ( 'NONE',  ( -0.000000000000000000, -1.000000000000000000, -0.000000000000000000 ) ) ;
#198 =( CONVERSION_BASED_UNIT ( 'INCH', #12 ) LENGTH_UNIT ( ) NAMED_UNIT ( #53 ) );
#199 = LENGTH_MEASURE_WITH_UNIT ( LENGTH_MEASURE( 0.02539999999999999897 ), #226 );
#200 = LENGTH_MEASURE_WITH_UNIT ( LENGTH_MEASURE( 0.02539999999999999897 ), #274 );
#201 = MECHANICAL_DESIGN_GEOMETRIC_PRESENTATION_REPRESENTATION (  '', ( #56 ), #256 ) ;
#202 = SURFACE_STYLE_FILL_AREA ( #204 ) ;
#203 = CARTESIAN_POINT ( 'NONE',  ( 0.000000000000000000, 0.3125000000000000000, 0.000000000000000000 ) ) ;
#204 = FILL_AREA_STYLE ('',( #94 ) ) ;
#205 = UNCERTAINTY_MEASURE_WITH_UNIT (LENGTH_MEASURE( 1.000000000000000082E-05 ), #240, 'distance_accuracy_value', 'NONE');
#206 = ORIENTED_EDGE ( 'NONE', *, *, #277, .T. ) ;
#207 = EDGE_CURVE ( 'NONE', #14, #86, #194, .T. ) ;
#208 = MECHANICAL_DESIGN_GEOMETRIC_PRESENTATION_REPRESENTATION (  '', ( #270 ), #178 ) ;
#209 = VERTEX_POINT ( 'NONE', #102 ) ;
#210 = MANIFOLD_SOLID_BREP ( 'Revolve - Tool Body (Straight Shanked)', #23 ) ;
#211 = PRESENTATION_STYLE_ASSIGNMENT (( #4 ) ) ;
#212 = LENGTH_MEASURE_WITH_UNIT ( LENGTH_MEASURE( 0.02539999999999999897 ), #139 );
#213 = FILL_AREA_STYLE ('',( #305 ) ) ;
#214 = AXIS2_PLACEMENT_3D ( 'NONE', #257, #134, #45 ) ;
#215 = DIRECTION ( 'NONE',  ( 0.000000000000000000, 0.000000000000000000, -1.000000000000000000 ) ) ;
#216 = CARTESIAN_POINT ( 'NONE',  ( 0.000000000000000000, 0.000000000000000000, 0.000000000000000000 ) ) ;
#217 = DIRECTION ( 'NONE',  ( -1.000000000000000000, 3.628583108584750472E-17, 0.000000000000000000 ) ) ;
#218 = DIRECTION ( 'NONE',  ( -0.000000000000000000, -1.000000000000000000, -0.000000000000000000 ) ) ;
#219 = STYLED_ITEM ( 'NONE', ( #100 ), #190 ) ;
#220 = FILL_AREA_STYLE ('',( #77 ) ) ;
#221 = ADVANCED_FACE ( 'NONE', ( #254 ), #291, .F. ) ;
#222 = DIRECTION ( 'NONE',  ( 0.000000000000000000, -1.000000000000000000, -0.000000000000000000 ) ) ;
#223 = COLOUR_RGB ( '',1.000000000000000000, 0.000000000000000000, 0.000000000000000000 ) ;
#224 = PRODUCT_RELATED_PRODUCT_CATEGORY ( 'part', '', ( #2 ) ) ;
#225 =( LENGTH_UNIT ( ) NAMED_UNIT ( * ) SI_UNIT ( $, .METRE. ) );
#226 =( LENGTH_UNIT ( ) NAMED_UNIT ( * ) SI_UNIT ( $, .METRE. ) );
#227 = EDGE_CURVE ( 'NONE', #181, #154, #296, .T. ) ;
#228 = ADVANCED_BREP_SHAPE_REPRESENTATION ( '00090', ( #7, #210, #290 ), #195 ) ;
#229 = ORIENTED_EDGE ( 'NONE', *, *, #196, .F. ) ;
#230 = AXIS2_PLACEMENT_3D ( 'NONE', #203, #82, #19 ) ;
#231 = PLANE ( 'NONE',  #5 ) ;
#232 = VERTEX_POINT ( 'NONE', #302 ) ;
#233 = SURFACE_SIDE_STYLE ('',( #61 ) ) ;
#234 = ORIENTED_EDGE ( 'NONE', *, *, #277, .F. ) ;
#235 = ORIENTED_EDGE ( 'NONE', *, *, #176, .T. ) ;
#236 = DIRECTION ( 'NONE',  ( -0.000000000000000000, -1.000000000000000000, -0.000000000000000000 ) ) ;
#237 = FACE_OUTER_BOUND ( 'NONE', #303, .T. ) ;
#238 = DIRECTION ( 'NONE',  ( -1.000000000000000000, 0.000000000000000000, 0.000000000000000000 ) ) ;
#239 = COLOUR_RGB ( '',1.000000000000000000, 0.000000000000000000, 0.000000000000000000 ) ;
#240 =( CONVERSION_BASED_UNIT ( 'INCH', #156 ) LENGTH_UNIT ( ) NAMED_UNIT ( #286 ) );
#241 = FACE_OUTER_BOUND ( 'NONE', #40, .T. ) ;
#242 = UNCERTAINTY_MEASURE_WITH_UNIT (LENGTH_MEASURE( 1.000000000000000082E-05 ), #272, 'distance_accuracy_value', 'NONE');
#243 =( CONVERSION_BASED_UNIT ( 'INCH', #264 ) LENGTH_UNIT ( ) NAMED_UNIT ( #27 ) );
#244 = EDGE_CURVE ( 'NONE', #22, #232, #147, .T. ) ;
#245 = PLANE ( 'NONE',  #276 ) ;
#246 = ADVANCED_FACE ( 'NONE', ( #83 ), #231, .T. ) ;
#247 = FILL_AREA_STYLE_COLOUR ( '', #223 ) ;
#248 = PRESENTATION_LAYER_ASSIGNMENT (  '', '', ( #92 ) ) ;
#249 =( NAMED_UNIT ( * ) SI_UNIT ( $, .STERADIAN. ) SOLID_ANGLE_UNIT ( ) );
#250 = ORIENTED_EDGE ( 'NONE', *, *, #74, .T. ) ;
#251 = UNCERTAINTY_MEASURE_WITH_UNIT (LENGTH_MEASURE( 1.000000000000000082E-05 ), #243, 'distance_accuracy_value', 'NONE');
#252 =( LENGTH_UNIT ( ) NAMED_UNIT ( * ) SI_UNIT ( $, .METRE. ) );
#253 = EDGE_LOOP ( 'NONE', ( #235, #20 ) ) ;
#254 = FACE_OUTER_BOUND ( 'NONE', #253, .T. ) ;
#255 = FACE_OUTER_BOUND ( 'NONE', #64, .T. ) ;
#256 =( GEOMETRIC_REPRESENTATION_CONTEXT ( 3 ) GLOBAL_UNCERTAINTY_ASSIGNED_CONTEXT ( ( #205 ) ) GLOBAL_UNIT_ASSIGNED_CONTEXT ( ( #240, #52, #261 ) ) REPRESENTATION_CONTEXT ( 'NONE', 'WORKASPACE' ) );
#257 = CARTESIAN_POINT ( 'NONE',  ( 6.123233995736766036E-17, 2.000000000000000000, 0.000000000000000000 ) ) ;
#258 = ORIENTED_EDGE ( 'NONE', *, *, #85, .F. ) ;
#259 = CIRCLE ( 'NONE', #30, 0.09375000000000001388 ) ;
#260 = PRODUCT_CONTEXT ( 'NONE', #112, 'mechanical' ) ;
#261 =( NAMED_UNIT ( * ) SI_UNIT ( $, .STERADIAN. ) SOLID_ANGLE_UNIT ( ) );
#262 = DIMENSIONAL_EXPONENTS ( 1.000000000000000000, 0.000000000000000000, 0.000000000000000000, 0.000000000000000000, 0.000000000000000000, 0.000000000000000000, 0.000000000000000000 ) ;
#263 = CYLINDRICAL_SURFACE ( 'NONE', #18, 0.09374999999999997224 ) ;
#264 = LENGTH_MEASURE_WITH_UNIT ( LENGTH_MEASURE( 0.02539999999999999897 ), #225 );
#265 = FILL_AREA_STYLE_COLOUR ( '', #239 ) ;
#266 = CARTESIAN_POINT ( 'NONE',  ( 0.000000000000000000, 0.000000000000000000, 0.000000000000000000 ) ) ;
#267 = CARTESIAN_POINT ( 'NONE',  ( 0.000000000000000000, 0.000000000000000000, 0.000000000000000000 ) ) ;
#268 = PRODUCT_DEFINITION_CONTEXT ( 'detailed design', #63, 'design' ) ;
#269 = PRESENTATION_STYLE_ASSIGNMENT (( #87 ) ) ;
#270 = STYLED_ITEM ( 'NONE', ( #89 ), #7 ) ;
#271 = PRESENTATION_LAYER_ASSIGNMENT (  '', '', ( #219 ) ) ;
#272 =( CONVERSION_BASED_UNIT ( 'INCH', #200 ) LENGTH_UNIT ( ) NAMED_UNIT ( #262 ) );
#273 =( NAMED_UNIT ( * ) PLANE_ANGLE_UNIT ( ) SI_UNIT ( $, .RADIAN. ) );
#274 =( LENGTH_UNIT ( ) NAMED_UNIT ( * ) SI_UNIT ( $, .METRE. ) );
#275 = CIRCLE ( 'NONE', #304, 0.09375000000000001388 ) ;
#276 = AXIS2_PLACEMENT_3D ( 'NONE', #266, #222, #38 ) ;
#277 = EDGE_CURVE ( 'NONE', #232, #22, #259, .T. ) ;
#278 = ORIENTED_EDGE ( 'NONE', *, *, #26, .T. ) ;
#279 = DIRECTION ( 'NONE',  ( 0.000000000000000000, 0.000000000000000000, 1.000000000000000000 ) ) ;
#280 = DIRECTION ( 'NONE',  ( 3.628583108584750472E-17, 1.000000000000000000, -0.000000000000000000 ) ) ;
#281 = EDGE_CURVE ( 'NONE', #154, #86, #123, .T. ) ;
#282 = CLOSED_SHELL ( 'NONE', ( #193, #246, #11, #190 ) ) ;
#283 = PRESENTATION_LAYER_ASSIGNMENT (  '', '', ( #270 ) ) ;
#284 = AXIS2_PLACEMENT_3D ( 'NONE', #106, #197, #124 ) ;
#285 = FACE_OUTER_BOUND ( 'NONE', #114, .T. ) ;
#286 = DIMENSIONAL_EXPONENTS ( 1.000000000000000000, 0.000000000000000000, 0.000000000000000000, 0.000000000000000000, 0.000000000000000000, 0.000000000000000000, 0.000000000000000000 ) ;
#287 = DIRECTION ( 'NONE',  ( -1.000000000000000000, 0.000000000000000000, 0.000000000000000000 ) ) ;
#288 = DIRECTION ( 'NONE',  ( -1.000000000000000000, 0.000000000000000000, 0.000000000000000000 ) ) ;
#289 = VECTOR ( 'NONE', #295, 39.37007874015748143 ) ;
#290 = AXIS2_PLACEMENT_3D ( 'NONE', #216, #279, #155 ) ;
#291 = PLANE ( 'NONE',  #172 ) ;
#292 = SURFACE_SIDE_STYLE ('',( #127 ) ) ;
#293 = VECTOR ( 'NONE', #121, 39.37007874015748143 ) ;
#294 = LENGTH_MEASURE_WITH_UNIT ( LENGTH_MEASURE( 0.02539999999999999897 ), #57 );
#295 = DIRECTION ( 'NONE',  ( 3.628583108584750472E-17, 1.000000000000000000, -0.000000000000000000 ) ) ;
#296 = LINE ( 'NONE', #39, #289 ) ;
#297 = EDGE_LOOP ( 'NONE', ( #42, #278, #229, #258 ) ) ;
#298 = MECHANICAL_DESIGN_GEOMETRIC_PRESENTATION_REPRESENTATION (  '', ( #219 ), #167 ) ;
#299 =( NAMED_UNIT ( * ) SI_UNIT ( $, .STERADIAN. ) SOLID_ANGLE_UNIT ( ) );
#300 = DIRECTION ( 'NONE',  ( 0.000000000000000000, -0.000000000000000000, 1.000000000000000000 ) ) ;
#301 = ORIENTED_EDGE ( 'NONE', *, *, #207, .F. ) ;
#302 = CARTESIAN_POINT ( 'NONE',  ( 1.148106374200643863E-17, 0.3125000000000000000, 0.09375000000000001388 ) ) ;
#303 = EDGE_LOOP ( 'NONE', ( #66, #17 ) ) ;
#304 = AXIS2_PLACEMENT_3D ( 'NONE', #95, #1, #184 ) ;
#305 = FILL_AREA_STYLE_COLOUR ( '', #185 ) ;
#306 = CYLINDRICAL_SURFACE ( 'NONE', #101, 0.09374999999999997224 ) ;
#307 = CARTESIAN_POINT ( 'NONE',  ( 6.123233995736766036E-17, 2.000000000000000000, 0.000000000000000000 ) ) ;
#308 = AXIS2_PLACEMENT_3D ( 'NONE', #50, #140, #217 ) ;
#309 = DIMENSIONAL_EXPONENTS ( 1.000000000000000000, 0.000000000000000000, 0.000000000000000000, 0.000000000000000000, 0.000000000000000000, 0.000000000000000000, 0.000000000000000000 ) ;
ENDSEC;
END-ISO-10303-21;
