ISO-10303-21;
HEADER;
FILE_DESCRIPTION (( 'STEP AP214' ),
    '1' );
FILE_NAME ('44287W.STEP',
    '2023-06-22T19:55:59',
    ( '' ),
    ( '' ),
    'SwSTEP 2.0',
    'SolidWorks 2023',
    '' );
FILE_SCHEMA (( 'AUTOMOTIVE_DESIGN' ));
ENDSEC;

DATA;
#1 = DIRECTION ( 'NONE',  ( -0.000000000000000000, -1.000000000000000000, -0.000000000000000000 ) ) ;
#2 = DIMENSIONAL_EXPONENTS ( 1.000000000000000000, 0.000000000000000000, 0.000000000000000000, 0.000000000000000000, 0.000000000000000000, 0.000000000000000000, 0.000000000000000000 ) ;
#3 = DIRECTION ( 'NONE',  ( -0.000000000000000000, -1.000000000000000000, -0.000000000000000000 ) ) ;
#4 = DIRECTION ( 'NONE',  ( -3.498990854706726443E-17, 1.000000000000000000, -0.000000000000000000 ) ) ;
#5 = VECTOR ( 'NONE', #104, 39.37007874015748143 ) ;
#6 = AXIS2_PLACEMENT_3D ( 'NONE', #188, #286, #53 ) ;
#7 =( CONVERSION_BASED_UNIT ( 'INCH', #133 ) LENGTH_UNIT ( ) NAMED_UNIT ( #31 ) );
#8 = SURFACE_STYLE_USAGE ( .BOTH. , #195 ) ;
#9 = DIRECTION ( 'NONE',  ( -1.000000000000000000, 0.000000000000000000, 0.000000000000000000 ) ) ;
#10 = CARTESIAN_POINT ( 'NONE',  ( -6.123233995736772199E-17, 3.000000000000000444, 0.000000000000000000 ) ) ;
#11 = CARTESIAN_POINT ( 'NONE',  ( 0.2499999999999999722, 3.000000000000000444, 3.061616997868383634E-17 ) ) ;
#12 = ADVANCED_FACE ( 'NONE', ( #87 ), #202, .T. ) ;
#13 = MANIFOLD_SOLID_BREP ( 'Revolve - Cutting Edge', #154 ) ;
#14 = FILL_AREA_STYLE ('',( #38 ) ) ;
#15 = AXIS2_PLACEMENT_3D ( 'NONE', #265, #235, #96 ) ;
#16 = ORIENTED_EDGE ( 'NONE', *, *, #306, .F. ) ;
#17 =( NAMED_UNIT ( * ) SI_UNIT ( $, .STERADIAN. ) SOLID_ANGLE_UNIT ( ) );
#18 = VERTEX_POINT ( 'NONE', #25 ) ;
#19 = DIRECTION ( 'NONE',  ( -3.498990854706726443E-17, 1.000000000000000000, -0.000000000000000000 ) ) ;
#20 = ORIENTED_EDGE ( 'NONE', *, *, #129, .T. ) ;
#21 = ADVANCED_BREP_SHAPE_REPRESENTATION ( '44287W', ( #13, #121, #6 ), #267 ) ;
#22 = AXIS2_PLACEMENT_3D ( 'NONE', #224, #4, #9 ) ;
#23 = LENGTH_MEASURE_WITH_UNIT ( LENGTH_MEASURE( 0.02539999999999999897 ), #283 );
#24 = EDGE_LOOP ( 'NONE', ( #142, #205 ) ) ;
#25 = CARTESIAN_POINT ( 'NONE',  ( -0.2500000000000001665, 3.000000000000000444, 0.000000000000000000 ) ) ;
#26 = CIRCLE ( 'NONE', #278, 0.2500000000000000000 ) ;
#27 = DIMENSIONAL_EXPONENTS ( 1.000000000000000000, 0.000000000000000000, 0.000000000000000000, 0.000000000000000000, 0.000000000000000000, 0.000000000000000000, 0.000000000000000000 ) ;
#28 = SURFACE_SIDE_STYLE ('',( #309 ) ) ;
#29 = DIMENSIONAL_EXPONENTS ( 1.000000000000000000, 0.000000000000000000, 0.000000000000000000, 0.000000000000000000, 0.000000000000000000, 0.000000000000000000, 0.000000000000000000 ) ;
#30 = DIRECTION ( 'NONE',  ( 0.000000000000000000, 1.000000000000000000, 0.000000000000000000 ) ) ;
#31 = DIMENSIONAL_EXPONENTS ( 1.000000000000000000, 0.000000000000000000, 0.000000000000000000, 0.000000000000000000, 0.000000000000000000, 0.000000000000000000, 0.000000000000000000 ) ;
#32 = FILL_AREA_STYLE_COLOUR ( '', #47 ) ;
#33 = VECTOR ( 'NONE', #35, 39.37007874015748143 ) ;
#34 = PRODUCT_RELATED_PRODUCT_CATEGORY ( 'part', '', ( #164 ) ) ;
#35 = DIRECTION ( 'NONE',  ( -0.000000000000000000, -1.000000000000000000, -0.000000000000000000 ) ) ;
#36 = MECHANICAL_DESIGN_GEOMETRIC_PRESENTATION_REPRESENTATION (  '', ( #172 ), #97 ) ;
#37 = DIRECTION ( 'NONE',  ( -3.498990854706726443E-17, 1.000000000000000000, -0.000000000000000000 ) ) ;
#38 = FILL_AREA_STYLE_COLOUR ( '', #132 ) ;
#39 = EDGE_LOOP ( 'NONE', ( #227, #256, #16, #179 ) ) ;
#40 = CARTESIAN_POINT ( 'NONE',  ( 0.2500000000000000555, 3.000000000000000444, 0.000000000000000000 ) ) ;
#41 = APPLICATION_CONTEXT ( 'automotive_design' ) ;
#42 = DIRECTION ( 'NONE',  ( -1.000000000000000000, 0.000000000000000000, 0.000000000000000000 ) ) ;
#43 = LINE ( 'NONE', #11, #146 ) ;
#44 = ORIENTED_EDGE ( 'NONE', *, *, #242, .F. ) ;
#45 = SURFACE_STYLE_USAGE ( .BOTH. , #258 ) ;
#46 = STYLED_ITEM ( 'NONE', ( #76 ), #13 ) ;
#47 = COLOUR_RGB ( '',0.7921568627450980005, 0.8196078431372548767, 0.9333333333333333481 ) ;
#48 =( NAMED_UNIT ( * ) SI_UNIT ( $, .STERADIAN. ) SOLID_ANGLE_UNIT ( ) );
#49 = EDGE_CURVE ( 'NONE', #209, #18, #198, .T. ) ;
#50 =( CONVERSION_BASED_UNIT ( 'INCH', #287 ) LENGTH_UNIT ( ) NAMED_UNIT ( #2 ) );
#51 = CARTESIAN_POINT ( 'NONE',  ( 0.000000000000000000, 0.000000000000000000, 0.000000000000000000 ) ) ;
#52 = FACE_OUTER_BOUND ( 'NONE', #39, .T. ) ;
#53 = DIRECTION ( 'NONE',  ( 1.000000000000000000, 0.000000000000000000, 0.000000000000000000 ) ) ;
#54 = ADVANCED_FACE ( 'NONE', ( #52 ), #238, .T. ) ;
#55 = FILL_AREA_STYLE_COLOUR ( '', #186 ) ;
#56 = PRESENTATION_LAYER_ASSIGNMENT (  '', '', ( #172 ) ) ;
#57 = CARTESIAN_POINT ( 'NONE',  ( 0.000000000000000000, 1.250000000000000000, 0.000000000000000000 ) ) ;
#58 = DIRECTION ( 'NONE',  ( -3.498990854706726443E-17, 1.000000000000000000, 0.000000000000000000 ) ) ;
#59 = DIRECTION ( 'NONE',  ( -1.000000000000000000, -3.498990854706726443E-17, 0.000000000000000000 ) ) ;
#60 = FACE_OUTER_BOUND ( 'NONE', #71, .T. ) ;
#61 =( GEOMETRIC_REPRESENTATION_CONTEXT ( 3 ) GLOBAL_UNCERTAINTY_ASSIGNED_CONTEXT ( ( #187 ) ) GLOBAL_UNIT_ASSIGNED_CONTEXT ( ( #7, #176, #298 ) ) REPRESENTATION_CONTEXT ( 'NONE', 'WORKASPACE' ) );
#62 = ADVANCED_FACE ( 'NONE', ( #173 ), #185, .T. ) ;
#63 = DIRECTION ( 'NONE',  ( -3.498990854706726443E-17, 1.000000000000000000, -0.000000000000000000 ) ) ;
#64 = CARTESIAN_POINT ( 'NONE',  ( 0.2499999999999999722, 1.250000000000000000, 3.061616997868383634E-17 ) ) ;
#65 = ORIENTED_EDGE ( 'NONE', *, *, #295, .T. ) ;
#66 = EDGE_CURVE ( 'NONE', #157, #208, #228, .T. ) ;
#67 = AXIS2_PLACEMENT_3D ( 'NONE', #180, #225, #279 ) ;
#68 = CARTESIAN_POINT ( 'NONE',  ( 0.000000000000000000, 1.250000000000000000, 0.000000000000000000 ) ) ;
#69 = VERTEX_POINT ( 'NONE', #85 ) ;
#70 = FACE_OUTER_BOUND ( 'NONE', #122, .T. ) ;
#71 = EDGE_LOOP ( 'NONE', ( #302, #280 ) ) ;
#72 =( CONVERSION_BASED_UNIT ( 'INCH', #266 ) LENGTH_UNIT ( ) NAMED_UNIT ( #80 ) );
#73 = STYLED_ITEM ( 'NONE', ( #143 ), #12 ) ;
#74 = UNCERTAINTY_MEASURE_WITH_UNIT (LENGTH_MEASURE( 1.000000000000000082E-05 ), #138, 'distance_accuracy_value', 'NONE');
#75 =( NAMED_UNIT ( * ) PLANE_ANGLE_UNIT ( ) SI_UNIT ( $, .RADIAN. ) );
#76 = PRESENTATION_STYLE_ASSIGNMENT (( #130 ) ) ;
#77 = DIRECTION ( 'NONE',  ( -0.000000000000000000, -1.000000000000000000, -0.000000000000000000 ) ) ;
#78 =( LENGTH_UNIT ( ) NAMED_UNIT ( * ) SI_UNIT ( $, .METRE. ) );
#79 = ADVANCED_FACE ( 'NONE', ( #60 ), #219, .F. ) ;
#80 = DIMENSIONAL_EXPONENTS ( 1.000000000000000000, 0.000000000000000000, 0.000000000000000000, 0.000000000000000000, 0.000000000000000000, 0.000000000000000000, 0.000000000000000000 ) ;
#81 = DIRECTION ( 'NONE',  ( 0.000000000000000000, 0.000000000000000000, -1.000000000000000000 ) ) ;
#82 = SURFACE_STYLE_FILL_AREA ( #107 ) ;
#83 = AXIS2_PLACEMENT_3D ( 'NONE', #281, #201, #86 ) ;
#84 = FILL_AREA_STYLE ('',( #153 ) ) ;
#85 = CARTESIAN_POINT ( 'NONE',  ( 0.000000000000000000, 0.000000000000000000, -0.2500000000000000000 ) ) ;
#86 = DIRECTION ( 'NONE',  ( 0.000000000000000000, 0.000000000000000000, -1.000000000000000000 ) ) ;
#87 = FACE_OUTER_BOUND ( 'NONE', #24, .T. ) ;
#88 = AXIS2_PLACEMENT_3D ( 'NONE', #10, #63, #165 ) ;
#89 = SURFACE_SIDE_STYLE ('',( #206 ) ) ;
#90 = EDGE_LOOP ( 'NONE', ( #300, #20 ) ) ;
#91 = ORIENTED_EDGE ( 'NONE', *, *, #123, .T. ) ;
#92 = CYLINDRICAL_SURFACE ( 'NONE', #67, 0.2500000000000000000 ) ;
#93 = ORIENTED_EDGE ( 'NONE', *, *, #99, .T. ) ;
#94 = MECHANICAL_DESIGN_GEOMETRIC_PRESENTATION_REPRESENTATION (  '', ( #120 ), #61 ) ;
#95 = DIRECTION ( 'NONE',  ( -3.498990854706726443E-17, 1.000000000000000000, -0.000000000000000000 ) ) ;
#96 = DIRECTION ( 'NONE',  ( -1.000000000000000000, 0.000000000000000000, 0.000000000000000000 ) ) ;
#97 =( GEOMETRIC_REPRESENTATION_CONTEXT ( 3 ) GLOBAL_UNCERTAINTY_ASSIGNED_CONTEXT ( ( #124 ) ) GLOBAL_UNIT_ASSIGNED_CONTEXT ( ( #222, #269, #221 ) ) REPRESENTATION_CONTEXT ( 'NONE', 'WORKASPACE' ) );
#98 =( LENGTH_UNIT ( ) NAMED_UNIT ( * ) SI_UNIT ( $, .METRE. ) );
#99 = EDGE_CURVE ( 'NONE', #157, #18, #134, .T. ) ;
#100 = COLOUR_RGB ( '',0.7921568627450980005, 0.8196078431372548767, 0.9333333333333333481 ) ;
#101 = MECHANICAL_DESIGN_GEOMETRIC_PRESENTATION_REPRESENTATION (  '', ( #292 ), #115 ) ;
#102 = CARTESIAN_POINT ( 'NONE',  ( 0.000000000000000000, 0.000000000000000000, -0.2500000000000000000 ) ) ;
#103 = ADVANCED_FACE ( 'NONE', ( #216 ), #136, .T. ) ;
#104 = DIRECTION ( 'NONE',  ( -0.000000000000000000, -1.000000000000000000, -0.000000000000000000 ) ) ;
#105 = CLOSED_SHELL ( 'NONE', ( #103, #79, #192, #170 ) ) ;
#106 = CIRCLE ( 'NONE', #199, 0.2499999999999999722 ) ;
#107 = FILL_AREA_STYLE ('',( #32 ) ) ;
#108 =( LENGTH_UNIT ( ) NAMED_UNIT ( * ) SI_UNIT ( $, .METRE. ) );
#109 = EDGE_CURVE ( 'NONE', #181, #69, #148, .T. ) ;
#110 = CARTESIAN_POINT ( 'NONE',  ( -6.123233995736772199E-17, 3.000000000000000444, 0.000000000000000000 ) ) ;
#111 = CARTESIAN_POINT ( 'NONE',  ( 0.000000000000000000, 0.000000000000000000, 0.000000000000000000 ) ) ;
#112 = MECHANICAL_DESIGN_GEOMETRIC_PRESENTATION_REPRESENTATION (  '', ( #46 ), #150 ) ;
#113 =( GEOMETRIC_REPRESENTATION_CONTEXT ( 3 ) GLOBAL_UNCERTAINTY_ASSIGNED_CONTEXT ( ( #203 ) ) GLOBAL_UNIT_ASSIGNED_CONTEXT ( ( #72, #260, #288 ) ) REPRESENTATION_CONTEXT ( 'NONE', 'WORKASPACE' ) );
#114 = ORIENTED_EDGE ( 'NONE', *, *, #109, .T. ) ;
#115 =( GEOMETRIC_REPRESENTATION_CONTEXT ( 3 ) GLOBAL_UNCERTAINTY_ASSIGNED_CONTEXT ( ( #74 ) ) GLOBAL_UNIT_ASSIGNED_CONTEXT ( ( #138, #229, #17 ) ) REPRESENTATION_CONTEXT ( 'NONE', 'WORKASPACE' ) );
#116 = EDGE_CURVE ( 'NONE', #231, #159, #197, .T. ) ;
#117 = ORIENTED_EDGE ( 'NONE', *, *, #129, .F. ) ;
#118 = DIRECTION ( 'NONE',  ( -0.000000000000000000, -1.000000000000000000, -0.000000000000000000 ) ) ;
#119 = CARTESIAN_POINT ( 'NONE',  ( 0.2500000000000000555, 3.000000000000000444, 3.061616997868384251E-17 ) ) ;
#120 = STYLED_ITEM ( 'NONE', ( #290 ), #121 ) ;
#121 = MANIFOLD_SOLID_BREP ( 'Revolve - Tool Body (Straight Shanked)', #105 ) ;
#122 = EDGE_LOOP ( 'NONE', ( #44, #276, #93, #163 ) ) ;
#123 = EDGE_CURVE ( 'NONE', #18, #209, #139, .T. ) ;
#124 = UNCERTAINTY_MEASURE_WITH_UNIT (LENGTH_MEASURE( 1.000000000000000082E-05 ), #222, 'distance_accuracy_value', 'NONE');
#125 = PRODUCT_CONTEXT ( 'NONE', #41, 'mechanical' ) ;
#126 =( NAMED_UNIT ( * ) PLANE_ANGLE_UNIT ( ) SI_UNIT ( $, .RADIAN. ) );
#127 = AXIS2_PLACEMENT_3D ( 'NONE', #190, #30, #239 ) ;
#128 = STYLED_ITEM ( 'NONE', ( #212 ), #54 ) ;
#129 = EDGE_CURVE ( 'NONE', #159, #69, #289, .T. ) ;
#130 = SURFACE_STYLE_USAGE ( .BOTH. , #28 ) ;
#131 = DIMENSIONAL_EXPONENTS ( 1.000000000000000000, 0.000000000000000000, 0.000000000000000000, 0.000000000000000000, 0.000000000000000000, 0.000000000000000000, 0.000000000000000000 ) ;
#132 = COLOUR_RGB ( '',1.000000000000000000, 0.000000000000000000, 0.000000000000000000 ) ;
#133 = LENGTH_MEASURE_WITH_UNIT ( LENGTH_MEASURE( 0.02539999999999999897 ), #108 );
#134 = LINE ( 'NONE', #200, #207 ) ;
#135 = CARTESIAN_POINT ( 'NONE',  ( 3.061616997868383018E-17, 0.000000000000000000, 0.2500000000000000000 ) ) ;
#136 = CYLINDRICAL_SURFACE ( 'NONE', #22, 0.2500000000000000555 ) ;
#137 = DIRECTION ( 'NONE',  ( -1.000000000000000000, 0.000000000000000000, 0.000000000000000000 ) ) ;
#138 =( CONVERSION_BASED_UNIT ( 'INCH', #274 ) LENGTH_UNIT ( ) NAMED_UNIT ( #149 ) );
#139 = CIRCLE ( 'NONE', #88, 0.2500000000000001110 ) ;
#140 = FILL_AREA_STYLE_COLOUR ( '', #251 ) ;
#141 = ORIENTED_EDGE ( 'NONE', *, *, #49, .T. ) ;
#142 = ORIENTED_EDGE ( 'NONE', *, *, #250, .F. ) ;
#143 = PRESENTATION_STYLE_ASSIGNMENT (( #45 ) ) ;
#144 = AXIS2_PLACEMENT_3D ( 'NONE', #151, #58, #59 ) ;
#145 = PRODUCT_DEFINITION ( 'UNKNOWN', '', #223, #147 ) ;
#146 = VECTOR ( 'NONE', #272, 39.37007874015748143 ) ;
#147 = PRODUCT_DEFINITION_CONTEXT ( 'detailed design', #240, 'design' ) ;
#148 = LINE ( 'NONE', #102, #33 ) ;
#149 = DIMENSIONAL_EXPONENTS ( 1.000000000000000000, 0.000000000000000000, 0.000000000000000000, 0.000000000000000000, 0.000000000000000000, 0.000000000000000000, 0.000000000000000000 ) ;
#150 =( GEOMETRIC_REPRESENTATION_CONTEXT ( 3 ) GLOBAL_UNCERTAINTY_ASSIGNED_CONTEXT ( ( #234 ) ) GLOBAL_UNIT_ASSIGNED_CONTEXT ( ( #50, #126, #268 ) ) REPRESENTATION_CONTEXT ( 'NONE', 'WORKASPACE' ) );
#151 = CARTESIAN_POINT ( 'NONE',  ( 1.530367125165163381E-34, 1.250000000000000000, 0.000000000000000000 ) ) ;
#152 = LENGTH_MEASURE_WITH_UNIT ( LENGTH_MEASURE( 0.02539999999999999897 ), #270 );
#153 = FILL_AREA_STYLE_COLOUR ( '', #284 ) ;
#154 = CLOSED_SHELL ( 'NONE', ( #54, #12, #215, #62 ) ) ;
#155 = AXIS2_PLACEMENT_3D ( 'NONE', #40, #226, #246 ) ;
#156 = DIRECTION ( 'NONE',  ( 0.000000000000000000, -1.000000000000000000, -0.000000000000000000 ) ) ;
#157 = VERTEX_POINT ( 'NONE', #257 ) ;
#158 = DIRECTION ( 'NONE',  ( 0.000000000000000000, 0.000000000000000000, -1.000000000000000000 ) ) ;
#159 = VERTEX_POINT ( 'NONE', #178 ) ;
#160 = UNCERTAINTY_MEASURE_WITH_UNIT (LENGTH_MEASURE( 1.000000000000000082E-05 ), #177, 'distance_accuracy_value', 'NONE');
#161 =( LENGTH_UNIT ( ) NAMED_UNIT ( * ) SI_UNIT ( $, .METRE. ) );
#162 = CIRCLE ( 'NONE', #213, 0.2499999999999999722 ) ;
#163 = ORIENTED_EDGE ( 'NONE', *, *, #49, .F. ) ;
#164 = PRODUCT ( '44287W', '44287W', '', ( #125 ) ) ;
#165 = DIRECTION ( 'NONE',  ( -1.000000000000000000, 0.000000000000000000, 0.000000000000000000 ) ) ;
#166 = ORIENTED_EDGE ( 'NONE', *, *, #123, .F. ) ;
#167 = CYLINDRICAL_SURFACE ( 'NONE', #233, 0.2500000000000000555 ) ;
#168 = SURFACE_STYLE_FILL_AREA ( #232 ) ;
#169 = SURFACE_SIDE_STYLE ('',( #214 ) ) ;
#170 = ADVANCED_FACE ( 'NONE', ( #248 ), #275, .F. ) ;
#171 = APPLICATION_PROTOCOL_DEFINITION ( 'draft international standard', 'automotive_design', 1998, #240 ) ;
#172 = STYLED_ITEM ( 'NONE', ( #241 ), #62 ) ;
#173 = FACE_OUTER_BOUND ( 'NONE', #90, .T. ) ;
#174 = PRESENTATION_LAYER_ASSIGNMENT (  '', '', ( #292 ) ) ;
#175 = AXIS2_PLACEMENT_3D ( 'NONE', #245, #156, #293 ) ;
#176 =( NAMED_UNIT ( * ) PLANE_ANGLE_UNIT ( ) SI_UNIT ( $, .RADIAN. ) );
#177 =( CONVERSION_BASED_UNIT ( 'INCH', #297 ) LENGTH_UNIT ( ) NAMED_UNIT ( #131 ) );
#178 = CARTESIAN_POINT ( 'NONE',  ( 3.061616997868383018E-17, 0.000000000000000000, 0.2500000000000000000 ) ) ;
#179 = ORIENTED_EDGE ( 'NONE', *, *, #109, .F. ) ;
#180 = CARTESIAN_POINT ( 'NONE',  ( 0.000000000000000000, 0.000000000000000000, 0.000000000000000000 ) ) ;
#181 = VERTEX_POINT ( 'NONE', #296 ) ;
#182 = FACE_OUTER_BOUND ( 'NONE', #282, .T. ) ;
#183 = ORIENTED_EDGE ( 'NONE', *, *, #242, .T. ) ;
#184 =( CONVERSION_BASED_UNIT ( 'INCH', #23 ) LENGTH_UNIT ( ) NAMED_UNIT ( #27 ) );
#185 = PLANE ( 'NONE',  #175 ) ;
#186 = COLOUR_RGB ( '',1.000000000000000000, 0.000000000000000000, 0.000000000000000000 ) ;
#187 = UNCERTAINTY_MEASURE_WITH_UNIT (LENGTH_MEASURE( 1.000000000000000082E-05 ), #7, 'distance_accuracy_value', 'NONE');
#188 = CARTESIAN_POINT ( 'NONE',  ( 0.000000000000000000, 0.000000000000000000, 0.000000000000000000 ) ) ;
#189 = DIRECTION ( 'NONE',  ( 0.000000000000000000, 0.000000000000000000, -1.000000000000000000 ) ) ;
#190 = CARTESIAN_POINT ( 'NONE',  ( 0.000000000000000000, 1.250000000000000000, 0.000000000000000000 ) ) ;
#191 =( GEOMETRIC_REPRESENTATION_CONTEXT ( 3 ) GLOBAL_UNCERTAINTY_ASSIGNED_CONTEXT ( ( #160 ) ) GLOBAL_UNIT_ASSIGNED_CONTEXT ( ( #177, #249, #48 ) ) REPRESENTATION_CONTEXT ( 'NONE', 'WORKASPACE' ) );
#192 = ADVANCED_FACE ( 'NONE', ( #70 ), #167, .T. ) ;
#193 = MECHANICAL_DESIGN_GEOMETRIC_PRESENTATION_REPRESENTATION (  '', ( #128 ), #113 ) ;
#194 = DIRECTION ( 'NONE',  ( -1.000000000000000000, 0.000000000000000000, 0.000000000000000000 ) ) ;
#195 = SURFACE_SIDE_STYLE ('',( #82 ) ) ;
#196 = PRODUCT_DEFINITION_SHAPE ( 'NONE', 'NONE',  #145 ) ;
#197 = LINE ( 'NONE', #135, #5 ) ;
#198 = CIRCLE ( 'NONE', #15, 0.2500000000000001110 ) ;
#199 = AXIS2_PLACEMENT_3D ( 'NONE', #308, #1, #237 ) ;
#200 = CARTESIAN_POINT ( 'NONE',  ( -0.2500000000000001110, 3.000000000000000444, 0.000000000000000000 ) ) ;
#201 = DIRECTION ( 'NONE',  ( -0.000000000000000000, -1.000000000000000000, -0.000000000000000000 ) ) ;
#202 = PLANE ( 'NONE',  #127 ) ;
#203 = UNCERTAINTY_MEASURE_WITH_UNIT (LENGTH_MEASURE( 1.000000000000000082E-05 ), #72, 'distance_accuracy_value', 'NONE');
#204 = ORIENTED_EDGE ( 'NONE', *, *, #116, .F. ) ;
#205 = ORIENTED_EDGE ( 'NONE', *, *, #295, .F. ) ;
#206 = SURFACE_STYLE_FILL_AREA ( #14 ) ;
#207 = VECTOR ( 'NONE', #243, 39.37007874015748143 ) ;
#208 = VERTEX_POINT ( 'NONE', #64 ) ;
#209 = VERTEX_POINT ( 'NONE', #119 ) ;
#210 = SHAPE_DEFINITION_REPRESENTATION ( #196, #21 ) ;
#211 = FILL_AREA_STYLE_COLOUR ( '', #100 ) ;
#212 = PRESENTATION_STYLE_ASSIGNMENT (( #285 ) ) ;
#213 = AXIS2_PLACEMENT_3D ( 'NONE', #68, #19, #137 ) ;
#214 = SURFACE_STYLE_FILL_AREA ( #304 ) ;
#215 = ADVANCED_FACE ( 'NONE', ( #182 ), #92, .T. ) ;
#216 = FACE_OUTER_BOUND ( 'NONE', #299, .T. ) ;
#217 = PRESENTATION_LAYER_ASSIGNMENT (  '', '', ( #46 ) ) ;
#218 = PRESENTATION_LAYER_ASSIGNMENT (  '', '', ( #120 ) ) ;
#219 = PLANE ( 'NONE',  #144 ) ;
#220 = EDGE_CURVE ( 'NONE', #208, #157, #162, .T. ) ;
#221 =( NAMED_UNIT ( * ) SI_UNIT ( $, .STERADIAN. ) SOLID_ANGLE_UNIT ( ) );
#222 =( CONVERSION_BASED_UNIT ( 'INCH', #152 ) LENGTH_UNIT ( ) NAMED_UNIT ( #29 ) );
#223 = PRODUCT_DEFINITION_FORMATION_WITH_SPECIFIED_SOURCE ( 'ANY', '', #164, .NOT_KNOWN. ) ;
#224 = CARTESIAN_POINT ( 'NONE',  ( -6.123233995736772199E-17, 3.000000000000000444, 0.000000000000000000 ) ) ;
#225 = DIRECTION ( 'NONE',  ( -0.000000000000000000, -1.000000000000000000, -0.000000000000000000 ) ) ;
#226 = DIRECTION ( 'NONE',  ( 3.498990854706726443E-17, -1.000000000000000000, 0.000000000000000000 ) ) ;
#227 = ORIENTED_EDGE ( 'NONE', *, *, #250, .T. ) ;
#228 = CIRCLE ( 'NONE', #259, 0.2499999999999999722 ) ;
#229 =( NAMED_UNIT ( * ) PLANE_ANGLE_UNIT ( ) SI_UNIT ( $, .RADIAN. ) );
#230 = EDGE_LOOP ( 'NONE', ( #91, #141 ) ) ;
#231 = VERTEX_POINT ( 'NONE', #255 ) ;
#232 = FILL_AREA_STYLE ('',( #140 ) ) ;
#233 = AXIS2_PLACEMENT_3D ( 'NONE', #110, #95, #42 ) ;
#234 = UNCERTAINTY_MEASURE_WITH_UNIT (LENGTH_MEASURE( 1.000000000000000082E-05 ), #50, 'distance_accuracy_value', 'NONE');
#235 = DIRECTION ( 'NONE',  ( -3.498990854706726443E-17, 1.000000000000000000, -0.000000000000000000 ) ) ;
#236 = CIRCLE ( 'NONE', #83, 0.2499999999999999722 ) ;
#237 = DIRECTION ( 'NONE',  ( 0.000000000000000000, 0.000000000000000000, -1.000000000000000000 ) ) ;
#238 = CYLINDRICAL_SURFACE ( 'NONE', #252, 0.2500000000000000000 ) ;
#239 = DIRECTION ( 'NONE',  ( 0.000000000000000000, -0.000000000000000000, 1.000000000000000000 ) ) ;
#240 = APPLICATION_CONTEXT ( 'automotive_design' ) ;
#241 = PRESENTATION_STYLE_ASSIGNMENT (( #271 ) ) ;
#242 = EDGE_CURVE ( 'NONE', #208, #209, #43, .T. ) ;
#243 = DIRECTION ( 'NONE',  ( -3.498990854706726443E-17, 1.000000000000000000, -0.000000000000000000 ) ) ;
#244 = SURFACE_STYLE_FILL_AREA ( #84 ) ;
#245 = CARTESIAN_POINT ( 'NONE',  ( 0.000000000000000000, 0.000000000000000000, 0.000000000000000000 ) ) ;
#246 = DIRECTION ( 'NONE',  ( 1.000000000000000000, 3.498990854706726443E-17, 0.000000000000000000 ) ) ;
#247 = ORIENTED_EDGE ( 'NONE', *, *, #99, .F. ) ;
#248 = FACE_OUTER_BOUND ( 'NONE', #230, .T. ) ;
#249 =( NAMED_UNIT ( * ) PLANE_ANGLE_UNIT ( ) SI_UNIT ( $, .RADIAN. ) );
#250 = EDGE_CURVE ( 'NONE', #181, #231, #236, .T. ) ;
#251 = COLOUR_RGB ( '',1.000000000000000000, 0.000000000000000000, 0.000000000000000000 ) ;
#252 = AXIS2_PLACEMENT_3D ( 'NONE', #303, #3, #81 ) ;
#253 = SURFACE_STYLE_USAGE ( .BOTH. , #89 ) ;
#254 = ORIENTED_EDGE ( 'NONE', *, *, #66, .T. ) ;
#255 = CARTESIAN_POINT ( 'NONE',  ( 3.061616997868382402E-17, 1.250000000000000000, 0.2499999999999999722 ) ) ;
#256 = ORIENTED_EDGE ( 'NONE', *, *, #116, .T. ) ;
#257 = CARTESIAN_POINT ( 'NONE',  ( -0.2499999999999999722, 1.250000000000000000, 0.000000000000000000 ) ) ;
#258 = SURFACE_SIDE_STYLE ('',( #168 ) ) ;
#259 = AXIS2_PLACEMENT_3D ( 'NONE', #57, #37, #194 ) ;
#260 =( NAMED_UNIT ( * ) PLANE_ANGLE_UNIT ( ) SI_UNIT ( $, .RADIAN. ) );
#261 =( NAMED_UNIT ( * ) SI_UNIT ( $, .STERADIAN. ) SOLID_ANGLE_UNIT ( ) );
#262 = FILL_AREA_STYLE ('',( #211 ) ) ;
#263 = UNCERTAINTY_MEASURE_WITH_UNIT (LENGTH_MEASURE( 1.000000000000000082E-05 ), #184, 'distance_accuracy_value', 'NONE');
#264 = APPLICATION_PROTOCOL_DEFINITION ( 'draft international standard', 'automotive_design', 1998, #41 ) ;
#265 = CARTESIAN_POINT ( 'NONE',  ( -6.123233995736772199E-17, 3.000000000000000444, 0.000000000000000000 ) ) ;
#266 = LENGTH_MEASURE_WITH_UNIT ( LENGTH_MEASURE( 0.02539999999999999897 ), #98 );
#267 =( GEOMETRIC_REPRESENTATION_CONTEXT ( 3 ) GLOBAL_UNCERTAINTY_ASSIGNED_CONTEXT ( ( #263 ) ) GLOBAL_UNIT_ASSIGNED_CONTEXT ( ( #184, #75, #261 ) ) REPRESENTATION_CONTEXT ( 'NONE', 'WORKASPACE' ) );
#268 =( NAMED_UNIT ( * ) SI_UNIT ( $, .STERADIAN. ) SOLID_ANGLE_UNIT ( ) );
#269 =( NAMED_UNIT ( * ) PLANE_ANGLE_UNIT ( ) SI_UNIT ( $, .RADIAN. ) );
#270 =( LENGTH_UNIT ( ) NAMED_UNIT ( * ) SI_UNIT ( $, .METRE. ) );
#271 = SURFACE_STYLE_USAGE ( .BOTH. , #291 ) ;
#272 = DIRECTION ( 'NONE',  ( -3.498990854706726443E-17, 1.000000000000000000, -0.000000000000000000 ) ) ;
#273 =( LENGTH_UNIT ( ) NAMED_UNIT ( * ) SI_UNIT ( $, .METRE. ) );
#274 = LENGTH_MEASURE_WITH_UNIT ( LENGTH_MEASURE( 0.02539999999999999897 ), #161 );
#275 = PLANE ( 'NONE',  #155 ) ;
#276 = ORIENTED_EDGE ( 'NONE', *, *, #220, .T. ) ;
#277 = MECHANICAL_DESIGN_GEOMETRIC_PRESENTATION_REPRESENTATION (  '', ( #73 ), #191 ) ;
#278 = AXIS2_PLACEMENT_3D ( 'NONE', #51, #77, #189 ) ;
#279 = DIRECTION ( 'NONE',  ( 0.000000000000000000, 0.000000000000000000, -1.000000000000000000 ) ) ;
#280 = ORIENTED_EDGE ( 'NONE', *, *, #220, .F. ) ;
#281 = CARTESIAN_POINT ( 'NONE',  ( 0.000000000000000000, 1.250000000000000000, 0.000000000000000000 ) ) ;
#282 = EDGE_LOOP ( 'NONE', ( #204, #65, #114, #117 ) ) ;
#283 =( LENGTH_UNIT ( ) NAMED_UNIT ( * ) SI_UNIT ( $, .METRE. ) );
#284 = COLOUR_RGB ( '',1.000000000000000000, 0.000000000000000000, 0.000000000000000000 ) ;
#285 = SURFACE_STYLE_USAGE ( .BOTH. , #169 ) ;
#286 = DIRECTION ( 'NONE',  ( 0.000000000000000000, 0.000000000000000000, 1.000000000000000000 ) ) ;
#287 = LENGTH_MEASURE_WITH_UNIT ( LENGTH_MEASURE( 0.02539999999999999897 ), #78 );
#288 =( NAMED_UNIT ( * ) SI_UNIT ( $, .STERADIAN. ) SOLID_ANGLE_UNIT ( ) );
#289 = CIRCLE ( 'NONE', #307, 0.2500000000000000000 ) ;
#290 = PRESENTATION_STYLE_ASSIGNMENT (( #8 ) ) ;
#291 = SURFACE_SIDE_STYLE ('',( #244 ) ) ;
#292 = STYLED_ITEM ( 'NONE', ( #294 ), #215 ) ;
#293 = DIRECTION ( 'NONE',  ( 0.000000000000000000, 0.000000000000000000, -1.000000000000000000 ) ) ;
#294 = PRESENTATION_STYLE_ASSIGNMENT (( #253 ) ) ;
#295 = EDGE_CURVE ( 'NONE', #231, #181, #106, .T. ) ;
#296 = CARTESIAN_POINT ( 'NONE',  ( 0.000000000000000000, 1.250000000000000000, -0.2499999999999999722 ) ) ;
#297 = LENGTH_MEASURE_WITH_UNIT ( LENGTH_MEASURE( 0.02539999999999999897 ), #273 );
#298 =( NAMED_UNIT ( * ) SI_UNIT ( $, .STERADIAN. ) SOLID_ANGLE_UNIT ( ) );
#299 = EDGE_LOOP ( 'NONE', ( #254, #183, #166, #247 ) ) ;
#300 = ORIENTED_EDGE ( 'NONE', *, *, #306, .T. ) ;
#301 = PRESENTATION_LAYER_ASSIGNMENT (  '', '', ( #128 ) ) ;
#302 = ORIENTED_EDGE ( 'NONE', *, *, #66, .F. ) ;
#303 = CARTESIAN_POINT ( 'NONE',  ( 0.000000000000000000, 0.000000000000000000, 0.000000000000000000 ) ) ;
#304 = FILL_AREA_STYLE ('',( #55 ) ) ;
#305 = PRESENTATION_LAYER_ASSIGNMENT (  '', '', ( #73 ) ) ;
#306 = EDGE_CURVE ( 'NONE', #69, #159, #26, .T. ) ;
#307 = AXIS2_PLACEMENT_3D ( 'NONE', #111, #118, #158 ) ;
#308 = CARTESIAN_POINT ( 'NONE',  ( 0.000000000000000000, 1.250000000000000000, 0.000000000000000000 ) ) ;
#309 = SURFACE_STYLE_FILL_AREA ( #262 ) ;
ENDSEC;
END-ISO-10303-21;
