ISO-10303-21;
HEADER;
FILE_DESCRIPTION (( 'STEP AP214' ),
    '1' );
FILE_NAME ('Micro_SEM-140-03X.STEP',
    '2021-09-02T01:40:52',
    ( '' ),
    ( '' ),
    'SwSTEP 2.0',
    'SolidWorks 2020',
    '' );
FILE_SCHEMA (( 'AUTOMOTIVE_DESIGN' ));
ENDSEC;

DATA;
#1 = DIMENSIONAL_EXPONENTS ( 1.000000000000000000, 0.0000000000000000000, 0.0000000000000000000, 0.0000000000000000000, 0.0000000000000000000, 0.0000000000000000000, 0.0000000000000000000 ) ;
#2 = ORIENTED_EDGE ( 'NONE', *, *, #88, .T. ) ;
#3 = ADVANCED_FACE ( 'NONE', ( #147 ), #159, .F. ) ;
#4 = EDGE_LOOP ( 'NONE', ( #280, #199, #197, #247 ) ) ;
#5 = ORIENTED_EDGE ( 'NONE', *, *, #141, .F. ) ;
#6 = CARTESIAN_POINT ( 'NONE',  ( 0.0000000000000000000, 0.0000000000000000000, 1.500000000000000222 ) ) ;
#7 = CARTESIAN_POINT ( 'NONE',  ( 0.07022970000000001989, 8.600657731007889654E-18, -8.600657731007891194E-18 ) ) ;
#8 = DIRECTION ( 'NONE',  ( 0.0000000000000000000, 0.0000000000000000000, 1.000000000000000000 ) ) ;
#9 = VECTOR ( 'NONE', #24, 39.37007874015748143 ) ;
#10 = ORIENTED_EDGE ( 'NONE', *, *, #25, .F. ) ;
#11 = EDGE_CURVE ( 'NONE', #171, #173, #284, .T. ) ;
#12 = FACE_OUTER_BOUND ( 'NONE', #45, .T. ) ;
#13 = CARTESIAN_POINT ( 'NONE',  ( 0.0000000000000000000, 0.0000000000000000000, 0.0000000000000000000 ) ) ;
#14 = DIRECTION ( 'NONE',  ( -1.000000000000000000, 0.0000000000000000000, 1.224646799147353454E-16 ) ) ;
#15 = DIRECTION ( 'NONE',  ( -1.000000000000000000, 0.0000000000000000000, 0.0000000000000000000 ) ) ;
#16 = AXIS2_PLACEMENT_3D ( 'NONE', #21, #63, #206 ) ;
#17 = LINE ( 'NONE', #158, #112 ) ;
#18 = PRESENTATION_STYLE_ASSIGNMENT (( #22 ) ) ;
#19 = ADVANCED_FACE ( 'NONE', ( #106 ), #34, .T. ) ;
#20 = FACE_OUTER_BOUND ( 'NONE', #4, .T. ) ;
#21 = CARTESIAN_POINT ( 'NONE',  ( 1.053276796084075227E-33, 0.0000000000000000000, 8.600657731007891194E-18 ) ) ;
#22 = SURFACE_STYLE_USAGE ( .BOTH. , #233 ) ;
#23 = VECTOR ( 'NONE', #52, 39.37007874015748143 ) ;
#24 = DIRECTION ( 'NONE',  ( -0.0000000000000000000, -0.0000000000000000000, -1.000000000000000000 ) ) ;
#25 = EDGE_CURVE ( 'NONE', #28, #173, #255, .T. ) ;
#26 = APPLICATION_PROTOCOL_DEFINITION ( 'draft international standard', 'automotive_design', 1998, #104 ) ;
#27 = ORIENTED_EDGE ( 'NONE', *, *, #105, .T. ) ;
#28 = VERTEX_POINT ( 'NONE', #201 ) ;
#29 = DIRECTION ( 'NONE',  ( 0.7071067811865531239, 8.659560562355003116E-17, -0.7071067811865419106 ) ) ;
#30 =( GEOMETRIC_REPRESENTATION_CONTEXT ( 3 ) GLOBAL_UNCERTAINTY_ASSIGNED_CONTEXT ( ( #193 ) ) GLOBAL_UNIT_ASSIGNED_CONTEXT ( ( #32, #228, #286 ) ) REPRESENTATION_CONTEXT ( 'NONE', 'WORKASPACE' ) );
#31 = CARTESIAN_POINT ( 'NONE',  ( 0.0000000000000000000, 0.0000000000000000000, 1.500000000000000222 ) ) ;
#32 =( CONVERSION_BASED_UNIT ( 'INCH', #130 ) LENGTH_UNIT ( ) NAMED_UNIT ( #125 ) );
#33 = ADVANCED_BREP_SHAPE_REPRESENTATION ( 'Micro_SEM-140-03X', ( #98, #126 ), #250 ) ;
#34 = PLANE ( 'NONE',  #145 ) ;
#35 = CARTESIAN_POINT ( 'NONE',  ( -0.07875000000000061118, 0.0000000000000000000, 1.500000000000000222 ) ) ;
#36 = VERTEX_POINT ( 'NONE', #128 ) ;
#37 = VECTOR ( 'NONE', #56, 39.37007874015748143 ) ;
#38 = VECTOR ( 'NONE', #258, 39.37007874015748143 ) ;
#39 =( LENGTH_UNIT ( ) NAMED_UNIT ( * ) SI_UNIT ( $, .METRE. ) );
#40 = EDGE_LOOP ( 'NONE', ( #146, #27 ) ) ;
#41 = DIRECTION ( 'NONE',  ( 1.000000000000000000, 0.0000000000000000000, 0.0000000000000000000 ) ) ;
#42 = CYLINDRICAL_SURFACE ( 'NONE', #239, 0.09375000000000001388 ) ;
#43 = CARTESIAN_POINT ( 'NONE',  ( 0.07022970000000001989, 8.600657731007889654E-18, 0.0000000000000000000 ) ) ;
#44 = CARTESIAN_POINT ( 'NONE',  ( 3.061616997868383634E-17, 0.0000000000000000000, 0.2500000000000000000 ) ) ;
#45 = EDGE_LOOP ( 'NONE', ( #57, #262, #10, #139 ) ) ;
#46 = AXIS2_PLACEMENT_3D ( 'NONE', #150, #269, #14 ) ;
#47 = APPLICATION_CONTEXT ( 'automotive_design' ) ;
#48 = VERTEX_POINT ( 'NONE', #222 ) ;
#49 = ORIENTED_EDGE ( 'NONE', *, *, #212, .F. ) ;
#50 = AXIS2_PLACEMENT_3D ( 'NONE', #31, #283, #78 ) ;
#51 = EDGE_CURVE ( 'NONE', #243, #48, #185, .T. ) ;
#52 = DIRECTION ( 'NONE',  ( 0.1736481776669314414, 0.0000000000000000000, 0.9848077530122077983 ) ) ;
#53 = FACE_OUTER_BOUND ( 'NONE', #120, .T. ) ;
#54 = CONICAL_SURFACE ( 'NONE', #234, 0.07875000000000061118, 0.7853981633974562726 ) ;
#55 = CARTESIAN_POINT ( 'NONE',  ( 0.0000000000000000000, 0.0000000000000000000, 1.485000000000000986 ) ) ;
#56 = DIRECTION ( 'NONE',  ( -1.224646799147353454E-16, -0.0000000000000000000, -1.000000000000000000 ) ) ;
#57 = ORIENTED_EDGE ( 'NONE', *, *, #279, .T. ) ;
#58 =( NAMED_UNIT ( * ) SI_UNIT ( $, .STERADIAN. ) SOLID_ANGLE_UNIT ( ) );
#59 = CARTESIAN_POINT ( 'NONE',  ( 3.061616997868383634E-17, 0.0000000000000000000, 0.2500000000000000000 ) ) ;
#60 = EDGE_LOOP ( 'NONE', ( #94, #238, #111, #272 ) ) ;
#61 = CARTESIAN_POINT ( 'NONE',  ( 0.07875000000000061118, 9.644093543285480678E-18, 1.500000000000000222 ) ) ;
#62 = PRESENTATION_LAYER_ASSIGNMENT (  '', '', ( #165 ) ) ;
#63 = DIRECTION ( 'NONE',  ( -1.224646799147353454E-16, -0.0000000000000000000, -1.000000000000000000 ) ) ;
#64 = ORIENTED_EDGE ( 'NONE', *, *, #216, .T. ) ;
#65 = SURFACE_STYLE_USAGE ( .BOTH. , #114 ) ;
#66 = ORIENTED_EDGE ( 'NONE', *, *, #117, .T. ) ;
#67 = FILL_AREA_STYLE ('',( #211 ) ) ;
#68 = CIRCLE ( 'NONE', #70, 0.07022970000000000601 ) ;
#69 = DIRECTION ( 'NONE',  ( 1.000000000000000000, 0.0000000000000000000, 0.0000000000000000000 ) ) ;
#70 = AXIS2_PLACEMENT_3D ( 'NONE', #44, #113, #244 ) ;
#71 = ADVANCED_FACE ( 'NONE', ( #84 ), #85, .T. ) ;
#72 = DIMENSIONAL_EXPONENTS ( 1.000000000000000000, 0.0000000000000000000, 0.0000000000000000000, 0.0000000000000000000, 0.0000000000000000000, 0.0000000000000000000, 0.0000000000000000000 ) ;
#73 = LINE ( 'NONE', #287, #23 ) ;
#74 = AXIS2_PLACEMENT_3D ( 'NONE', #55, #190, #246 ) ;
#75 = PRODUCT_DEFINITION_CONTEXT ( 'detailed design', #47, 'design' ) ;
#76 = ADVANCED_FACE ( 'NONE', ( #12 ), #295, .T. ) ;
#77 = ADVANCED_FACE ( 'NONE', ( #245 ), #42, .T. ) ;
#78 = DIRECTION ( 'NONE',  ( -1.000000000000000000, 0.0000000000000000000, 0.0000000000000000000 ) ) ;
#79 = AXIS2_PLACEMENT_3D ( 'NONE', #59, #207, #41 ) ;
#80 = CARTESIAN_POINT ( 'NONE',  ( 4.695176422197739051E-17, 0.0000000000000000000, 0.3833902497819536292 ) ) ;
#81 = VERTEX_POINT ( 'NONE', #162 ) ;
#82 = CARTESIAN_POINT ( 'NONE',  ( 0.07875000000000061118, 1.056257864264595965E-17, 1.500000000000000222 ) ) ;
#83 = ORIENTED_EDGE ( 'NONE', *, *, #51, .T. ) ;
#84 = FACE_OUTER_BOUND ( 'NONE', #93, .T. ) ;
#85 = CONICAL_SURFACE ( 'NONE', #299, 0.07022970000000000601, 0.1745329251994339470 ) ;
#86 = LINE ( 'NONE', #127, #38 ) ;
#87 = DIRECTION ( 'NONE',  ( 1.000000000000000000, 0.0000000000000000000, 0.0000000000000000000 ) ) ;
#88 = EDGE_CURVE ( 'NONE', #259, #151, #138, .T. ) ;
#89 = AXIS2_PLACEMENT_3D ( 'NONE', #205, #242, #291 ) ;
#90 = CONICAL_SURFACE ( 'NONE', #79, 0.07022970000000000601, 0.1745329251994339470 ) ;
#91 = ORIENTED_EDGE ( 'NONE', *, *, #154, .T. ) ;
#92 = CARTESIAN_POINT ( 'NONE',  ( -0.09375000000000001388, 0.0000000000000000000, 1.485000000000000986 ) ) ;
#93 = EDGE_LOOP ( 'NONE', ( #121, #66, #124, #49 ) ) ;
#94 = ORIENTED_EDGE ( 'NONE', *, *, #181, .F. ) ;
#95 = AXIS2_PLACEMENT_3D ( 'NONE', #148, #123, #169 ) ;
#96 = EDGE_CURVE ( 'NONE', #48, #243, #298, .T. ) ;
#97 = ORIENTED_EDGE ( 'NONE', *, *, #249, .T. ) ;
#98 = MANIFOLD_SOLID_BREP ( 'Cut-Revolve1', #289 ) ;
#99 = EDGE_CURVE ( 'NONE', #48, #167, #294, .T. ) ;
#100 = DIRECTION ( 'NONE',  ( 0.0000000000000000000, 0.0000000000000000000, 1.000000000000000000 ) ) ;
#101 = DIRECTION ( 'NONE',  ( 1.000000000000000000, 0.0000000000000000000, 0.0000000000000000000 ) ) ;
#102 = DIRECTION ( 'NONE',  ( 1.224646799147353454E-16, 0.0000000000000000000, 1.000000000000000000 ) ) ;
#103 = DIRECTION ( 'NONE',  ( -1.000000000000000000, 0.0000000000000000000, 0.0000000000000000000 ) ) ;
#104 = APPLICATION_CONTEXT ( 'automotive_design' ) ;
#105 = EDGE_CURVE ( 'NONE', #173, #28, #209, .T. ) ;
#106 = FACE_OUTER_BOUND ( 'NONE', #221, .T. ) ;
#107 = DIRECTION ( 'NONE',  ( -1.000000000000000000, 0.0000000000000000000, 0.0000000000000000000 ) ) ;
#108 = CARTESIAN_POINT ( 'NONE',  ( 0.0000000000000000000, 0.0000000000000000000, 0.0000000000000000000 ) ) ;
#109 = DIRECTION ( 'NONE',  ( 0.0000000000000000000, 0.0000000000000000000, 1.000000000000000000 ) ) ;
#110 = LENGTH_MEASURE_WITH_UNIT ( LENGTH_MEASURE( 0.02539999999999999897 ), #39 );
#111 = ORIENTED_EDGE ( 'NONE', *, *, #99, .T. ) ;
#112 = VECTOR ( 'NONE', #290, 39.37007874015748143 ) ;
#113 = DIRECTION ( 'NONE',  ( -1.224646799147353454E-16, -0.0000000000000000000, -1.000000000000000000 ) ) ;
#114 = SURFACE_SIDE_STYLE ('',( #248 ) ) ;
#115 = CONICAL_SURFACE ( 'NONE', #281, 0.07875000000000061118, 0.7853981633974562726 ) ;
#116 = CARTESIAN_POINT ( 'NONE',  ( 0.09375000000000001388, 1.148106374200643401E-17, 1.500000000000000222 ) ) ;
#117 = EDGE_CURVE ( 'NONE', #81, #36, #86, .T. ) ;
#118 = VECTOR ( 'NONE', #29, 39.37007874015748143 ) ;
#119 = EDGE_LOOP ( 'NONE', ( #266, #218, #288, #176 ) ) ;
#120 = EDGE_LOOP ( 'NONE', ( #97, #2, #293, #188 ) ) ;
#121 = ORIENTED_EDGE ( 'NONE', *, *, #279, .F. ) ;
#122 = PRODUCT_RELATED_PRODUCT_CATEGORY ( 'part', '', ( #225 ) ) ;
#123 = DIRECTION ( 'NONE',  ( -1.224646799147353454E-16, -0.0000000000000000000, -1.000000000000000000 ) ) ;
#124 = ORIENTED_EDGE ( 'NONE', *, *, #223, .T. ) ;
#125 = DIMENSIONAL_EXPONENTS ( 1.000000000000000000, 0.0000000000000000000, 0.0000000000000000000, 0.0000000000000000000, 0.0000000000000000000, 0.0000000000000000000, 0.0000000000000000000 ) ;
#126 = AXIS2_PLACEMENT_3D ( 'NONE', #13, #109, #101 ) ;
#127 = CARTESIAN_POINT ( 'NONE',  ( -0.07022969999999997825, 8.600657731007888113E-18, 0.2500000000000000000 ) ) ;
#128 = CARTESIAN_POINT ( 'NONE',  ( -0.09374999999999995837, 0.0000000000000000000, 0.3833902497819536292 ) ) ;
#129 = ORIENTED_EDGE ( 'NONE', *, *, #96, .T. ) ;
#130 = LENGTH_MEASURE_WITH_UNIT ( LENGTH_MEASURE( 0.02539999999999999897 ), #297 );
#131 = DIRECTION ( 'NONE',  ( 0.0000000000000000000, 0.0000000000000000000, -1.000000000000000000 ) ) ;
#132 = EDGE_LOOP ( 'NONE', ( #264, #5, #254, #64 ) ) ;
#133 = CARTESIAN_POINT ( 'NONE',  ( 0.0000000000000000000, 0.0000000000000000000, 1.500000000000000222 ) ) ;
#134 = MECHANICAL_DESIGN_GEOMETRIC_PRESENTATION_REPRESENTATION (  '', ( #165 ), #30 ) ;
#135 =( NAMED_UNIT ( * ) SI_UNIT ( $, .STERADIAN. ) SOLID_ANGLE_UNIT ( ) );
#136 = DIRECTION ( 'NONE',  ( 0.0000000000000000000, 0.0000000000000000000, 1.000000000000000000 ) ) ;
#137 = AXIS2_PLACEMENT_3D ( 'NONE', #80, #263, #172 ) ;
#138 = LINE ( 'NONE', #116, #9 ) ;
#139 = ORIENTED_EDGE ( 'NONE', *, *, #235, .F. ) ;
#140 = AXIS2_PLACEMENT_3D ( 'NONE', #198, #155, #231 ) ;
#141 = EDGE_CURVE ( 'NONE', #171, #81, #214, .T. ) ;
#142 = LINE ( 'NONE', #170, #220 ) ;
#143 = ADVANCED_FACE ( 'NONE', ( #53 ), #144, .T. ) ;
#144 = CYLINDRICAL_SURFACE ( 'NONE', #50, 0.09375000000000001388 ) ;
#145 = AXIS2_PLACEMENT_3D ( 'NONE', #203, #156, #226 ) ;
#146 = ORIENTED_EDGE ( 'NONE', *, *, #25, .T. ) ;
#147 = FACE_OUTER_BOUND ( 'NONE', #40, .T. ) ;
#148 = CARTESIAN_POINT ( 'NONE',  ( 4.695176422197739051E-17, 0.0000000000000000000, 0.3833902497819536292 ) ) ;
#149 = CARTESIAN_POINT ( 'NONE',  ( 0.0000000000000000000, 0.0000000000000000000, 0.0000000000000000000 ) ) ;
#150 = CARTESIAN_POINT ( 'NONE',  ( 0.0000000000000000000, 0.0000000000000000000, 0.0000000000000000000 ) ) ;
#151 = VERTEX_POINT ( 'NONE', #174 ) ;
#152 =( NAMED_UNIT ( * ) PLANE_ANGLE_UNIT ( ) SI_UNIT ( $, .RADIAN. ) );
#153 = FILL_AREA_STYLE_COLOUR ( '', #261 ) ;
#154 = EDGE_CURVE ( 'NONE', #259, #167, #224, .T. ) ;
#155 = DIRECTION ( 'NONE',  ( -1.224646799147353454E-16, -0.0000000000000000000, -1.000000000000000000 ) ) ;
#156 = DIRECTION ( 'NONE',  ( 0.0000000000000000000, 0.0000000000000000000, 1.000000000000000000 ) ) ;
#157 = PRODUCT_CONTEXT ( 'NONE', #104, 'mechanical' ) ;
#158 = CARTESIAN_POINT ( 'NONE',  ( -0.09375000000000001388, 0.0000000000000000000, 1.500000000000000222 ) ) ;
#159 = PLANE ( 'NONE',  #163 ) ;
#160 = APPLICATION_PROTOCOL_DEFINITION ( 'draft international standard', 'automotive_design', 1998, #47 ) ;
#161 =( CONVERSION_BASED_UNIT ( 'INCH', #110 ) LENGTH_UNIT ( ) NAMED_UNIT ( #1 ) );
#162 = CARTESIAN_POINT ( 'NONE',  ( -0.07022969999999997825, 1.004086073650716337E-17, 0.2500000000000000000 ) ) ;
#163 = AXIS2_PLACEMENT_3D ( 'NONE', #149, #100, #208 ) ;
#164 = CARTESIAN_POINT ( 'NONE',  ( 0.0000000000000000000, 0.0000000000000000000, 1.500000000000000222 ) ) ;
#165 = STYLED_ITEM ( 'NONE', ( #18 ), #98 ) ;
#166 = SURFACE_STYLE_FILL_AREA ( #67 ) ;
#167 = VERTEX_POINT ( 'NONE', #92 ) ;
#168 = AXIS2_PLACEMENT_3D ( 'NONE', #164, #136, #69 ) ;
#169 = DIRECTION ( 'NONE',  ( 1.000000000000000000, 0.0000000000000000000, 0.0000000000000000000 ) ) ;
#170 = CARTESIAN_POINT ( 'NONE',  ( -0.07022970000000001989, 0.0000000000000000000, 8.600657731007891194E-18 ) ) ;
#171 = VERTEX_POINT ( 'NONE', #268 ) ;
#172 = DIRECTION ( 'NONE',  ( 1.000000000000000000, 0.0000000000000000000, 0.0000000000000000000 ) ) ;
#173 = VERTEX_POINT ( 'NONE', #43 ) ;
#174 = CARTESIAN_POINT ( 'NONE',  ( 0.09375000000000004163, 1.148106374200644017E-17, 0.3833902497819536292 ) ) ;
#175 = ADVANCED_FACE ( 'NONE', ( #194 ), #115, .T. ) ;
#176 = ORIENTED_EDGE ( 'NONE', *, *, #99, .F. ) ;
#177 = AXIS2_PLACEMENT_3D ( 'NONE', #180, #8, #87 ) ;
#178 = CARTESIAN_POINT ( 'NONE',  ( 3.061616997868383634E-17, 0.0000000000000000000, 0.2500000000000000000 ) ) ;
#179 = FACE_OUTER_BOUND ( 'NONE', #132, .T. ) ;
#180 = CARTESIAN_POINT ( 'NONE',  ( 0.0000000000000000000, 0.0000000000000000000, 1.500000000000000222 ) ) ;
#181 = EDGE_CURVE ( 'NONE', #243, #259, #227, .T. ) ;
#182 = PRESENTATION_STYLE_ASSIGNMENT (( #65 ) ) ;
#183 = DIRECTION ( 'NONE',  ( -1.224646799147353454E-16, -0.0000000000000000000, -1.000000000000000000 ) ) ;
#184 =( LENGTH_UNIT ( ) NAMED_UNIT ( * ) SI_UNIT ( $, .METRE. ) );
#185 = CIRCLE ( 'NONE', #177, 0.07875000000000061118 ) ;
#186 = FILL_AREA_STYLE ('',( #153 ) ) ;
#187 =( NAMED_UNIT ( * ) PLANE_ANGLE_UNIT ( ) SI_UNIT ( $, .RADIAN. ) );
#188 = ORIENTED_EDGE ( 'NONE', *, *, #236, .F. ) ;
#189 = COLOUR_RGB ( '',0.7921568627450980005, 0.8196078431372548767, 0.9333333333333333481 ) ;
#190 = DIRECTION ( 'NONE',  ( 0.0000000000000000000, 0.0000000000000000000, -1.000000000000000000 ) ) ;
#191 = MECHANICAL_DESIGN_GEOMETRIC_PRESENTATION_REPRESENTATION (  '', ( #278 ), #196 ) ;
#192 = EDGE_LOOP ( 'NONE', ( #282, #91, #219, #241 ) ) ;
#193 = UNCERTAINTY_MEASURE_WITH_UNIT (LENGTH_MEASURE( 1.000000000000000082E-05 ), #32, 'distance_accuracy_value', 'NONE');
#194 = FACE_OUTER_BOUND ( 'NONE', #119, .T. ) ;
#195 = AXIS2_PLACEMENT_3D ( 'NONE', #108, #183, #270 ) ;
#196 =( GEOMETRIC_REPRESENTATION_CONTEXT ( 3 ) GLOBAL_UNCERTAINTY_ASSIGNED_CONTEXT ( ( #277 ) ) GLOBAL_UNIT_ASSIGNED_CONTEXT ( ( #267, #152, #58 ) ) REPRESENTATION_CONTEXT ( 'NONE', 'WORKASPACE' ) );
#197 = ORIENTED_EDGE ( 'NONE', *, *, #235, .T. ) ;
#198 = CARTESIAN_POINT ( 'NONE',  ( 3.061616997868383634E-17, 0.0000000000000000000, 0.2500000000000000000 ) ) ;
#199 = ORIENTED_EDGE ( 'NONE', *, *, #141, .T. ) ;
#200 = SHAPE_DEFINITION_REPRESENTATION ( #292, #33 ) ;
#201 = CARTESIAN_POINT ( 'NONE',  ( -0.07022970000000001989, 0.0000000000000000000, 1.720131546201578239E-17 ) ) ;
#202 = DIRECTION ( 'NONE',  ( -0.7071067811865531239, 0.0000000000000000000, -0.7071067811865419106 ) ) ;
#203 = CARTESIAN_POINT ( 'NONE',  ( 0.0000000000000000000, 0.0000000000000000000, 1.500000000000000222 ) ) ;
#204 = DIRECTION ( 'NONE',  ( 1.000000000000000000, 0.0000000000000000000, 0.0000000000000000000 ) ) ;
#205 = CARTESIAN_POINT ( 'NONE',  ( 1.053276796084075227E-33, 0.0000000000000000000, 8.600657731007891194E-18 ) ) ;
#206 = DIRECTION ( 'NONE',  ( -1.000000000000000000, 0.0000000000000000000, 1.224646799147353454E-16 ) ) ;
#207 = DIRECTION ( 'NONE',  ( 1.224646799147353454E-16, 0.0000000000000000000, 1.000000000000000000 ) ) ;
#208 = DIRECTION ( 'NONE',  ( 1.000000000000000000, 0.0000000000000000000, -0.0000000000000000000 ) ) ;
#209 = CIRCLE ( 'NONE', #16, 0.07022970000000001989 ) ;
#210 = FACE_OUTER_BOUND ( 'NONE', #60, .T. ) ;
#211 = FILL_AREA_STYLE_COLOUR ( '', #189 ) ;
#212 = EDGE_CURVE ( 'NONE', #171, #151, #73, .T. ) ;
#213 = CYLINDRICAL_SURFACE ( 'NONE', #46, 0.07022970000000001989 ) ;
#214 = CIRCLE ( 'NONE', #140, 0.07022970000000000601 ) ;
#215 = UNCERTAINTY_MEASURE_WITH_UNIT (LENGTH_MEASURE( 1.000000000000000082E-05 ), #161, 'distance_accuracy_value', 'NONE');
#216 = EDGE_CURVE ( 'NONE', #151, #36, #285, .T. ) ;
#217 = PRESENTATION_LAYER_ASSIGNMENT (  '', '', ( #278 ) ) ;
#218 = ORIENTED_EDGE ( 'NONE', *, *, #181, .T. ) ;
#219 = ORIENTED_EDGE ( 'NONE', *, *, #236, .T. ) ;
#220 = VECTOR ( 'NONE', #240, 39.37007874015748143 ) ;
#221 = EDGE_LOOP ( 'NONE', ( #129, #83 ) ) ;
#222 = CARTESIAN_POINT ( 'NONE',  ( -0.07875000000000061118, 0.0000000000000000000, 1.500000000000000222 ) ) ;
#223 = EDGE_CURVE ( 'NONE', #36, #151, #237, .T. ) ;
#224 = CIRCLE ( 'NONE', #74, 0.09375000000000001388 ) ;
#225 = PRODUCT ( 'Micro_SEM-140-03X', 'Micro_SEM-140-03X', '', ( #157 ) ) ;
#226 = DIRECTION ( 'NONE',  ( 1.000000000000000000, 0.0000000000000000000, -0.0000000000000000000 ) ) ;
#227 = LINE ( 'NONE', #61, #118 ) ;
#228 =( NAMED_UNIT ( * ) PLANE_ANGLE_UNIT ( ) SI_UNIT ( $, .RADIAN. ) );
#229 = CARTESIAN_POINT ( 'NONE',  ( 0.09375000000000001388, 1.148106374200643401E-17, 1.485000000000000986 ) ) ;
#230 = DIRECTION ( 'NONE',  ( 1.000000000000000000, 0.0000000000000000000, 0.0000000000000000000 ) ) ;
#231 = DIRECTION ( 'NONE',  ( -1.000000000000000000, 0.0000000000000000000, 0.0000000000000000000 ) ) ;
#232 = DIRECTION ( 'NONE',  ( -0.0000000000000000000, -0.0000000000000000000, -1.000000000000000000 ) ) ;
#233 = SURFACE_SIDE_STYLE ('',( #166 ) ) ;
#234 = AXIS2_PLACEMENT_3D ( 'NONE', #296, #131, #107 ) ;
#235 = EDGE_CURVE ( 'NONE', #81, #28, #142, .T. ) ;
#236 = EDGE_CURVE ( 'NONE', #167, #36, #17, .T. ) ;
#237 = CIRCLE ( 'NONE', #95, 0.09375000000000001388 ) ;
#238 = ORIENTED_EDGE ( 'NONE', *, *, #96, .F. ) ;
#239 = AXIS2_PLACEMENT_3D ( 'NONE', #133, #232, #15 ) ;
#240 = DIRECTION ( 'NONE',  ( -1.224646799147353454E-16, -0.0000000000000000000, -1.000000000000000000 ) ) ;
#241 = ORIENTED_EDGE ( 'NONE', *, *, #216, .F. ) ;
#242 = DIRECTION ( 'NONE',  ( -1.224646799147353454E-16, -0.0000000000000000000, -1.000000000000000000 ) ) ;
#243 = VERTEX_POINT ( 'NONE', #82 ) ;
#244 = DIRECTION ( 'NONE',  ( -1.000000000000000000, 0.0000000000000000000, 0.0000000000000000000 ) ) ;
#245 = FACE_OUTER_BOUND ( 'NONE', #192, .T. ) ;
#246 = DIRECTION ( 'NONE',  ( 1.000000000000000000, 0.0000000000000000000, 0.0000000000000000000 ) ) ;
#247 = ORIENTED_EDGE ( 'NONE', *, *, #105, .F. ) ;
#248 = SURFACE_STYLE_FILL_AREA ( #186 ) ;
#249 = EDGE_CURVE ( 'NONE', #167, #259, #276, .T. ) ;
#250 =( GEOMETRIC_REPRESENTATION_CONTEXT ( 3 ) GLOBAL_UNCERTAINTY_ASSIGNED_CONTEXT ( ( #215 ) ) GLOBAL_UNIT_ASSIGNED_CONTEXT ( ( #161, #187, #135 ) ) REPRESENTATION_CONTEXT ( 'NONE', 'WORKASPACE' ) );
#251 = ADVANCED_FACE ( 'NONE', ( #210 ), #54, .T. ) ;
#252 = AXIS2_PLACEMENT_3D ( 'NONE', #273, #265, #204 ) ;
#253 = ADVANCED_FACE ( 'NONE', ( #20 ), #213, .T. ) ;
#254 = ORIENTED_EDGE ( 'NONE', *, *, #212, .T. ) ;
#255 = CIRCLE ( 'NONE', #89, 0.07022970000000001989 ) ;
#256 = PRODUCT_DEFINITION_FORMATION_WITH_SPECIFIED_SOURCE ( 'ANY', '', #225, .NOT_KNOWN. ) ;
#257 = PRODUCT_DEFINITION ( 'UNKNOWN', '', #256, #75 ) ;
#258 = DIRECTION ( 'NONE',  ( -0.1736481776669312194, 2.126576849575783625E-17, 0.9848077530122077983 ) ) ;
#259 = VERTEX_POINT ( 'NONE', #229 ) ;
#260 = DIRECTION ( 'NONE',  ( 0.0000000000000000000, 0.0000000000000000000, -1.000000000000000000 ) ) ;
#261 = COLOUR_RGB ( '',0.7921568627450980005, 0.8196078431372548767, 0.9333333333333333481 ) ;
#262 = ORIENTED_EDGE ( 'NONE', *, *, #11, .T. ) ;
#263 = DIRECTION ( 'NONE',  ( -1.224646799147353454E-16, -0.0000000000000000000, -1.000000000000000000 ) ) ;
#264 = ORIENTED_EDGE ( 'NONE', *, *, #117, .F. ) ;
#265 = DIRECTION ( 'NONE',  ( 0.0000000000000000000, 0.0000000000000000000, -1.000000000000000000 ) ) ;
#266 = ORIENTED_EDGE ( 'NONE', *, *, #51, .F. ) ;
#267 =( CONVERSION_BASED_UNIT ( 'INCH', #271 ) LENGTH_UNIT ( ) NAMED_UNIT ( #72 ) );
#268 = CARTESIAN_POINT ( 'NONE',  ( 0.07022970000000004764, 0.0000000000000000000, 0.2500000000000000000 ) ) ;
#269 = DIRECTION ( 'NONE',  ( -1.224646799147353454E-16, -0.0000000000000000000, -1.000000000000000000 ) ) ;
#270 = DIRECTION ( 'NONE',  ( -1.000000000000000000, 0.0000000000000000000, 1.224646799147353454E-16 ) ) ;
#271 = LENGTH_MEASURE_WITH_UNIT ( LENGTH_MEASURE( 0.02539999999999999897 ), #184 );
#272 = ORIENTED_EDGE ( 'NONE', *, *, #154, .F. ) ;
#273 = CARTESIAN_POINT ( 'NONE',  ( 0.0000000000000000000, 0.0000000000000000000, 1.485000000000000986 ) ) ;
#274 = VECTOR ( 'NONE', #202, 39.37007874015748143 ) ;
#275 = ADVANCED_FACE ( 'NONE', ( #179 ), #90, .T. ) ;
#276 = CIRCLE ( 'NONE', #252, 0.09375000000000001388 ) ;
#277 = UNCERTAINTY_MEASURE_WITH_UNIT (LENGTH_MEASURE( 1.000000000000000082E-05 ), #267, 'distance_accuracy_value', 'NONE');
#278 = STYLED_ITEM ( 'NONE', ( #182 ), #33 ) ;
#279 = EDGE_CURVE ( 'NONE', #81, #171, #68, .T. ) ;
#280 = ORIENTED_EDGE ( 'NONE', *, *, #11, .F. ) ;
#281 = AXIS2_PLACEMENT_3D ( 'NONE', #6, #260, #103 ) ;
#282 = ORIENTED_EDGE ( 'NONE', *, *, #88, .F. ) ;
#283 = DIRECTION ( 'NONE',  ( -0.0000000000000000000, -0.0000000000000000000, -1.000000000000000000 ) ) ;
#284 = LINE ( 'NONE', #7, #37 ) ;
#285 = CIRCLE ( 'NONE', #137, 0.09375000000000001388 ) ;
#286 =( NAMED_UNIT ( * ) SI_UNIT ( $, .STERADIAN. ) SOLID_ANGLE_UNIT ( ) );
#287 = CARTESIAN_POINT ( 'NONE',  ( 0.07022970000000004764, 0.0000000000000000000, 0.2500000000000000000 ) ) ;
#288 = ORIENTED_EDGE ( 'NONE', *, *, #249, .F. ) ;
#289 = CLOSED_SHELL ( 'NONE', ( #76, #71, #175, #143, #77, #19, #251, #275, #253, #3 ) ) ;
#290 = DIRECTION ( 'NONE',  ( -0.0000000000000000000, -0.0000000000000000000, -1.000000000000000000 ) ) ;
#291 = DIRECTION ( 'NONE',  ( -1.000000000000000000, 0.0000000000000000000, 1.224646799147353454E-16 ) ) ;
#292 = PRODUCT_DEFINITION_SHAPE ( 'NONE', 'NONE',  #257 ) ;
#293 = ORIENTED_EDGE ( 'NONE', *, *, #223, .F. ) ;
#294 = LINE ( 'NONE', #35, #274 ) ;
#295 = CYLINDRICAL_SURFACE ( 'NONE', #195, 0.07022970000000001989 ) ;
#296 = CARTESIAN_POINT ( 'NONE',  ( 0.0000000000000000000, 0.0000000000000000000, 1.500000000000000222 ) ) ;
#297 =( LENGTH_UNIT ( ) NAMED_UNIT ( * ) SI_UNIT ( $, .METRE. ) );
#298 = CIRCLE ( 'NONE', #168, 0.07875000000000061118 ) ;
#299 = AXIS2_PLACEMENT_3D ( 'NONE', #178, #102, #230 ) ;
ENDSEC;
END-ISO-10303-21;
