ISO-10303-21;
HEADER;
FILE_DESCRIPTION (( 'STEP AP214' ),
    '1' );
FILE_NAME ('83206.STEP',
    '2023-06-23T08:44:34',
    ( '' ),
    ( '' ),
    'SwSTEP 2.0',
    'SolidWorks 2023',
    '' );
FILE_SCHEMA (( 'AUTOMOTIVE_DESIGN' ));
ENDSEC;

DATA;
#1 =( CONVERSION_BASED_UNIT ( 'INCH', #215 ) LENGTH_UNIT ( ) NAMED_UNIT ( #30 ) );
#2 =( GEOMETRIC_REPRESENTATION_CONTEXT ( 3 ) GLOBAL_UNCERTAINTY_ASSIGNED_CONTEXT ( ( #112 ) ) GLOBAL_UNIT_ASSIGNED_CONTEXT ( ( #16, #207, #92 ) ) REPRESENTATION_CONTEXT ( 'NONE', 'WORKASPACE' ) );
#3 = EDGE_CURVE ( 'NONE', #286, #213, #28, .T. ) ;
#4 = FILL_AREA_STYLE ('',( #235 ) ) ;
#5 = CARTESIAN_POINT ( 'NONE',  ( -6.123233995736759873E-17, 3.500000000000000000, 0.000000000000000000 ) ) ;
#6 =( NAMED_UNIT ( * ) SI_UNIT ( $, .STERADIAN. ) SOLID_ANGLE_UNIT ( ) );
#7 = AXIS2_PLACEMENT_3D ( 'NONE', #262, #243, #218 ) ;
#8 =( CONVERSION_BASED_UNIT ( 'INCH', #106 ) LENGTH_UNIT ( ) NAMED_UNIT ( #17 ) );
#9 =( NAMED_UNIT ( * ) PLANE_ANGLE_UNIT ( ) SI_UNIT ( $, .RADIAN. ) );
#10 = EDGE_LOOP ( 'NONE', ( #101, #259, #234, #157 ) ) ;
#11 = SURFACE_STYLE_USAGE ( .BOTH. , #225 ) ;
#12 = MECHANICAL_DESIGN_GEOMETRIC_PRESENTATION_REPRESENTATION (  '', ( #121 ), #156 ) ;
#13 = SURFACE_STYLE_USAGE ( .BOTH. , #89 ) ;
#14 = STYLED_ITEM ( 'NONE', ( #111 ), #123 ) ;
#15 = ORIENTED_EDGE ( 'NONE', *, *, #64, .F. ) ;
#16 =( CONVERSION_BASED_UNIT ( 'INCH', #133 ) LENGTH_UNIT ( ) NAMED_UNIT ( #288 ) );
#17 = DIMENSIONAL_EXPONENTS ( 1.000000000000000000, 0.000000000000000000, 0.000000000000000000, 0.000000000000000000, 0.000000000000000000, 0.000000000000000000, 0.000000000000000000 ) ;
#18 = ORIENTED_EDGE ( 'NONE', *, *, #36, .F. ) ;
#19 = ADVANCED_FACE ( 'NONE', ( #23 ), #190, .F. ) ;
#20 = COLOUR_RGB ( '',1.000000000000000000, 0.000000000000000000, 0.000000000000000000 ) ;
#21 = FILL_AREA_STYLE ('',( #303 ) ) ;
#22 = ORIENTED_EDGE ( 'NONE', *, *, #209, .T. ) ;
#23 = FACE_OUTER_BOUND ( 'NONE', #47, .T. ) ;
#24 = PRODUCT_DEFINITION_SHAPE ( 'NONE', 'NONE',  #110 ) ;
#25 = EDGE_CURVE ( 'NONE', #213, #286, #127, .T. ) ;
#26 = DIRECTION ( 'NONE',  ( 0.000000000000000000, 1.000000000000000000, 0.000000000000000000 ) ) ;
#27 = CIRCLE ( 'NONE', #107, 0.3125000000000000000 ) ;
#28 = CIRCLE ( 'NONE', #201, 0.3125000000000000000 ) ;
#29 = CYLINDRICAL_SURFACE ( 'NONE', #292, 0.3125000000000000000 ) ;
#30 = DIMENSIONAL_EXPONENTS ( 1.000000000000000000, 0.000000000000000000, 0.000000000000000000, 0.000000000000000000, 0.000000000000000000, 0.000000000000000000, 0.000000000000000000 ) ;
#31 = SURFACE_SIDE_STYLE ('',( #32 ) ) ;
#32 = SURFACE_STYLE_FILL_AREA ( #126 ) ;
#33 = PRESENTATION_STYLE_ASSIGNMENT (( #11 ) ) ;
#34 = CARTESIAN_POINT ( 'NONE',  ( 0.000000000000000000, 0.000000000000000000, 0.000000000000000000 ) ) ;
#35 = LENGTH_MEASURE_WITH_UNIT ( LENGTH_MEASURE( 0.02539999999999999897 ), #87 );
#36 = EDGE_CURVE ( 'NONE', #213, #130, #114, .T. ) ;
#37 = PRODUCT_RELATED_PRODUCT_CATEGORY ( 'part', '', ( #308 ) ) ;
#38 = DIRECTION ( 'NONE',  ( -0.000000000000000000, -1.000000000000000000, -0.000000000000000000 ) ) ;
#39 = CIRCLE ( 'NONE', #73, 0.3125000000000000000 ) ;
#40 = CLOSED_SHELL ( 'NONE', ( #151, #54, #272, #19 ) ) ;
#41 = ORIENTED_EDGE ( 'NONE', *, *, #3, .F. ) ;
#42 = PRESENTATION_STYLE_ASSIGNMENT (( #227 ) ) ;
#43 = CARTESIAN_POINT ( 'NONE',  ( 1.666399758513172697E-34, 1.625000000000000000, 0.000000000000000000 ) ) ;
#44 = PRODUCT_DEFINITION_CONTEXT ( 'detailed design', #65, 'design' ) ;
#45 = DIRECTION ( 'NONE',  ( -0.000000000000000000, -1.000000000000000000, -0.000000000000000000 ) ) ;
#46 = AXIS2_PLACEMENT_3D ( 'NONE', #274, #52, #108 ) ;
#47 = EDGE_LOOP ( 'NONE', ( #62, #134 ) ) ;
#48 = FACE_OUTER_BOUND ( 'NONE', #49, .T. ) ;
#49 = EDGE_LOOP ( 'NONE', ( #18, #166, #22, #144 ) ) ;
#50 = SURFACE_STYLE_USAGE ( .BOTH. , #122 ) ;
#51 = SURFACE_STYLE_USAGE ( .BOTH. , #31 ) ;
#52 = DIRECTION ( 'NONE',  ( -3.265724797726272713E-17, 1.000000000000000000, -0.000000000000000000 ) ) ;
#53 =( LENGTH_UNIT ( ) NAMED_UNIT ( * ) SI_UNIT ( $, .METRE. ) );
#54 = ADVANCED_FACE ( 'NONE', ( #211 ), #214, .F. ) ;
#55 = DIRECTION ( 'NONE',  ( -1.000000000000000000, 0.000000000000000000, 0.000000000000000000 ) ) ;
#56 = PRESENTATION_LAYER_ASSIGNMENT (  '', '', ( #14 ) ) ;
#57 = PRESENTATION_LAYER_ASSIGNMENT (  '', '', ( #121 ) ) ;
#58 =( NAMED_UNIT ( * ) SI_UNIT ( $, .STERADIAN. ) SOLID_ANGLE_UNIT ( ) );
#59 = EDGE_LOOP ( 'NONE', ( #41, #279 ) ) ;
#60 = PLANE ( 'NONE',  #269 ) ;
#61 = VECTOR ( 'NONE', #128, 39.37007874015748143 ) ;
#62 = ORIENTED_EDGE ( 'NONE', *, *, #241, .T. ) ;
#63 = CARTESIAN_POINT ( 'NONE',  ( 3.827021247335478926E-17, 0.000000000000000000, 0.3125000000000000000 ) ) ;
#64 = EDGE_CURVE ( 'NONE', #236, #113, #96, .T. ) ;
#65 = APPLICATION_CONTEXT ( 'automotive_design' ) ;
#66 = CARTESIAN_POINT ( 'NONE',  ( 0.3125000000000000000, 3.500000000000000000, 0.000000000000000000 ) ) ;
#67 =( CONVERSION_BASED_UNIT ( 'INCH', #212 ) LENGTH_UNIT ( ) NAMED_UNIT ( #261 ) );
#68 = CARTESIAN_POINT ( 'NONE',  ( 0.3124999999999999445, 3.500000000000000000, 3.827021247335478926E-17 ) ) ;
#69 = DIRECTION ( 'NONE',  ( 0.000000000000000000, 0.000000000000000000, 1.000000000000000000 ) ) ;
#70 = SURFACE_STYLE_USAGE ( .BOTH. , #256 ) ;
#71 = ORIENTED_EDGE ( 'NONE', *, *, #91, .F. ) ;
#72 = PRODUCT_CONTEXT ( 'NONE', #103, 'mechanical' ) ;
#73 = AXIS2_PLACEMENT_3D ( 'NONE', #240, #184, #277 ) ;
#74 = PRESENTATION_STYLE_ASSIGNMENT (( #50 ) ) ;
#75 = DIRECTION ( 'NONE',  ( -1.000000000000000000, -3.265724797726272713E-17, 0.000000000000000000 ) ) ;
#76 = PLANE ( 'NONE',  #147 ) ;
#77 = UNCERTAINTY_MEASURE_WITH_UNIT (LENGTH_MEASURE( 1.000000000000000082E-05 ), #8, 'distance_accuracy_value', 'NONE');
#78 = CARTESIAN_POINT ( 'NONE',  ( 0.000000000000000000, 0.000000000000000000, -0.3125000000000000000 ) ) ;
#79 = DIMENSIONAL_EXPONENTS ( 1.000000000000000000, 0.000000000000000000, 0.000000000000000000, 0.000000000000000000, 0.000000000000000000, 0.000000000000000000, 0.000000000000000000 ) ;
#80 = DIMENSIONAL_EXPONENTS ( 1.000000000000000000, 0.000000000000000000, 0.000000000000000000, 0.000000000000000000, 0.000000000000000000, 0.000000000000000000, 0.000000000000000000 ) ;
#81 =( NAMED_UNIT ( * ) PLANE_ANGLE_UNIT ( ) SI_UNIT ( $, .RADIAN. ) );
#82 = DIRECTION ( 'NONE',  ( -1.000000000000000000, 0.000000000000000000, 0.000000000000000000 ) ) ;
#83 = PRESENTATION_STYLE_ASSIGNMENT (( #51 ) ) ;
#84 = EDGE_CURVE ( 'NONE', #236, #183, #285, .T. ) ;
#85 = DIRECTION ( 'NONE',  ( 0.000000000000000000, 0.000000000000000000, -1.000000000000000000 ) ) ;
#86 = COLOUR_RGB ( '',0.7921568627450980005, 0.8196078431372548767, 0.9333333333333333481 ) ;
#87 =( LENGTH_UNIT ( ) NAMED_UNIT ( * ) SI_UNIT ( $, .METRE. ) );
#88 = AXIS2_PLACEMENT_3D ( 'NONE', #43, #305, #75 ) ;
#89 = SURFACE_SIDE_STYLE ('',( #244 ) ) ;
#90 = DIRECTION ( 'NONE',  ( -0.000000000000000000, -1.000000000000000000, -0.000000000000000000 ) ) ;
#91 = EDGE_CURVE ( 'NONE', #113, #208, #250, .T. ) ;
#92 =( NAMED_UNIT ( * ) SI_UNIT ( $, .STERADIAN. ) SOLID_ANGLE_UNIT ( ) );
#93 = EDGE_LOOP ( 'NONE', ( #137, #229 ) ) ;
#94 = AXIS2_PLACEMENT_3D ( 'NONE', #233, #239, #82 ) ;
#95 =( LENGTH_UNIT ( ) NAMED_UNIT ( * ) SI_UNIT ( $, .METRE. ) );
#96 = LINE ( 'NONE', #68, #297 ) ;
#97 = DIRECTION ( 'NONE',  ( 0.000000000000000000, -0.000000000000000000, 1.000000000000000000 ) ) ;
#98 = DIRECTION ( 'NONE',  ( -3.265724797726272713E-17, 1.000000000000000000, -0.000000000000000000 ) ) ;
#99 = CARTESIAN_POINT ( 'NONE',  ( 0.000000000000000000, 0.000000000000000000, 0.000000000000000000 ) ) ;
#100 = CARTESIAN_POINT ( 'NONE',  ( -0.3125000000000000000, 1.625000000000000000, 0.000000000000000000 ) ) ;
#101 = ORIENTED_EDGE ( 'NONE', *, *, #3, .T. ) ;
#102 = PRESENTATION_LAYER_ASSIGNMENT (  '', '', ( #216 ) ) ;
#103 = APPLICATION_CONTEXT ( 'automotive_design' ) ;
#104 = FILL_AREA_STYLE ('',( #124 ) ) ;
#105 = ADVANCED_FACE ( 'NONE', ( #290 ), #29, .T. ) ;
#106 = LENGTH_MEASURE_WITH_UNIT ( LENGTH_MEASURE( 0.02539999999999999897 ), #53 );
#107 = AXIS2_PLACEMENT_3D ( 'NONE', #148, #294, #85 ) ;
#108 = DIRECTION ( 'NONE',  ( -1.000000000000000000, 0.000000000000000000, 0.000000000000000000 ) ) ;
#109 = DIRECTION ( 'NONE',  ( 0.000000000000000000, 0.000000000000000000, -1.000000000000000000 ) ) ;
#110 = PRODUCT_DEFINITION ( 'UNKNOWN', '', #139, #44 ) ;
#111 = PRESENTATION_STYLE_ASSIGNMENT (( #13 ) ) ;
#112 = UNCERTAINTY_MEASURE_WITH_UNIT (LENGTH_MEASURE( 1.000000000000000082E-05 ), #16, 'distance_accuracy_value', 'NONE');
#113 = VERTEX_POINT ( 'NONE', #172 ) ;
#114 = LINE ( 'NONE', #307, #145 ) ;
#115 = PRESENTATION_LAYER_ASSIGNMENT (  '', '', ( #194 ) ) ;
#116 = EDGE_LOOP ( 'NONE', ( #185, #180 ) ) ;
#117 = SHAPE_DEFINITION_REPRESENTATION ( #24, #280 ) ;
#118 =( NAMED_UNIT ( * ) SI_UNIT ( $, .STERADIAN. ) SOLID_ANGLE_UNIT ( ) );
#119 =( LENGTH_UNIT ( ) NAMED_UNIT ( * ) SI_UNIT ( $, .METRE. ) );
#120 = DIRECTION ( 'NONE',  ( 3.265724797726272713E-17, -1.000000000000000000, 0.000000000000000000 ) ) ;
#121 = STYLED_ITEM ( 'NONE', ( #83 ), #230 ) ;
#122 = SURFACE_SIDE_STYLE ('',( #138 ) ) ;
#123 = ADVANCED_FACE ( 'NONE', ( #252 ), #60, .T. ) ;
#124 = FILL_AREA_STYLE_COLOUR ( '', #196 ) ;
#125 = UNCERTAINTY_MEASURE_WITH_UNIT (LENGTH_MEASURE( 1.000000000000000082E-05 ), #264, 'distance_accuracy_value', 'NONE');
#126 = FILL_AREA_STYLE ('',( #171 ) ) ;
#127 = CIRCLE ( 'NONE', #178, 0.3125000000000000000 ) ;
#128 = DIRECTION ( 'NONE',  ( -3.265724797726272713E-17, 1.000000000000000000, -0.000000000000000000 ) ) ;
#129 =( LENGTH_UNIT ( ) NAMED_UNIT ( * ) SI_UNIT ( $, .METRE. ) );
#130 = VERTEX_POINT ( 'NONE', #63 ) ;
#131 = STYLED_ITEM ( 'NONE', ( #74 ), #162 ) ;
#132 = MANIFOLD_SOLID_BREP ( 'Revolve - Cutting Edge', #270 ) ;
#133 = LENGTH_MEASURE_WITH_UNIT ( LENGTH_MEASURE( 0.02539999999999999897 ), #129 );
#134 = ORIENTED_EDGE ( 'NONE', *, *, #91, .T. ) ;
#135 = FILL_AREA_STYLE ('',( #210 ) ) ;
#136 = UNCERTAINTY_MEASURE_WITH_UNIT (LENGTH_MEASURE( 1.000000000000000082E-05 ), #1, 'distance_accuracy_value', 'NONE');
#137 = ORIENTED_EDGE ( 'NONE', *, *, #268, .T. ) ;
#138 = SURFACE_STYLE_FILL_AREA ( #21 ) ;
#139 = PRODUCT_DEFINITION_FORMATION_WITH_SPECIFIED_SOURCE ( 'ANY', '', #308, .NOT_KNOWN. ) ;
#140 = COLOUR_RGB ( '',1.000000000000000000, 0.000000000000000000, 0.000000000000000000 ) ;
#141 = DIRECTION ( 'NONE',  ( -1.000000000000000000, 0.000000000000000000, 0.000000000000000000 ) ) ;
#142 = ORIENTED_EDGE ( 'NONE', *, *, #241, .F. ) ;
#143 =( NAMED_UNIT ( * ) PLANE_ANGLE_UNIT ( ) SI_UNIT ( $, .RADIAN. ) );
#144 = ORIENTED_EDGE ( 'NONE', *, *, #249, .F. ) ;
#145 = VECTOR ( 'NONE', #90, 39.37007874015748143 ) ;
#146 = CARTESIAN_POINT ( 'NONE',  ( 0.000000000000000000, 1.625000000000000000, -0.3125000000000000000 ) ) ;
#147 = AXIS2_PLACEMENT_3D ( 'NONE', #306, #26, #97 ) ;
#148 = CARTESIAN_POINT ( 'NONE',  ( 0.000000000000000000, 0.000000000000000000, 0.000000000000000000 ) ) ;
#149 = DIRECTION ( 'NONE',  ( 0.000000000000000000, 0.000000000000000000, -1.000000000000000000 ) ) ;
#150 = LENGTH_MEASURE_WITH_UNIT ( LENGTH_MEASURE( 0.02539999999999999897 ), #200 );
#151 = ADVANCED_FACE ( 'NONE', ( #155 ), #181, .T. ) ;
#152 = COLOUR_RGB ( '',0.7921568627450980005, 0.8196078431372548767, 0.9333333333333333481 ) ;
#153 = COLOUR_RGB ( '',1.000000000000000000, 0.000000000000000000, 0.000000000000000000 ) ;
#154 = SURFACE_STYLE_FILL_AREA ( #104 ) ;
#155 = FACE_OUTER_BOUND ( 'NONE', #206, .T. ) ;
#156 =( GEOMETRIC_REPRESENTATION_CONTEXT ( 3 ) GLOBAL_UNCERTAINTY_ASSIGNED_CONTEXT ( ( #77 ) ) GLOBAL_UNIT_ASSIGNED_CONTEXT ( ( #8, #9, #6 ) ) REPRESENTATION_CONTEXT ( 'NONE', 'WORKASPACE' ) );
#157 = ORIENTED_EDGE ( 'NONE', *, *, #209, .F. ) ;
#158 = FILL_AREA_STYLE ('',( #203 ) ) ;
#159 = DIRECTION ( 'NONE',  ( 1.000000000000000000, 3.265724797726272713E-17, 0.000000000000000000 ) ) ;
#160 =( LENGTH_UNIT ( ) NAMED_UNIT ( * ) SI_UNIT ( $, .METRE. ) );
#161 = UNCERTAINTY_MEASURE_WITH_UNIT (LENGTH_MEASURE( 1.000000000000000082E-05 ), #293, 'distance_accuracy_value', 'NONE');
#162 = ADVANCED_FACE ( 'NONE', ( #283 ), #76, .T. ) ;
#163 = CARTESIAN_POINT ( 'NONE',  ( 7.582401355855259480E-33, 1.625000000000000000, 0.000000000000000000 ) ) ;
#164 = APPLICATION_PROTOCOL_DEFINITION ( 'draft international standard', 'automotive_design', 1998, #65 ) ;
#165 =( GEOMETRIC_REPRESENTATION_CONTEXT ( 3 ) GLOBAL_UNCERTAINTY_ASSIGNED_CONTEXT ( ( #161 ) ) GLOBAL_UNIT_ASSIGNED_CONTEXT ( ( #293, #81, #186 ) ) REPRESENTATION_CONTEXT ( 'NONE', 'WORKASPACE' ) );
#166 = ORIENTED_EDGE ( 'NONE', *, *, #25, .T. ) ;
#167 = AXIS2_PLACEMENT_3D ( 'NONE', #163, #255, #141 ) ;
#168 = VERTEX_POINT ( 'NONE', #258 ) ;
#169 = DIRECTION ( 'NONE',  ( -0.000000000000000000, -1.000000000000000000, -0.000000000000000000 ) ) ;
#170 = AXIS2_PLACEMENT_3D ( 'NONE', #5, #175, #55 ) ;
#171 = FILL_AREA_STYLE_COLOUR ( '', #86 ) ;
#172 = CARTESIAN_POINT ( 'NONE',  ( 0.3125000000000000000, 3.500000000000000000, 3.827021247335478926E-17 ) ) ;
#173 =( GEOMETRIC_REPRESENTATION_CONTEXT ( 3 ) GLOBAL_UNCERTAINTY_ASSIGNED_CONTEXT ( ( #136 ) ) GLOBAL_UNIT_ASSIGNED_CONTEXT ( ( #1, #309, #254 ) ) REPRESENTATION_CONTEXT ( 'NONE', 'WORKASPACE' ) );
#174 = FACE_OUTER_BOUND ( 'NONE', #228, .T. ) ;
#175 = DIRECTION ( 'NONE',  ( -3.265724797726272713E-17, 1.000000000000000000, -0.000000000000000000 ) ) ;
#176 = ADVANCED_FACE ( 'NONE', ( #48 ), #191, .T. ) ;
#177 = AXIS2_PLACEMENT_3D ( 'NONE', #99, #69, #237 ) ;
#178 = AXIS2_PLACEMENT_3D ( 'NONE', #253, #45, #281 ) ;
#179 = CARTESIAN_POINT ( 'NONE',  ( 0.000000000000000000, 0.000000000000000000, 0.000000000000000000 ) ) ;
#180 = ORIENTED_EDGE ( 'NONE', *, *, #84, .F. ) ;
#181 = CYLINDRICAL_SURFACE ( 'NONE', #46, 0.3125000000000000000 ) ;
#182 = MECHANICAL_DESIGN_GEOMETRIC_PRESENTATION_REPRESENTATION (  '', ( #131 ), #247 ) ;
#183 = VERTEX_POINT ( 'NONE', #100 ) ;
#184 = DIRECTION ( 'NONE',  ( -3.265724797726272713E-17, 1.000000000000000000, -0.000000000000000000 ) ) ;
#185 = ORIENTED_EDGE ( 'NONE', *, *, #219, .F. ) ;
#186 =( NAMED_UNIT ( * ) SI_UNIT ( $, .STERADIAN. ) SOLID_ANGLE_UNIT ( ) );
#187 = PRESENTATION_STYLE_ASSIGNMENT (( #70 ) ) ;
#188 = CARTESIAN_POINT ( 'NONE',  ( 0.000000000000000000, 1.625000000000000000, 0.000000000000000000 ) ) ;
#189 = CARTESIAN_POINT ( 'NONE',  ( -0.3125000000000001665, 3.500000000000000000, 0.000000000000000000 ) ) ;
#190 = PLANE ( 'NONE',  #275 ) ;
#191 = CYLINDRICAL_SURFACE ( 'NONE', #246, 0.3125000000000000000 ) ;
#192 = UNCERTAINTY_MEASURE_WITH_UNIT (LENGTH_MEASURE( 1.000000000000000082E-05 ), #67, 'distance_accuracy_value', 'NONE');
#193 = DIRECTION ( 'NONE',  ( -0.000000000000000000, -1.000000000000000000, -0.000000000000000000 ) ) ;
#194 = STYLED_ITEM ( 'NONE', ( #33 ), #105 ) ;
#195 = CARTESIAN_POINT ( 'NONE',  ( 0.3125000000000000000, 1.625000000000000000, 3.827021247335478926E-17 ) ) ;
#196 = COLOUR_RGB ( '',1.000000000000000000, 0.000000000000000000, 0.000000000000000000 ) ;
#197 = DIRECTION ( 'NONE',  ( -0.000000000000000000, -1.000000000000000000, -0.000000000000000000 ) ) ;
#198 = DIRECTION ( 'NONE',  ( 0.000000000000000000, -1.000000000000000000, -0.000000000000000000 ) ) ;
#199 = CIRCLE ( 'NONE', #291, 0.3125000000000000000 ) ;
#200 =( LENGTH_UNIT ( ) NAMED_UNIT ( * ) SI_UNIT ( $, .METRE. ) );
#201 = AXIS2_PLACEMENT_3D ( 'NONE', #188, #276, #299 ) ;
#202 = STYLED_ITEM ( 'NONE', ( #187 ), #176 ) ;
#203 = FILL_AREA_STYLE_COLOUR ( '', #152 ) ;
#204 =( GEOMETRIC_REPRESENTATION_CONTEXT ( 3 ) GLOBAL_UNCERTAINTY_ASSIGNED_CONTEXT ( ( #125 ) ) GLOBAL_UNIT_ASSIGNED_CONTEXT ( ( #264, #242, #220 ) ) REPRESENTATION_CONTEXT ( 'NONE', 'WORKASPACE' ) );
#205 =( CONVERSION_BASED_UNIT ( 'INCH', #35 ) LENGTH_UNIT ( ) NAMED_UNIT ( #263 ) );
#206 = EDGE_LOOP ( 'NONE', ( #257, #301, #142, #223 ) ) ;
#207 =( NAMED_UNIT ( * ) PLANE_ANGLE_UNIT ( ) SI_UNIT ( $, .RADIAN. ) );
#208 = VERTEX_POINT ( 'NONE', #189 ) ;
#209 = EDGE_CURVE ( 'NONE', #286, #168, #287, .T. ) ;
#210 = FILL_AREA_STYLE_COLOUR ( '', #153 ) ;
#211 = FACE_OUTER_BOUND ( 'NONE', #116, .T. ) ;
#212 = LENGTH_MEASURE_WITH_UNIT ( LENGTH_MEASURE( 0.02539999999999999897 ), #160 );
#213 = VERTEX_POINT ( 'NONE', #260 ) ;
#214 = PLANE ( 'NONE',  #88 ) ;
#215 = LENGTH_MEASURE_WITH_UNIT ( LENGTH_MEASURE( 0.02539999999999999897 ), #95 );
#216 = STYLED_ITEM ( 'NONE', ( #42 ), #132 ) ;
#217 = SURFACE_STYLE_FILL_AREA ( #4 ) ;
#218 = DIRECTION ( 'NONE',  ( -1.000000000000000000, 0.000000000000000000, 0.000000000000000000 ) ) ;
#219 = EDGE_CURVE ( 'NONE', #183, #236, #39, .T. ) ;
#220 =( NAMED_UNIT ( * ) SI_UNIT ( $, .STERADIAN. ) SOLID_ANGLE_UNIT ( ) );
#221 = CYLINDRICAL_SURFACE ( 'NONE', #7, 0.3125000000000000000 ) ;
#222 = CARTESIAN_POINT ( 'NONE',  ( 0.000000000000000000, 0.000000000000000000, 0.000000000000000000 ) ) ;
#223 = ORIENTED_EDGE ( 'NONE', *, *, #295, .F. ) ;
#224 = PRESENTATION_LAYER_ASSIGNMENT (  '', '', ( #131 ) ) ;
#225 = SURFACE_SIDE_STYLE ('',( #154 ) ) ;
#226 = MECHANICAL_DESIGN_GEOMETRIC_PRESENTATION_REPRESENTATION (  '', ( #216 ), #2 ) ;
#227 = SURFACE_STYLE_USAGE ( .BOTH. , #248 ) ;
#228 = EDGE_LOOP ( 'NONE', ( #15, #273, #251, #71 ) ) ;
#229 = ORIENTED_EDGE ( 'NONE', *, *, #249, .T. ) ;
#230 = MANIFOLD_SOLID_BREP ( 'Revolve - Tool Body (Straight Shanked)', #40 ) ;
#231 = MECHANICAL_DESIGN_GEOMETRIC_PRESENTATION_REPRESENTATION (  '', ( #14 ), #266 ) ;
#232 = CIRCLE ( 'NONE', #170, 0.3125000000000000555 ) ;
#233 = CARTESIAN_POINT ( 'NONE',  ( -6.123233995736759873E-17, 3.500000000000000000, 0.000000000000000000 ) ) ;
#234 = ORIENTED_EDGE ( 'NONE', *, *, #268, .F. ) ;
#235 = FILL_AREA_STYLE_COLOUR ( '', #140 ) ;
#236 = VERTEX_POINT ( 'NONE', #195 ) ;
#237 = DIRECTION ( 'NONE',  ( 1.000000000000000000, 0.000000000000000000, 0.000000000000000000 ) ) ;
#238 = CARTESIAN_POINT ( 'NONE',  ( 0.000000000000000000, 0.000000000000000000, 0.000000000000000000 ) ) ;
#239 = DIRECTION ( 'NONE',  ( -3.265724797726272713E-17, 1.000000000000000000, -0.000000000000000000 ) ) ;
#240 = CARTESIAN_POINT ( 'NONE',  ( 7.582401355855259480E-33, 1.625000000000000000, 0.000000000000000000 ) ) ;
#241 = EDGE_CURVE ( 'NONE', #208, #113, #232, .T. ) ;
#242 =( NAMED_UNIT ( * ) PLANE_ANGLE_UNIT ( ) SI_UNIT ( $, .RADIAN. ) );
#243 = DIRECTION ( 'NONE',  ( -3.265724797726272713E-17, 1.000000000000000000, -0.000000000000000000 ) ) ;
#244 = SURFACE_STYLE_FILL_AREA ( #135 ) ;
#245 = CARTESIAN_POINT ( 'NONE',  ( -0.3125000000000000555, 3.500000000000000000, 0.000000000000000000 ) ) ;
#246 = AXIS2_PLACEMENT_3D ( 'NONE', #238, #193, #289 ) ;
#247 =( GEOMETRIC_REPRESENTATION_CONTEXT ( 3 ) GLOBAL_UNCERTAINTY_ASSIGNED_CONTEXT ( ( #192 ) ) GLOBAL_UNIT_ASSIGNED_CONTEXT ( ( #67, #143, #118 ) ) REPRESENTATION_CONTEXT ( 'NONE', 'WORKASPACE' ) );
#248 = SURFACE_SIDE_STYLE ('',( #296 ) ) ;
#249 = EDGE_CURVE ( 'NONE', #130, #168, #27, .T. ) ;
#250 = CIRCLE ( 'NONE', #94, 0.3125000000000000555 ) ;
#251 = ORIENTED_EDGE ( 'NONE', *, *, #295, .T. ) ;
#252 = FACE_OUTER_BOUND ( 'NONE', #93, .T. ) ;
#253 = CARTESIAN_POINT ( 'NONE',  ( 0.000000000000000000, 1.625000000000000000, 0.000000000000000000 ) ) ;
#254 =( NAMED_UNIT ( * ) SI_UNIT ( $, .STERADIAN. ) SOLID_ANGLE_UNIT ( ) );
#255 = DIRECTION ( 'NONE',  ( -3.265724797726272713E-17, 1.000000000000000000, -0.000000000000000000 ) ) ;
#256 = SURFACE_SIDE_STYLE ('',( #217 ) ) ;
#257 = ORIENTED_EDGE ( 'NONE', *, *, #219, .T. ) ;
#258 = CARTESIAN_POINT ( 'NONE',  ( 0.000000000000000000, 0.000000000000000000, -0.3125000000000000000 ) ) ;
#259 = ORIENTED_EDGE ( 'NONE', *, *, #36, .T. ) ;
#260 = CARTESIAN_POINT ( 'NONE',  ( 3.827021247335478926E-17, 1.625000000000000000, 0.3125000000000000000 ) ) ;
#261 = DIMENSIONAL_EXPONENTS ( 1.000000000000000000, 0.000000000000000000, 0.000000000000000000, 0.000000000000000000, 0.000000000000000000, 0.000000000000000000, 0.000000000000000000 ) ;
#262 = CARTESIAN_POINT ( 'NONE',  ( -6.123233995736759873E-17, 3.500000000000000000, 0.000000000000000000 ) ) ;
#263 = DIMENSIONAL_EXPONENTS ( 1.000000000000000000, 0.000000000000000000, 0.000000000000000000, 0.000000000000000000, 0.000000000000000000, 0.000000000000000000, 0.000000000000000000 ) ;
#264 =( CONVERSION_BASED_UNIT ( 'INCH', #300 ) LENGTH_UNIT ( ) NAMED_UNIT ( #79 ) );
#265 = MECHANICAL_DESIGN_GEOMETRIC_PRESENTATION_REPRESENTATION (  '', ( #202 ), #173 ) ;
#266 =( GEOMETRIC_REPRESENTATION_CONTEXT ( 3 ) GLOBAL_UNCERTAINTY_ASSIGNED_CONTEXT ( ( #278 ) ) GLOBAL_UNIT_ASSIGNED_CONTEXT ( ( #205, #271, #58 ) ) REPRESENTATION_CONTEXT ( 'NONE', 'WORKASPACE' ) );
#267 = LINE ( 'NONE', #245, #61 ) ;
#268 = EDGE_CURVE ( 'NONE', #168, #130, #199, .T. ) ;
#269 = AXIS2_PLACEMENT_3D ( 'NONE', #222, #198, #149 ) ;
#270 = CLOSED_SHELL ( 'NONE', ( #105, #162, #176, #123 ) ) ;
#271 =( NAMED_UNIT ( * ) PLANE_ANGLE_UNIT ( ) SI_UNIT ( $, .RADIAN. ) );
#272 = ADVANCED_FACE ( 'NONE', ( #174 ), #221, .T. ) ;
#273 = ORIENTED_EDGE ( 'NONE', *, *, #84, .T. ) ;
#274 = CARTESIAN_POINT ( 'NONE',  ( -6.123233995736759873E-17, 3.500000000000000000, 0.000000000000000000 ) ) ;
#275 = AXIS2_PLACEMENT_3D ( 'NONE', #66, #120, #159 ) ;
#276 = DIRECTION ( 'NONE',  ( -0.000000000000000000, -1.000000000000000000, -0.000000000000000000 ) ) ;
#277 = DIRECTION ( 'NONE',  ( -1.000000000000000000, 0.000000000000000000, 0.000000000000000000 ) ) ;
#278 = UNCERTAINTY_MEASURE_WITH_UNIT (LENGTH_MEASURE( 1.000000000000000082E-05 ), #205, 'distance_accuracy_value', 'NONE');
#279 = ORIENTED_EDGE ( 'NONE', *, *, #25, .F. ) ;
#280 = ADVANCED_BREP_SHAPE_REPRESENTATION ( '83206', ( #132, #230, #177 ), #165 ) ;
#281 = DIRECTION ( 'NONE',  ( 0.000000000000000000, 0.000000000000000000, -1.000000000000000000 ) ) ;
#282 = APPLICATION_PROTOCOL_DEFINITION ( 'draft international standard', 'automotive_design', 1998, #103 ) ;
#283 = FACE_OUTER_BOUND ( 'NONE', #59, .T. ) ;
#284 = VECTOR ( 'NONE', #169, 39.37007874015748143 ) ;
#285 = CIRCLE ( 'NONE', #167, 0.3125000000000000000 ) ;
#286 = VERTEX_POINT ( 'NONE', #146 ) ;
#287 = LINE ( 'NONE', #78, #284 ) ;
#288 = DIMENSIONAL_EXPONENTS ( 1.000000000000000000, 0.000000000000000000, 0.000000000000000000, 0.000000000000000000, 0.000000000000000000, 0.000000000000000000, 0.000000000000000000 ) ;
#289 = DIRECTION ( 'NONE',  ( 0.000000000000000000, 0.000000000000000000, -1.000000000000000000 ) ) ;
#290 = FACE_OUTER_BOUND ( 'NONE', #10, .T. ) ;
#291 = AXIS2_PLACEMENT_3D ( 'NONE', #34, #197, #109 ) ;
#292 = AXIS2_PLACEMENT_3D ( 'NONE', #179, #38, #298 ) ;
#293 =( CONVERSION_BASED_UNIT ( 'INCH', #150 ) LENGTH_UNIT ( ) NAMED_UNIT ( #80 ) );
#294 = DIRECTION ( 'NONE',  ( -0.000000000000000000, -1.000000000000000000, -0.000000000000000000 ) ) ;
#295 = EDGE_CURVE ( 'NONE', #183, #208, #267, .T. ) ;
#296 = SURFACE_STYLE_FILL_AREA ( #158 ) ;
#297 = VECTOR ( 'NONE', #98, 39.37007874015748143 ) ;
#298 = DIRECTION ( 'NONE',  ( 0.000000000000000000, 0.000000000000000000, -1.000000000000000000 ) ) ;
#299 = DIRECTION ( 'NONE',  ( 0.000000000000000000, 0.000000000000000000, -1.000000000000000000 ) ) ;
#300 = LENGTH_MEASURE_WITH_UNIT ( LENGTH_MEASURE( 0.02539999999999999897 ), #119 );
#301 = ORIENTED_EDGE ( 'NONE', *, *, #64, .T. ) ;
#302 = PRESENTATION_LAYER_ASSIGNMENT (  '', '', ( #202 ) ) ;
#303 = FILL_AREA_STYLE_COLOUR ( '', #20 ) ;
#304 = MECHANICAL_DESIGN_GEOMETRIC_PRESENTATION_REPRESENTATION (  '', ( #194 ), #204 ) ;
#305 = DIRECTION ( 'NONE',  ( -3.265724797726272713E-17, 1.000000000000000000, 0.000000000000000000 ) ) ;
#306 = CARTESIAN_POINT ( 'NONE',  ( 0.000000000000000000, 1.625000000000000000, 0.000000000000000000 ) ) ;
#307 = CARTESIAN_POINT ( 'NONE',  ( 3.827021247335478926E-17, 0.000000000000000000, 0.3125000000000000000 ) ) ;
#308 = PRODUCT ( '83206', '83206', '', ( #72 ) ) ;
#309 =( NAMED_UNIT ( * ) PLANE_ANGLE_UNIT ( ) SI_UNIT ( $, .RADIAN. ) );
ENDSEC;
END-ISO-10303-21;
