ISO-10303-21;
HEADER;
FILE_DESCRIPTION (( 'STEP AP214' ),
    '1' );
FILE_NAME ('59834.STEP',
    '2023-06-22T22:56:51',
    ( '' ),
    ( '' ),
    'SwSTEP 2.0',
    'SolidWorks 2023',
    '' );
FILE_SCHEMA (( 'AUTOMOTIVE_DESIGN' ));
ENDSEC;

DATA;
#1 = DIRECTION ( 'NONE',  ( 0.000000000000000000, 0.000000000000000000, -1.000000000000000000 ) ) ;
#2 = AXIS2_PLACEMENT_3D ( 'NONE', #309, #53, #147 ) ;
#3 = VECTOR ( 'NONE', #148, 39.37007874015748143 ) ;
#4 = FACE_OUTER_BOUND ( 'NONE', #263, .T. ) ;
#5 = FACE_OUTER_BOUND ( 'NONE', #12, .T. ) ;
#6 = CIRCLE ( 'NONE', #2, 0.09375000000000001388 ) ;
#7 = FILL_AREA_STYLE ('',( #96 ) ) ;
#8 = UNCERTAINTY_MEASURE_WITH_UNIT (LENGTH_MEASURE( 1.000000000000000082E-05 ), #223, 'distance_accuracy_value', 'NONE');
#9 =( NAMED_UNIT ( * ) PLANE_ANGLE_UNIT ( ) SI_UNIT ( $, .RADIAN. ) );
#10 = DIRECTION ( 'NONE',  ( -0.000000000000000000, -1.000000000000000000, -0.000000000000000000 ) ) ;
#11 = EDGE_CURVE ( 'NONE', #204, #91, #18, .T. ) ;
#12 = EDGE_LOOP ( 'NONE', ( #182, #71, #244, #52 ) ) ;
#13 = AXIS2_PLACEMENT_3D ( 'NONE', #131, #229, #209 ) ;
#14 =( NAMED_UNIT ( * ) PLANE_ANGLE_UNIT ( ) SI_UNIT ( $, .RADIAN. ) );
#15 = ADVANCED_FACE ( 'NONE', ( #280 ), #68, .F. ) ;
#16 = PRESENTATION_STYLE_ASSIGNMENT (( #242 ) ) ;
#17 =( CONVERSION_BASED_UNIT ( 'INCH', #174 ) LENGTH_UNIT ( ) NAMED_UNIT ( #207 ) );
#18 = CIRCLE ( 'NONE', #266, 0.09375000000000001388 ) ;
#19 = AXIS2_PLACEMENT_3D ( 'NONE', #288, #125, #217 ) ;
#20 = CARTESIAN_POINT ( 'NONE',  ( 0.000000000000000000, 0.000000000000000000, 0.000000000000000000 ) ) ;
#21 = CARTESIAN_POINT ( 'NONE',  ( 0.000000000000000000, 0.3125000000000000000, 0.000000000000000000 ) ) ;
#22 = EDGE_CURVE ( 'NONE', #133, #293, #189, .T. ) ;
#23 =( NAMED_UNIT ( * ) SI_UNIT ( $, .STERADIAN. ) SOLID_ANGLE_UNIT ( ) );
#24 =( NAMED_UNIT ( * ) SI_UNIT ( $, .STERADIAN. ) SOLID_ANGLE_UNIT ( ) );
#25 = CARTESIAN_POINT ( 'NONE',  ( -7.582401355855259480E-33, 0.3125000000000000000, 0.000000000000000000 ) ) ;
#26 = SURFACE_SIDE_STYLE ('',( #140 ) ) ;
#27 =( GEOMETRIC_REPRESENTATION_CONTEXT ( 3 ) GLOBAL_UNCERTAINTY_ASSIGNED_CONTEXT ( ( #8 ) ) GLOBAL_UNIT_ASSIGNED_CONTEXT ( ( #223, #9, #88 ) ) REPRESENTATION_CONTEXT ( 'NONE', 'WORKASPACE' ) );
#28 = AXIS2_PLACEMENT_3D ( 'NONE', #42, #158, #1 ) ;
#29 = SURFACE_STYLE_FILL_AREA ( #295 ) ;
#30 = SURFACE_SIDE_STYLE ('',( #143 ) ) ;
#31 = PRODUCT_CONTEXT ( 'NONE', #79, 'mechanical' ) ;
#32 = AXIS2_PLACEMENT_3D ( 'NONE', #181, #251, #132 ) ;
#33 = CARTESIAN_POINT ( 'NONE',  ( 0.000000000000000000, 0.3125000000000000000, 0.000000000000000000 ) ) ;
#34 = ORIENTED_EDGE ( 'NONE', *, *, #119, .T. ) ;
#35 = ORIENTED_EDGE ( 'NONE', *, *, #119, .F. ) ;
#36 = MECHANICAL_DESIGN_GEOMETRIC_PRESENTATION_REPRESENTATION (  '', ( #185 ), #239 ) ;
#37 = VERTEX_POINT ( 'NONE', #303 ) ;
#38 = SURFACE_STYLE_USAGE ( .BOTH. , #253 ) ;
#39 = CARTESIAN_POINT ( 'NONE',  ( 0.000000000000000000, 0.3125000000000000000, -0.09375000000000001388 ) ) ;
#40 = DIRECTION ( 'NONE',  ( 3.628583108584753553E-17, -1.000000000000000000, 0.000000000000000000 ) ) ;
#41 = AXIS2_PLACEMENT_3D ( 'NONE', #20, #227, #188 ) ;
#42 = CARTESIAN_POINT ( 'NONE',  ( 0.000000000000000000, 0.000000000000000000, 0.000000000000000000 ) ) ;
#43 = VERTEX_POINT ( 'NONE', #107 ) ;
#44 = EDGE_CURVE ( 'NONE', #37, #248, #164, .T. ) ;
#45 = FILL_AREA_STYLE_COLOUR ( '', #221 ) ;
#46 = FILL_AREA_STYLE ('',( #205 ) ) ;
#47 = CARTESIAN_POINT ( 'NONE',  ( 6.171850957456216277E-35, 0.3125000000000000000, 0.000000000000000000 ) ) ;
#48 = SURFACE_STYLE_FILL_AREA ( #171 ) ;
#49 = MECHANICAL_DESIGN_GEOMETRIC_PRESENTATION_REPRESENTATION (  '', ( #60 ), #27 ) ;
#50 = PRODUCT_DEFINITION_FORMATION_WITH_SPECIFIED_SOURCE ( 'ANY', '', #307, .NOT_KNOWN. ) ;
#51 = PRODUCT_RELATED_PRODUCT_CATEGORY ( 'part', '', ( #307 ) ) ;
#52 = ORIENTED_EDGE ( 'NONE', *, *, #278, .F. ) ;
#53 = DIRECTION ( 'NONE',  ( -0.000000000000000000, -1.000000000000000000, -0.000000000000000000 ) ) ;
#54 = CARTESIAN_POINT ( 'NONE',  ( -0.09375000000000011102, 2.000000000000000000, 0.000000000000000000 ) ) ;
#55 = ORIENTED_EDGE ( 'NONE', *, *, #72, .F. ) ;
#56 = CIRCLE ( 'NONE', #254, 0.09375000000000001388 ) ;
#57 = DIMENSIONAL_EXPONENTS ( 1.000000000000000000, 0.000000000000000000, 0.000000000000000000, 0.000000000000000000, 0.000000000000000000, 0.000000000000000000, 0.000000000000000000 ) ;
#58 = PRODUCT_DEFINITION_SHAPE ( 'NONE', 'NONE',  #151 ) ;
#59 = EDGE_LOOP ( 'NONE', ( #162, #146 ) ) ;
#60 = STYLED_ITEM ( 'NONE', ( #16 ), #97 ) ;
#61 = PRESENTATION_STYLE_ASSIGNMENT (( #38 ) ) ;
#62 =( LENGTH_UNIT ( ) NAMED_UNIT ( * ) SI_UNIT ( $, .METRE. ) );
#63 = CARTESIAN_POINT ( 'NONE',  ( -7.582401355855259480E-33, 0.3125000000000000000, 0.000000000000000000 ) ) ;
#64 =( LENGTH_UNIT ( ) NAMED_UNIT ( * ) SI_UNIT ( $, .METRE. ) );
#65 = PLANE ( 'NONE',  #300 ) ;
#66 = ORIENTED_EDGE ( 'NONE', *, *, #278, .T. ) ;
#67 = ADVANCED_FACE ( 'NONE', ( #103 ), #252, .T. ) ;
#68 = PLANE ( 'NONE',  #122 ) ;
#69 = COLOUR_RGB ( '',1.000000000000000000, 0.000000000000000000, 0.000000000000000000 ) ;
#70 = ORIENTED_EDGE ( 'NONE', *, *, #262, .F. ) ;
#71 = ORIENTED_EDGE ( 'NONE', *, *, #235, .T. ) ;
#72 = EDGE_CURVE ( 'NONE', #43, #293, #6, .T. ) ;
#73 = VECTOR ( 'NONE', #114, 39.37007874015748143 ) ;
#74 = AXIS2_PLACEMENT_3D ( 'NONE', #21, #246, #276 ) ;
#75 =( NAMED_UNIT ( * ) PLANE_ANGLE_UNIT ( ) SI_UNIT ( $, .RADIAN. ) );
#76 = CARTESIAN_POINT ( 'NONE',  ( 0.000000000000000000, 0.000000000000000000, 0.000000000000000000 ) ) ;
#77 = CIRCLE ( 'NONE', #13, 0.09375000000000006939 ) ;
#78 = DIRECTION ( 'NONE',  ( -1.000000000000000000, 0.000000000000000000, 0.000000000000000000 ) ) ;
#79 = APPLICATION_CONTEXT ( 'automotive_design' ) ;
#80 = APPLICATION_PROTOCOL_DEFINITION ( 'draft international standard', 'automotive_design', 1998, #261 ) ;
#81 = SURFACE_SIDE_STYLE ('',( #48 ) ) ;
#82 = SURFACE_STYLE_USAGE ( .BOTH. , #139 ) ;
#83 = CARTESIAN_POINT ( 'NONE',  ( 1.148106374200643863E-17, 0.3125000000000000000, 0.09375000000000001388 ) ) ;
#84 = SURFACE_STYLE_USAGE ( .BOTH. , #81 ) ;
#85 = DIMENSIONAL_EXPONENTS ( 1.000000000000000000, 0.000000000000000000, 0.000000000000000000, 0.000000000000000000, 0.000000000000000000, 0.000000000000000000, 0.000000000000000000 ) ;
#86 = DIRECTION ( 'NONE',  ( -1.000000000000000000, -3.628583108584753553E-17, 0.000000000000000000 ) ) ;
#87 = ORIENTED_EDGE ( 'NONE', *, *, #233, .F. ) ;
#88 =( NAMED_UNIT ( * ) SI_UNIT ( $, .STERADIAN. ) SOLID_ANGLE_UNIT ( ) );
#89 = MECHANICAL_DESIGN_GEOMETRIC_PRESENTATION_REPRESENTATION (  '', ( #134 ), #176 ) ;
#90 = PLANE ( 'NONE',  #95 ) ;
#91 = VERTEX_POINT ( 'NONE', #277 ) ;
#92 = PRESENTATION_STYLE_ASSIGNMENT (( #183 ) ) ;
#93 = CARTESIAN_POINT ( 'NONE',  ( -6.123233995736772199E-17, 2.000000000000000000, 0.000000000000000000 ) ) ;
#94 = LENGTH_MEASURE_WITH_UNIT ( LENGTH_MEASURE( 0.02539999999999999897 ), #64 );
#95 = AXIS2_PLACEMENT_3D ( 'NONE', #33, #159, #109 ) ;
#96 = FILL_AREA_STYLE_COLOUR ( '', #128 ) ;
#97 = ADVANCED_FACE ( 'NONE', ( #230 ), #90, .T. ) ;
#98 = DIRECTION ( 'NONE',  ( 0.000000000000000000, -1.000000000000000000, -0.000000000000000000 ) ) ;
#99 =( LENGTH_UNIT ( ) NAMED_UNIT ( * ) SI_UNIT ( $, .METRE. ) );
#100 = PRESENTATION_LAYER_ASSIGNMENT (  '', '', ( #245 ) ) ;
#101 = PRESENTATION_LAYER_ASSIGNMENT (  '', '', ( #141 ) ) ;
#102 = ORIENTED_EDGE ( 'NONE', *, *, #275, .T. ) ;
#103 = FACE_OUTER_BOUND ( 'NONE', #234, .T. ) ;
#104 = LENGTH_MEASURE_WITH_UNIT ( LENGTH_MEASURE( 0.02539999999999999897 ), #220 );
#105 =( NAMED_UNIT ( * ) SI_UNIT ( $, .STERADIAN. ) SOLID_ANGLE_UNIT ( ) );
#106 =( NAMED_UNIT ( * ) SI_UNIT ( $, .STERADIAN. ) SOLID_ANGLE_UNIT ( ) );
#107 = CARTESIAN_POINT ( 'NONE',  ( 0.000000000000000000, 0.000000000000000000, -0.09375000000000001388 ) ) ;
#108 = DIRECTION ( 'NONE',  ( 0.000000000000000000, 0.000000000000000000, -1.000000000000000000 ) ) ;
#109 = DIRECTION ( 'NONE',  ( 0.000000000000000000, -0.000000000000000000, 1.000000000000000000 ) ) ;
#110 = SURFACE_SIDE_STYLE ('',( #191 ) ) ;
#111 = SURFACE_STYLE_FILL_AREA ( #299 ) ;
#112 = CIRCLE ( 'NONE', #74, 0.09375000000000001388 ) ;
#113 = DIRECTION ( 'NONE',  ( 1.000000000000000000, 3.628583108584753553E-17, 0.000000000000000000 ) ) ;
#114 = DIRECTION ( 'NONE',  ( -3.628583108584753553E-17, 1.000000000000000000, -0.000000000000000000 ) ) ;
#115 = ADVANCED_FACE ( 'NONE', ( #308 ), #65, .F. ) ;
#116 = VECTOR ( 'NONE', #287, 39.37007874015748143 ) ;
#117 = LENGTH_MEASURE_WITH_UNIT ( LENGTH_MEASURE( 0.02539999999999999897 ), #142 );
#118 = CARTESIAN_POINT ( 'NONE',  ( 0.000000000000000000, 0.000000000000000000, -0.09375000000000001388 ) ) ;
#119 = EDGE_CURVE ( 'NONE', #204, #37, #194, .T. ) ;
#120 = CARTESIAN_POINT ( 'NONE',  ( 0.000000000000000000, 0.000000000000000000, 0.000000000000000000 ) ) ;
#121 =( CONVERSION_BASED_UNIT ( 'INCH', #202 ) LENGTH_UNIT ( ) NAMED_UNIT ( #57 ) );
#122 = AXIS2_PLACEMENT_3D ( 'NONE', #47, #236, #86 ) ;
#123 = LENGTH_MEASURE_WITH_UNIT ( LENGTH_MEASURE( 0.02539999999999999897 ), #62 );
#124 = ORIENTED_EDGE ( 'NONE', *, *, #262, .T. ) ;
#125 = DIRECTION ( 'NONE',  ( 0.000000000000000000, 0.000000000000000000, 1.000000000000000000 ) ) ;
#126 = DIMENSIONAL_EXPONENTS ( 1.000000000000000000, 0.000000000000000000, 0.000000000000000000, 0.000000000000000000, 0.000000000000000000, 0.000000000000000000, 0.000000000000000000 ) ;
#127 = EDGE_LOOP ( 'NONE', ( #193, #304 ) ) ;
#128 = COLOUR_RGB ( '',1.000000000000000000, 0.000000000000000000, 0.000000000000000000 ) ;
#129 = ORIENTED_EDGE ( 'NONE', *, *, #44, .T. ) ;
#130 = ADVANCED_FACE ( 'NONE', ( #4 ), #167, .T. ) ;
#131 = CARTESIAN_POINT ( 'NONE',  ( -6.123233995736772199E-17, 2.000000000000000000, 0.000000000000000000 ) ) ;
#132 = DIRECTION ( 'NONE',  ( -1.000000000000000000, 0.000000000000000000, 0.000000000000000000 ) ) ;
#133 = VERTEX_POINT ( 'NONE', #83 ) ;
#134 = STYLED_ITEM ( 'NONE', ( #169 ), #137 ) ;
#135 = MANIFOLD_SOLID_BREP ( 'Revolve - Tool Body (Straight Shanked)', #136 ) ;
#136 = CLOSED_SHELL ( 'NONE', ( #149, #15, #67, #115 ) ) ;
#137 = MANIFOLD_SOLID_BREP ( 'Revolve - Cutting Edge', #163 ) ;
#138 = UNCERTAINTY_MEASURE_WITH_UNIT (LENGTH_MEASURE( 1.000000000000000082E-05 ), #250, 'distance_accuracy_value', 'NONE');
#139 = SURFACE_SIDE_STYLE ('',( #29 ) ) ;
#140 = SURFACE_STYLE_FILL_AREA ( #46 ) ;
#141 = STYLED_ITEM ( 'NONE', ( #216 ), #222 ) ;
#142 =( LENGTH_UNIT ( ) NAMED_UNIT ( * ) SI_UNIT ( $, .METRE. ) );
#143 = SURFACE_STYLE_FILL_AREA ( #7 ) ;
#144 = SURFACE_STYLE_USAGE ( .BOTH. , #30 ) ;
#145 = APPLICATION_PROTOCOL_DEFINITION ( 'draft international standard', 'automotive_design', 1998, #79 ) ;
#146 = ORIENTED_EDGE ( 'NONE', *, *, #235, .F. ) ;
#147 = DIRECTION ( 'NONE',  ( 0.000000000000000000, 0.000000000000000000, -1.000000000000000000 ) ) ;
#148 = DIRECTION ( 'NONE',  ( -3.628583108584753553E-17, 1.000000000000000000, -0.000000000000000000 ) ) ;
#149 = ADVANCED_FACE ( 'NONE', ( #214 ), #286, .T. ) ;
#150 = FILL_AREA_STYLE_COLOUR ( '', #274 ) ;
#151 = PRODUCT_DEFINITION ( 'UNKNOWN', '', #50, #257 ) ;
#152 = UNCERTAINTY_MEASURE_WITH_UNIT (LENGTH_MEASURE( 1.000000000000000082E-05 ), #279, 'distance_accuracy_value', 'NONE');
#153 = ORIENTED_EDGE ( 'NONE', *, *, #175, .T. ) ;
#154 =( NAMED_UNIT ( * ) SI_UNIT ( $, .STERADIAN. ) SOLID_ANGLE_UNIT ( ) );
#155 = DIRECTION ( 'NONE',  ( -0.000000000000000000, -1.000000000000000000, -0.000000000000000000 ) ) ;
#156 = EDGE_LOOP ( 'NONE', ( #124, #129 ) ) ;
#157 = PRESENTATION_LAYER_ASSIGNMENT (  '', '', ( #134 ) ) ;
#158 = DIRECTION ( 'NONE',  ( -0.000000000000000000, -1.000000000000000000, -0.000000000000000000 ) ) ;
#159 = DIRECTION ( 'NONE',  ( 0.000000000000000000, 1.000000000000000000, 0.000000000000000000 ) ) ;
#160 = DIRECTION ( 'NONE',  ( -1.000000000000000000, 0.000000000000000000, 0.000000000000000000 ) ) ;
#161 = CARTESIAN_POINT ( 'NONE',  ( 0.09375000000000001388, 2.000000000000000000, 0.000000000000000000 ) ) ;
#162 = ORIENTED_EDGE ( 'NONE', *, *, #275, .F. ) ;
#163 = CLOSED_SHELL ( 'NONE', ( #258, #97, #222, #130 ) ) ;
#164 = CIRCLE ( 'NONE', #32, 0.09375000000000006939 ) ;
#165 = FILL_AREA_STYLE_COLOUR ( '', #195 ) ;
#166 = ORIENTED_EDGE ( 'NONE', *, *, #233, .T. ) ;
#167 = PLANE ( 'NONE',  #273 ) ;
#168 =( LENGTH_UNIT ( ) NAMED_UNIT ( * ) SI_UNIT ( $, .METRE. ) );
#169 = PRESENTATION_STYLE_ASSIGNMENT (( #82 ) ) ;
#170 = PRESENTATION_LAYER_ASSIGNMENT (  '', '', ( #185 ) ) ;
#171 = FILL_AREA_STYLE ('',( #165 ) ) ;
#172 =( NAMED_UNIT ( * ) PLANE_ANGLE_UNIT ( ) SI_UNIT ( $, .RADIAN. ) );
#173 = ORIENTED_EDGE ( 'NONE', *, *, #22, .T. ) ;
#174 = LENGTH_MEASURE_WITH_UNIT ( LENGTH_MEASURE( 0.02539999999999999897 ), #99 );
#175 = EDGE_CURVE ( 'NONE', #91, #204, #56, .T. ) ;
#176 =( GEOMETRIC_REPRESENTATION_CONTEXT ( 3 ) GLOBAL_UNCERTAINTY_ASSIGNED_CONTEXT ( ( #270 ) ) GLOBAL_UNIT_ASSIGNED_CONTEXT ( ( #238, #292, #24 ) ) REPRESENTATION_CONTEXT ( 'NONE', 'WORKASPACE' ) );
#177 = DIRECTION ( 'NONE',  ( 0.000000000000000000, 0.000000000000000000, -1.000000000000000000 ) ) ;
#178 = CARTESIAN_POINT ( 'NONE',  ( -0.09375000000000013878, 2.000000000000000000, 0.000000000000000000 ) ) ;
#179 = ADVANCED_BREP_SHAPE_REPRESENTATION ( '59834', ( #137, #135, #19 ), #301 ) ;
#180 = EDGE_CURVE ( 'NONE', #269, #43, #259, .T. ) ;
#181 = CARTESIAN_POINT ( 'NONE',  ( -6.123233995736772199E-17, 2.000000000000000000, 0.000000000000000000 ) ) ;
#182 = ORIENTED_EDGE ( 'NONE', *, *, #22, .F. ) ;
#183 = SURFACE_STYLE_USAGE ( .BOTH. , #26 ) ;
#184 =( NAMED_UNIT ( * ) PLANE_ANGLE_UNIT ( ) SI_UNIT ( $, .RADIAN. ) );
#185 = STYLED_ITEM ( 'NONE', ( #264 ), #130 ) ;
#186 = CIRCLE ( 'NONE', #41, 0.09375000000000001388 ) ;
#187 = MECHANICAL_DESIGN_GEOMETRIC_PRESENTATION_REPRESENTATION (  '', ( #141 ), #192 ) ;
#188 = DIRECTION ( 'NONE',  ( 0.000000000000000000, 0.000000000000000000, -1.000000000000000000 ) ) ;
#189 = LINE ( 'NONE', #219, #200 ) ;
#190 = CARTESIAN_POINT ( 'NONE',  ( 1.148106374200643863E-17, 0.000000000000000000, 0.09375000000000001388 ) ) ;
#191 = SURFACE_STYLE_FILL_AREA ( #302 ) ;
#192 =( GEOMETRIC_REPRESENTATION_CONTEXT ( 3 ) GLOBAL_UNCERTAINTY_ASSIGNED_CONTEXT ( ( #298 ) ) GLOBAL_UNIT_ASSIGNED_CONTEXT ( ( #17, #199, #106 ) ) REPRESENTATION_CONTEXT ( 'NONE', 'WORKASPACE' ) );
#193 = ORIENTED_EDGE ( 'NONE', *, *, #175, .F. ) ;
#194 = LINE ( 'NONE', #283, #73 ) ;
#195 = COLOUR_RGB ( '',1.000000000000000000, 0.000000000000000000, 0.000000000000000000 ) ;
#196 =( NAMED_UNIT ( * ) SI_UNIT ( $, .STERADIAN. ) SOLID_ANGLE_UNIT ( ) );
#197 = MECHANICAL_DESIGN_GEOMETRIC_PRESENTATION_REPRESENTATION (  '', ( #240 ), #243 ) ;
#198 = DIRECTION ( 'NONE',  ( -3.628583108584753553E-17, 1.000000000000000000, -0.000000000000000000 ) ) ;
#199 =( NAMED_UNIT ( * ) PLANE_ANGLE_UNIT ( ) SI_UNIT ( $, .RADIAN. ) );
#200 = VECTOR ( 'NONE', #155, 39.37007874015748143 ) ;
#201 = ORIENTED_EDGE ( 'NONE', *, *, #72, .T. ) ;
#202 = LENGTH_MEASURE_WITH_UNIT ( LENGTH_MEASURE( 0.02539999999999999897 ), #168 );
#203 = DIRECTION ( 'NONE',  ( 0.000000000000000000, 0.000000000000000000, -1.000000000000000000 ) ) ;
#204 = VERTEX_POINT ( 'NONE', #241 ) ;
#205 = FILL_AREA_STYLE_COLOUR ( '', #282 ) ;
#206 = CYLINDRICAL_SURFACE ( 'NONE', #28, 0.09375000000000001388 ) ;
#207 = DIMENSIONAL_EXPONENTS ( 1.000000000000000000, 0.000000000000000000, 0.000000000000000000, 0.000000000000000000, 0.000000000000000000, 0.000000000000000000, 0.000000000000000000 ) ;
#208 = DIRECTION ( 'NONE',  ( -1.000000000000000000, 0.000000000000000000, 0.000000000000000000 ) ) ;
#209 = DIRECTION ( 'NONE',  ( -1.000000000000000000, 0.000000000000000000, 0.000000000000000000 ) ) ;
#210 = DIRECTION ( 'NONE',  ( -3.628583108584753553E-17, 1.000000000000000000, -0.000000000000000000 ) ) ;
#211 = DIRECTION ( 'NONE',  ( -3.628583108584753553E-17, 1.000000000000000000, -0.000000000000000000 ) ) ;
#212 = AXIS2_PLACEMENT_3D ( 'NONE', #260, #198, #78 ) ;
#213 = DIRECTION ( 'NONE',  ( -1.000000000000000000, 0.000000000000000000, 0.000000000000000000 ) ) ;
#214 = FACE_OUTER_BOUND ( 'NONE', #231, .T. ) ;
#215 =( CONVERSION_BASED_UNIT ( 'INCH', #117 ) LENGTH_UNIT ( ) NAMED_UNIT ( #85 ) );
#216 = PRESENTATION_STYLE_ASSIGNMENT (( #144 ) ) ;
#217 = DIRECTION ( 'NONE',  ( 1.000000000000000000, 0.000000000000000000, 0.000000000000000000 ) ) ;
#218 = DIRECTION ( 'NONE',  ( -0.000000000000000000, -1.000000000000000000, -0.000000000000000000 ) ) ;
#219 = CARTESIAN_POINT ( 'NONE',  ( 1.148106374200643863E-17, 0.000000000000000000, 0.09375000000000001388 ) ) ;
#220 =( LENGTH_UNIT ( ) NAMED_UNIT ( * ) SI_UNIT ( $, .METRE. ) );
#221 = COLOUR_RGB ( '',0.7921568627450980005, 0.8196078431372548767, 0.9333333333333333481 ) ;
#222 = ADVANCED_FACE ( 'NONE', ( #5 ), #289, .T. ) ;
#223 =( CONVERSION_BASED_UNIT ( 'INCH', #123 ) LENGTH_UNIT ( ) NAMED_UNIT ( #228 ) );
#224 = CARTESIAN_POINT ( 'NONE',  ( 0.000000000000000000, 0.3125000000000000000, 0.000000000000000000 ) ) ;
#225 = EDGE_LOOP ( 'NONE', ( #102, #173, #55, #272 ) ) ;
#226 = PRESENTATION_LAYER_ASSIGNMENT (  '', '', ( #240 ) ) ;
#227 = DIRECTION ( 'NONE',  ( -0.000000000000000000, -1.000000000000000000, -0.000000000000000000 ) ) ;
#228 = DIMENSIONAL_EXPONENTS ( 1.000000000000000000, 0.000000000000000000, 0.000000000000000000, 0.000000000000000000, 0.000000000000000000, 0.000000000000000000, 0.000000000000000000 ) ;
#229 = DIRECTION ( 'NONE',  ( -3.628583108584753553E-17, 1.000000000000000000, -0.000000000000000000 ) ) ;
#230 = FACE_OUTER_BOUND ( 'NONE', #59, .T. ) ;
#231 = EDGE_LOOP ( 'NONE', ( #153, #34, #70, #87 ) ) ;
#232 = AXIS2_PLACEMENT_3D ( 'NONE', #224, #10, #108 ) ;
#233 = EDGE_CURVE ( 'NONE', #91, #248, #265, .T. ) ;
#234 = EDGE_LOOP ( 'NONE', ( #35, #297, #166, #256 ) ) ;
#235 = EDGE_CURVE ( 'NONE', #133, #269, #267, .T. ) ;
#236 = DIRECTION ( 'NONE',  ( -3.628583108584753553E-17, 1.000000000000000000, 0.000000000000000000 ) ) ;
#237 = PRESENTATION_LAYER_ASSIGNMENT (  '', '', ( #60 ) ) ;
#238 =( CONVERSION_BASED_UNIT ( 'INCH', #104 ) LENGTH_UNIT ( ) NAMED_UNIT ( #126 ) );
#239 =( GEOMETRIC_REPRESENTATION_CONTEXT ( 3 ) GLOBAL_UNCERTAINTY_ASSIGNED_CONTEXT ( ( #285 ) ) GLOBAL_UNIT_ASSIGNED_CONTEXT ( ( #215, #172, #105 ) ) REPRESENTATION_CONTEXT ( 'NONE', 'WORKASPACE' ) );
#240 = STYLED_ITEM ( 'NONE', ( #61 ), #258 ) ;
#241 = CARTESIAN_POINT ( 'NONE',  ( 0.09375000000000001388, 0.3125000000000000000, 1.148106374200644325E-17 ) ) ;
#242 = SURFACE_STYLE_USAGE ( .BOTH. , #110 ) ;
#243 =( GEOMETRIC_REPRESENTATION_CONTEXT ( 3 ) GLOBAL_UNCERTAINTY_ASSIGNED_CONTEXT ( ( #138 ) ) GLOBAL_UNIT_ASSIGNED_CONTEXT ( ( #250, #184, #154 ) ) REPRESENTATION_CONTEXT ( 'NONE', 'WORKASPACE' ) );
#244 = ORIENTED_EDGE ( 'NONE', *, *, #180, .T. ) ;
#245 = STYLED_ITEM ( 'NONE', ( #92 ), #135 ) ;
#246 = DIRECTION ( 'NONE',  ( -0.000000000000000000, -1.000000000000000000, -0.000000000000000000 ) ) ;
#247 = AXIS2_PLACEMENT_3D ( 'NONE', #76, #218, #203 ) ;
#248 = VERTEX_POINT ( 'NONE', #178 ) ;
#249 = DIMENSIONAL_EXPONENTS ( 1.000000000000000000, 0.000000000000000000, 0.000000000000000000, 0.000000000000000000, 0.000000000000000000, 0.000000000000000000, 0.000000000000000000 ) ;
#250 =( CONVERSION_BASED_UNIT ( 'INCH', #281 ) LENGTH_UNIT ( ) NAMED_UNIT ( #271 ) );
#251 = DIRECTION ( 'NONE',  ( -3.628583108584753553E-17, 1.000000000000000000, -0.000000000000000000 ) ) ;
#252 = CYLINDRICAL_SURFACE ( 'NONE', #290, 0.09375000000000004163 ) ;
#253 = SURFACE_SIDE_STYLE ('',( #111 ) ) ;
#254 = AXIS2_PLACEMENT_3D ( 'NONE', #25, #211, #213 ) ;
#255 = FILL_AREA_STYLE_COLOUR ( '', #69 ) ;
#256 = ORIENTED_EDGE ( 'NONE', *, *, #44, .F. ) ;
#257 = PRODUCT_DEFINITION_CONTEXT ( 'detailed design', #261, 'design' ) ;
#258 = ADVANCED_FACE ( 'NONE', ( #268 ), #206, .T. ) ;
#259 = LINE ( 'NONE', #118, #116 ) ;
#260 = CARTESIAN_POINT ( 'NONE',  ( -6.123233995736772199E-17, 2.000000000000000000, 0.000000000000000000 ) ) ;
#261 = APPLICATION_CONTEXT ( 'automotive_design' ) ;
#262 = EDGE_CURVE ( 'NONE', #248, #37, #77, .T. ) ;
#263 = EDGE_LOOP ( 'NONE', ( #201, #66 ) ) ;
#264 = PRESENTATION_STYLE_ASSIGNMENT (( #84 ) ) ;
#265 = LINE ( 'NONE', #54, #3 ) ;
#266 = AXIS2_PLACEMENT_3D ( 'NONE', #63, #210, #160 ) ;
#267 = CIRCLE ( 'NONE', #232, 0.09375000000000001388 ) ;
#268 = FACE_OUTER_BOUND ( 'NONE', #225, .T. ) ;
#269 = VERTEX_POINT ( 'NONE', #39 ) ;
#270 = UNCERTAINTY_MEASURE_WITH_UNIT (LENGTH_MEASURE( 1.000000000000000082E-05 ), #238, 'distance_accuracy_value', 'NONE');
#271 = DIMENSIONAL_EXPONENTS ( 1.000000000000000000, 0.000000000000000000, 0.000000000000000000, 0.000000000000000000, 0.000000000000000000, 0.000000000000000000, 0.000000000000000000 ) ;
#272 = ORIENTED_EDGE ( 'NONE', *, *, #180, .F. ) ;
#273 = AXIS2_PLACEMENT_3D ( 'NONE', #120, #98, #177 ) ;
#274 = COLOUR_RGB ( '',1.000000000000000000, 0.000000000000000000, 0.000000000000000000 ) ;
#275 = EDGE_CURVE ( 'NONE', #269, #133, #112, .T. ) ;
#276 = DIRECTION ( 'NONE',  ( 0.000000000000000000, 0.000000000000000000, -1.000000000000000000 ) ) ;
#277 = CARTESIAN_POINT ( 'NONE',  ( -0.09375000000000001388, 0.3125000000000000000, 0.000000000000000000 ) ) ;
#278 = EDGE_CURVE ( 'NONE', #293, #43, #186, .T. ) ;
#279 =( CONVERSION_BASED_UNIT ( 'INCH', #94 ) LENGTH_UNIT ( ) NAMED_UNIT ( #249 ) );
#280 = FACE_OUTER_BOUND ( 'NONE', #127, .T. ) ;
#281 = LENGTH_MEASURE_WITH_UNIT ( LENGTH_MEASURE( 0.02539999999999999897 ), #306 );
#282 = COLOUR_RGB ( '',0.7921568627450980005, 0.8196078431372548767, 0.9333333333333333481 ) ;
#283 = CARTESIAN_POINT ( 'NONE',  ( 0.09374999999999997224, 2.000000000000000000, 1.148106374200644171E-17 ) ) ;
#284 =( GEOMETRIC_REPRESENTATION_CONTEXT ( 3 ) GLOBAL_UNCERTAINTY_ASSIGNED_CONTEXT ( ( #291 ) ) GLOBAL_UNIT_ASSIGNED_CONTEXT ( ( #121, #75, #196 ) ) REPRESENTATION_CONTEXT ( 'NONE', 'WORKASPACE' ) );
#285 = UNCERTAINTY_MEASURE_WITH_UNIT (LENGTH_MEASURE( 1.000000000000000082E-05 ), #215, 'distance_accuracy_value', 'NONE');
#286 = CYLINDRICAL_SURFACE ( 'NONE', #212, 0.09375000000000004163 ) ;
#287 = DIRECTION ( 'NONE',  ( -0.000000000000000000, -1.000000000000000000, -0.000000000000000000 ) ) ;
#288 = CARTESIAN_POINT ( 'NONE',  ( 0.000000000000000000, 0.000000000000000000, 0.000000000000000000 ) ) ;
#289 = CYLINDRICAL_SURFACE ( 'NONE', #247, 0.09375000000000001388 ) ;
#290 = AXIS2_PLACEMENT_3D ( 'NONE', #93, #294, #208 ) ;
#291 = UNCERTAINTY_MEASURE_WITH_UNIT (LENGTH_MEASURE( 1.000000000000000082E-05 ), #121, 'distance_accuracy_value', 'NONE');
#292 =( NAMED_UNIT ( * ) PLANE_ANGLE_UNIT ( ) SI_UNIT ( $, .RADIAN. ) );
#293 = VERTEX_POINT ( 'NONE', #190 ) ;
#294 = DIRECTION ( 'NONE',  ( -3.628583108584753553E-17, 1.000000000000000000, -0.000000000000000000 ) ) ;
#295 = FILL_AREA_STYLE ('',( #45 ) ) ;
#296 = SHAPE_DEFINITION_REPRESENTATION ( #58, #179 ) ;
#297 = ORIENTED_EDGE ( 'NONE', *, *, #11, .T. ) ;
#298 = UNCERTAINTY_MEASURE_WITH_UNIT (LENGTH_MEASURE( 1.000000000000000082E-05 ), #17, 'distance_accuracy_value', 'NONE');
#299 = FILL_AREA_STYLE ('',( #150 ) ) ;
#300 = AXIS2_PLACEMENT_3D ( 'NONE', #161, #40, #113 ) ;
#301 =( GEOMETRIC_REPRESENTATION_CONTEXT ( 3 ) GLOBAL_UNCERTAINTY_ASSIGNED_CONTEXT ( ( #152 ) ) GLOBAL_UNIT_ASSIGNED_CONTEXT ( ( #279, #14, #23 ) ) REPRESENTATION_CONTEXT ( 'NONE', 'WORKASPACE' ) );
#302 = FILL_AREA_STYLE ('',( #255 ) ) ;
#303 = CARTESIAN_POINT ( 'NONE',  ( 0.09375000000000001388, 2.000000000000000000, 1.148106374200644325E-17 ) ) ;
#304 = ORIENTED_EDGE ( 'NONE', *, *, #11, .F. ) ;
#305 = MECHANICAL_DESIGN_GEOMETRIC_PRESENTATION_REPRESENTATION (  '', ( #245 ), #284 ) ;
#306 =( LENGTH_UNIT ( ) NAMED_UNIT ( * ) SI_UNIT ( $, .METRE. ) );
#307 = PRODUCT ( '59834', '59834', '', ( #31 ) ) ;
#308 = FACE_OUTER_BOUND ( 'NONE', #156, .T. ) ;
#309 = CARTESIAN_POINT ( 'NONE',  ( 0.000000000000000000, 0.000000000000000000, 0.000000000000000000 ) ) ;
ENDSEC;
END-ISO-10303-21;
