ISO-10303-21;
HEADER;
FILE_DESCRIPTION (( 'STEP AP214' ),
    '1' );
FILE_NAME ('Micro_GEM-046-3.STEP',
    '2021-09-01T18:53:12',
    ( '' ),
    ( '' ),
    'SwSTEP 2.0',
    'SolidWorks 2020',
    '' );
FILE_SCHEMA (( 'AUTOMOTIVE_DESIGN' ));
ENDSEC;

DATA;
#1 = ORIENTED_EDGE ( 'NONE', *, *, #177, .T. ) ;
#2 = AXIS2_PLACEMENT_3D ( 'NONE', #291, #114, #95 ) ;
#3 = DIRECTION ( 'NONE',  ( 1.000000000000000000, 0.0000000000000000000, 0.0000000000000000000 ) ) ;
#4 = ADVANCED_FACE ( 'NONE', ( #24 ), #128, .T. ) ;
#5 = APPLICATION_CONTEXT ( 'automotive_design' ) ;
#6 = ORIENTED_EDGE ( 'NONE', *, *, #60, .F. ) ;
#7 = CONICAL_SURFACE ( 'NONE', #176, 0.02342654999999999391, 0.1745329251994338915 ) ;
#8 = ORIENTED_EDGE ( 'NONE', *, *, #264, .F. ) ;
#9 = LENGTH_MEASURE_WITH_UNIT ( LENGTH_MEASURE( 0.02539999999999999897 ), #239 );
#10 = CARTESIAN_POINT ( 'NONE',  ( 0.06250000000000002776, 7.654042494670959086E-18, 1.485000000000000764 ) ) ;
#11 = FACE_OUTER_BOUND ( 'NONE', #236, .T. ) ;
#12 = DIRECTION ( 'NONE',  ( -1.224646799147353700E-16, -0.0000000000000000000, -1.000000000000000000 ) ) ;
#13 = EDGE_CURVE ( 'NONE', #167, #198, #112, .T. ) ;
#14 = DIRECTION ( 'NONE',  ( 0.0000000000000000000, 0.0000000000000000000, -1.000000000000000000 ) ) ;
#15 = PRESENTATION_LAYER_ASSIGNMENT (  '', '', ( #281 ) ) ;
#16 = DIRECTION ( 'NONE',  ( 1.000000000000000000, 0.0000000000000000000, 0.0000000000000000000 ) ) ;
#17 = CARTESIAN_POINT ( 'NONE',  ( 4.048640026209108604E-17, 0.0000000000000000000, 0.3305965466147405274 ) ) ;
#18 = FACE_OUTER_BOUND ( 'NONE', #125, .T. ) ;
#19 = ADVANCED_FACE ( 'NONE', ( #129 ), #179, .T. ) ;
#20 = DIMENSIONAL_EXPONENTS ( 1.000000000000000000, 0.0000000000000000000, 0.0000000000000000000, 0.0000000000000000000, 0.0000000000000000000, 0.0000000000000000000, 0.0000000000000000000 ) ;
#21 = LINE ( 'NONE', #89, #25 ) ;
#22 = ORIENTED_EDGE ( 'NONE', *, *, #121, .F. ) ;
#23 = DIRECTION ( 'NONE',  ( 0.0000000000000000000, 0.0000000000000000000, 1.000000000000000000 ) ) ;
#24 = FACE_OUTER_BOUND ( 'NONE', #86, .T. ) ;
#25 = VECTOR ( 'NONE', #233, 39.37007874015747433 ) ;
#26 = ORIENTED_EDGE ( 'NONE', *, *, #154, .T. ) ;
#27 = DIRECTION ( 'NONE',  ( 0.0000000000000000000, 0.0000000000000000000, -1.000000000000000000 ) ) ;
#28 = EDGE_CURVE ( 'NONE', #108, #35, #149, .T. ) ;
#29 = DIRECTION ( 'NONE',  ( 1.000000000000000000, 0.0000000000000000000, 0.0000000000000000000 ) ) ;
#30 = DIRECTION ( 'NONE',  ( 1.000000000000000000, 0.0000000000000000000, 0.0000000000000000000 ) ) ;
#31 = DIMENSIONAL_EXPONENTS ( 1.000000000000000000, 0.0000000000000000000, 0.0000000000000000000, 0.0000000000000000000, 0.0000000000000000000, 0.0000000000000000000, 0.0000000000000000000 ) ;
#32 = ORIENTED_EDGE ( 'NONE', *, *, #13, .F. ) ;
#33 = SURFACE_SIDE_STYLE ('',( #171 ) ) ;
#34 = CARTESIAN_POINT ( 'NONE',  ( -0.04750000000000064587, 0.0000000000000000000, 1.500000000000000222 ) ) ;
#35 = VERTEX_POINT ( 'NONE', #38 ) ;
#36 = DIRECTION ( 'NONE',  ( -0.0000000000000000000, -0.0000000000000000000, -1.000000000000000000 ) ) ;
#37 = SHAPE_DEFINITION_REPRESENTATION ( #202, #127 ) ;
#38 = CARTESIAN_POINT ( 'NONE',  ( 0.06250000000000006939, 7.654042494670963708E-18, 0.3305965466147405274 ) ) ;
#39 = AXIS2_PLACEMENT_3D ( 'NONE', #251, #57, #100 ) ;
#40 = VECTOR ( 'NONE', #193, 39.37007874015748854 ) ;
#41 = VERTEX_POINT ( 'NONE', #126 ) ;
#42 = EDGE_CURVE ( 'NONE', #41, #204, #21, .T. ) ;
#43 = DIRECTION ( 'NONE',  ( -1.000000000000000000, 0.0000000000000000000, 1.224646799147353700E-16 ) ) ;
#44 = ORIENTED_EDGE ( 'NONE', *, *, #249, .F. ) ;
#45 = PRESENTATION_LAYER_ASSIGNMENT (  '', '', ( #139 ) ) ;
#46 = ORIENTED_EDGE ( 'NONE', *, *, #121, .T. ) ;
#47 = VECTOR ( 'NONE', #185, 39.37007874015748143 ) ;
#48 = CARTESIAN_POINT ( 'NONE',  ( 1.334865011070615584E-17, 0.0000000000000000000, 0.1089999999999999997 ) ) ;
#49 = ADVANCED_FACE ( 'NONE', ( #282 ), #66, .T. ) ;
#50 = DIRECTION ( 'NONE',  ( -1.000000000000000000, 0.0000000000000000000, 0.0000000000000000000 ) ) ;
#51 = DIRECTION ( 'NONE',  ( 1.224646799147353700E-16, 0.0000000000000000000, 1.000000000000000000 ) ) ;
#52 = CARTESIAN_POINT ( 'NONE',  ( 0.0000000000000000000, 0.0000000000000000000, 1.500000000000000222 ) ) ;
#53 = VECTOR ( 'NONE', #216, 39.37007874015748854 ) ;
#54 = DIRECTION ( 'NONE',  ( -1.000000000000000000, 0.0000000000000000000, 0.0000000000000000000 ) ) ;
#55 =( GEOMETRIC_REPRESENTATION_CONTEXT ( 3 ) GLOBAL_UNCERTAINTY_ASSIGNED_CONTEXT ( ( #238 ) ) GLOBAL_UNIT_ASSIGNED_CONTEXT ( ( #296, #61, #146 ) ) REPRESENTATION_CONTEXT ( 'NONE', 'WORKASPACE' ) );
#56 =( NAMED_UNIT ( * ) PLANE_ANGLE_UNIT ( ) SI_UNIT ( $, .RADIAN. ) );
#57 = DIRECTION ( 'NONE',  ( 0.0000000000000000000, 0.0000000000000000000, 1.000000000000000000 ) ) ;
#58 = DIRECTION ( 'NONE',  ( 1.000000000000000000, 0.0000000000000000000, 0.0000000000000000000 ) ) ;
#59 =( LENGTH_UNIT ( ) NAMED_UNIT ( * ) SI_UNIT ( $, .METRE. ) );
#60 = EDGE_CURVE ( 'NONE', #41, #257, #161, .T. ) ;
#61 =( NAMED_UNIT ( * ) PLANE_ANGLE_UNIT ( ) SI_UNIT ( $, .RADIAN. ) );
#62 = ORIENTED_EDGE ( 'NONE', *, *, #28, .F. ) ;
#63 =( NAMED_UNIT ( * ) SI_UNIT ( $, .STERADIAN. ) SOLID_ANGLE_UNIT ( ) );
#64 = EDGE_CURVE ( 'NONE', #152, #204, #75, .T. ) ;
#65 = ORIENTED_EDGE ( 'NONE', *, *, #42, .T. ) ;
#66 = PLANE ( 'NONE',  #273 ) ;
#67 = ORIENTED_EDGE ( 'NONE', *, *, #28, .T. ) ;
#68 = ORIENTED_EDGE ( 'NONE', *, *, #174, .T. ) ;
#69 = DIRECTION ( 'NONE',  ( -1.000000000000000000, 0.0000000000000000000, 0.0000000000000000000 ) ) ;
#70 = VECTOR ( 'NONE', #256, 39.37007874015748143 ) ;
#71 = CYLINDRICAL_SURFACE ( 'NONE', #85, 0.02342655000000000085 ) ;
#72 = CARTESIAN_POINT ( 'NONE',  ( 0.02342655000000000085, 2.868924947256542564E-18, -2.868924947256543719E-18 ) ) ;
#73 = ADVANCED_FACE ( 'NONE', ( #117 ), #159, .F. ) ;
#74 = UNCERTAINTY_MEASURE_WITH_UNIT (LENGTH_MEASURE( 1.000000000000000082E-05 ), #226, 'distance_accuracy_value', 'NONE');
#75 = LINE ( 'NONE', #116, #47 ) ;
#76 = CARTESIAN_POINT ( 'NONE',  ( 0.0000000000000000000, 0.0000000000000000000, 1.485000000000000764 ) ) ;
#77 = AXIS2_PLACEMENT_3D ( 'NONE', #240, #293, #189 ) ;
#78 = CLOSED_SHELL ( 'NONE', ( #143, #163, #99, #19, #290, #49, #111, #232, #4, #73 ) ) ;
#79 =( NAMED_UNIT ( * ) SI_UNIT ( $, .STERADIAN. ) SOLID_ANGLE_UNIT ( ) );
#80 = CONICAL_SURFACE ( 'NONE', #295, 0.04750000000000064587, 0.7853981633974466137 ) ;
#81 = CARTESIAN_POINT ( 'NONE',  ( 0.04750000000000064587, 5.817072295950006528E-18, 1.500000000000000222 ) ) ;
#82 = LINE ( 'NONE', #225, #142 ) ;
#83 = AXIS2_PLACEMENT_3D ( 'NONE', #17, #276, #58 ) ;
#84 = EDGE_LOOP ( 'NONE', ( #180, #22, #153, #1 ) ) ;
#85 = AXIS2_PLACEMENT_3D ( 'NONE', #158, #212, #157 ) ;
#86 = EDGE_LOOP ( 'NONE', ( #217, #46, #191, #190 ) ) ;
#87 = CARTESIAN_POINT ( 'NONE',  ( 0.0000000000000000000, 0.0000000000000000000, 1.500000000000000222 ) ) ;
#88 = UNCERTAINTY_MEASURE_WITH_UNIT (LENGTH_MEASURE( 1.000000000000000082E-05 ), #93, 'distance_accuracy_value', 'NONE');
#89 = CARTESIAN_POINT ( 'NONE',  ( -0.02342654999999998350, 2.868924947256542179E-18, 0.1089999999999999997 ) ) ;
#90 = DIRECTION ( 'NONE',  ( 0.0000000000000000000, 0.0000000000000000000, 1.000000000000000000 ) ) ;
#91 = DIRECTION ( 'NONE',  ( -0.0000000000000000000, -0.0000000000000000000, -1.000000000000000000 ) ) ;
#92 = VECTOR ( 'NONE', #221, 39.37007874015748143 ) ;
#93 =( CONVERSION_BASED_UNIT ( 'INCH', #9 ) LENGTH_UNIT ( ) NAMED_UNIT ( #31 ) );
#94 = DIRECTION ( 'NONE',  ( 1.000000000000000000, 0.0000000000000000000, -0.0000000000000000000 ) ) ;
#95 = DIRECTION ( 'NONE',  ( 1.000000000000000000, 0.0000000000000000000, 0.0000000000000000000 ) ) ;
#96 = DIRECTION ( 'NONE',  ( 0.0000000000000000000, 0.0000000000000000000, -1.000000000000000000 ) ) ;
#97 = CARTESIAN_POINT ( 'NONE',  ( 0.0000000000000000000, 0.0000000000000000000, 1.500000000000000222 ) ) ;
#98 = AXIS2_PLACEMENT_3D ( 'NONE', #155, #91, #183 ) ;
#99 = ADVANCED_FACE ( 'NONE', ( #266 ), #80, .T. ) ;
#100 = DIRECTION ( 'NONE',  ( 1.000000000000000000, 0.0000000000000000000, 0.0000000000000000000 ) ) ;
#101 = MECHANICAL_DESIGN_GEOMETRIC_PRESENTATION_REPRESENTATION (  '', ( #139 ), #228 ) ;
#102 = CARTESIAN_POINT ( 'NONE',  ( 1.334865011070615584E-17, 0.0000000000000000000, 0.1089999999999999997 ) ) ;
#103 = ORIENTED_EDGE ( 'NONE', *, *, #210, .T. ) ;
#104 = PRESENTATION_STYLE_ASSIGNMENT (( #151 ) ) ;
#105 = CARTESIAN_POINT ( 'NONE',  ( 0.0000000000000000000, 0.0000000000000000000, 0.0000000000000000000 ) ) ;
#106 = EDGE_LOOP ( 'NONE', ( #109, #67, #119, #131 ) ) ;
#107 = DIRECTION ( 'NONE',  ( 1.000000000000000000, 0.0000000000000000000, -0.0000000000000000000 ) ) ;
#108 = VERTEX_POINT ( 'NONE', #10 ) ;
#109 = ORIENTED_EDGE ( 'NONE', *, *, #294, .T. ) ;
#110 = CARTESIAN_POINT ( 'NONE',  ( 0.0000000000000000000, 0.0000000000000000000, 1.500000000000000222 ) ) ;
#111 = ADVANCED_FACE ( 'NONE', ( #288 ), #173, .T. ) ;
#112 = CIRCLE ( 'NONE', #135, 0.04750000000000064587 ) ;
#113 = AXIS2_PLACEMENT_3D ( 'NONE', #102, #218, #30 ) ;
#114 = DIRECTION ( 'NONE',  ( -1.224646799147353700E-16, -0.0000000000000000000, -1.000000000000000000 ) ) ;
#115 = APPLICATION_PROTOCOL_DEFINITION ( 'draft international standard', 'automotive_design', 1998, #195 ) ;
#116 = CARTESIAN_POINT ( 'NONE',  ( -0.06250000000000002776, 0.0000000000000000000, 1.500000000000000222 ) ) ;
#117 = FACE_OUTER_BOUND ( 'NONE', #285, .T. ) ;
#118 =( GEOMETRIC_REPRESENTATION_CONTEXT ( 3 ) GLOBAL_UNCERTAINTY_ASSIGNED_CONTEXT ( ( #74 ) ) GLOBAL_UNIT_ASSIGNED_CONTEXT ( ( #226, #56, #63 ) ) REPRESENTATION_CONTEXT ( 'NONE', 'WORKASPACE' ) );
#119 = ORIENTED_EDGE ( 'NONE', *, *, #274, .F. ) ;
#120 = CARTESIAN_POINT ( 'NONE',  ( -0.06249999999999997918, 0.0000000000000000000, 0.3305965466147405274 ) ) ;
#121 = EDGE_CURVE ( 'NONE', #257, #41, #244, .T. ) ;
#122 = LINE ( 'NONE', #269, #92 ) ;
#123 = LINE ( 'NONE', #34, #40 ) ;
#124 = LENGTH_MEASURE_WITH_UNIT ( LENGTH_MEASURE( 0.02539999999999999897 ), #148 );
#125 = EDGE_LOOP ( 'NONE', ( #62, #156, #205, #222 ) ) ;
#126 = CARTESIAN_POINT ( 'NONE',  ( -0.02342654999999998350, 5.261483720963751017E-18, 0.1089999999999999997 ) ) ;
#127 = ADVANCED_BREP_SHAPE_REPRESENTATION ( 'Micro_GEM-046-3', ( #184, #231 ), #118 ) ;
#128 = CYLINDRICAL_SURFACE ( 'NONE', #141, 0.02342655000000000085 ) ;
#129 = FACE_OUTER_BOUND ( 'NONE', #106, .T. ) ;
#130 = EDGE_LOOP ( 'NONE', ( #6, #65, #298, #44 ) ) ;
#131 = ORIENTED_EDGE ( 'NONE', *, *, #64, .F. ) ;
#132 = SURFACE_SIDE_STYLE ('',( #292 ) ) ;
#133 = LINE ( 'NONE', #72, #168 ) ;
#134 = AXIS2_PLACEMENT_3D ( 'NONE', #76, #164, #172 ) ;
#135 = AXIS2_PLACEMENT_3D ( 'NONE', #87, #90, #3 ) ;
#136 = CARTESIAN_POINT ( 'NONE',  ( 3.513419753651716505E-34, 0.0000000000000000000, 2.868924947256543719E-18 ) ) ;
#137 = DIRECTION ( 'NONE',  ( -1.224646799147353700E-16, -0.0000000000000000000, -1.000000000000000000 ) ) ;
#138 = CARTESIAN_POINT ( 'NONE',  ( 1.334865011070615584E-17, 0.0000000000000000000, 0.1089999999999999997 ) ) ;
#139 = STYLED_ITEM ( 'NONE', ( #211 ), #184 ) ;
#140 = CARTESIAN_POINT ( 'NONE',  ( -0.04750000000000064587, 0.0000000000000000000, 1.500000000000000222 ) ) ;
#141 = AXIS2_PLACEMENT_3D ( 'NONE', #105, #258, #43 ) ;
#142 = VECTOR ( 'NONE', #271, 39.37007874015748143 ) ;
#143 = ADVANCED_FACE ( 'NONE', ( #11 ), #71, .T. ) ;
#144 = CARTESIAN_POINT ( 'NONE',  ( 0.02342655000000000778, 0.0000000000000000000, 0.1089999999999999997 ) ) ;
#145 = ORIENTED_EDGE ( 'NONE', *, *, #294, .F. ) ;
#146 =( NAMED_UNIT ( * ) SI_UNIT ( $, .STERADIAN. ) SOLID_ANGLE_UNIT ( ) );
#147 = CARTESIAN_POINT ( 'NONE',  ( 0.02342655000000000085, 2.868924947256542564E-18, 0.0000000000000000000 ) ) ;
#148 =( LENGTH_UNIT ( ) NAMED_UNIT ( * ) SI_UNIT ( $, .METRE. ) );
#149 = LINE ( 'NONE', #260, #70 ) ;
#150 = PRODUCT_DEFINITION ( 'UNKNOWN', '', #192, #242 ) ;
#151 = SURFACE_STYLE_USAGE ( .BOTH. , #33 ) ;
#152 = VERTEX_POINT ( 'NONE', #263 ) ;
#153 = ORIENTED_EDGE ( 'NONE', *, *, #249, .T. ) ;
#154 = EDGE_CURVE ( 'NONE', #257, #279, #133, .T. ) ;
#155 = CARTESIAN_POINT ( 'NONE',  ( 0.0000000000000000000, 0.0000000000000000000, 1.500000000000000222 ) ) ;
#156 = ORIENTED_EDGE ( 'NONE', *, *, #224, .T. ) ;
#157 = DIRECTION ( 'NONE',  ( -1.000000000000000000, 0.0000000000000000000, 1.224646799147353700E-16 ) ) ;
#158 = CARTESIAN_POINT ( 'NONE',  ( 0.0000000000000000000, 0.0000000000000000000, 0.0000000000000000000 ) ) ;
#159 = PLANE ( 'NONE',  #215 ) ;
#160 = AXIS2_PLACEMENT_3D ( 'NONE', #97, #36, #54 ) ;
#161 = CIRCLE ( 'NONE', #223, 0.02342654999999999391 ) ;
#162 = DIRECTION ( 'NONE',  ( 0.0000000000000000000, 0.0000000000000000000, 1.000000000000000000 ) ) ;
#163 = ADVANCED_FACE ( 'NONE', ( #265 ), #7, .T. ) ;
#164 = DIRECTION ( 'NONE',  ( 0.0000000000000000000, 0.0000000000000000000, -1.000000000000000000 ) ) ;
#165 = DIRECTION ( 'NONE',  ( 0.0000000000000000000, 0.0000000000000000000, 1.000000000000000000 ) ) ;
#166 = DIRECTION ( 'NONE',  ( 1.000000000000000000, 0.0000000000000000000, 0.0000000000000000000 ) ) ;
#167 = VERTEX_POINT ( 'NONE', #207 ) ;
#168 = VECTOR ( 'NONE', #137, 39.37007874015748143 ) ;
#169 = PRODUCT_CONTEXT ( 'NONE', #195, 'mechanical' ) ;
#170 = LINE ( 'NONE', #81, #53 ) ;
#171 = SURFACE_STYLE_FILL_AREA ( #275 ) ;
#172 = DIRECTION ( 'NONE',  ( 1.000000000000000000, 0.0000000000000000000, 0.0000000000000000000 ) ) ;
#173 = CONICAL_SURFACE ( 'NONE', #283, 0.04750000000000064587, 0.7853981633974466137 ) ;
#174 = EDGE_CURVE ( 'NONE', #279, #175, #268, .T. ) ;
#175 = VERTEX_POINT ( 'NONE', #186 ) ;
#176 = AXIS2_PLACEMENT_3D ( 'NONE', #138, #51, #29 ) ;
#177 = EDGE_CURVE ( 'NONE', #35, #204, #182, .T. ) ;
#178 = CONICAL_SURFACE ( 'NONE', #113, 0.02342654999999999391, 0.1745329251994338915 ) ;
#179 = CYLINDRICAL_SURFACE ( 'NONE', #98, 0.06250000000000002776 ) ;
#180 = ORIENTED_EDGE ( 'NONE', *, *, #42, .F. ) ;
#181 = ORIENTED_EDGE ( 'NONE', *, *, #224, .F. ) ;
#182 = CIRCLE ( 'NONE', #2, 0.06250000000000002776 ) ;
#183 = DIRECTION ( 'NONE',  ( -1.000000000000000000, 0.0000000000000000000, 0.0000000000000000000 ) ) ;
#184 = MANIFOLD_SOLID_BREP ( 'Cut-Revolve1', #78 ) ;
#185 = DIRECTION ( 'NONE',  ( -0.0000000000000000000, -0.0000000000000000000, -1.000000000000000000 ) ) ;
#186 = CARTESIAN_POINT ( 'NONE',  ( -0.02342655000000000085, 0.0000000000000000000, 5.737849894513087439E-18 ) ) ;
#187 = FILL_AREA_STYLE_COLOUR ( '', #286 ) ;
#188 = DIRECTION ( 'NONE',  ( -1.000000000000000000, 0.0000000000000000000, 0.0000000000000000000 ) ) ;
#189 = DIRECTION ( 'NONE',  ( -1.000000000000000000, 0.0000000000000000000, 1.224646799147353700E-16 ) ) ;
#190 = ORIENTED_EDGE ( 'NONE', *, *, #174, .F. ) ;
#191 = ORIENTED_EDGE ( 'NONE', *, *, #270, .T. ) ;
#192 = PRODUCT_DEFINITION_FORMATION_WITH_SPECIFIED_SOURCE ( 'ANY', '', #259, .NOT_KNOWN. ) ;
#193 = DIRECTION ( 'NONE',  ( -0.7071067811865462405, 0.0000000000000000000, -0.7071067811865486830 ) ) ;
#194 = CIRCLE ( 'NONE', #39, 0.04750000000000064587 ) ;
#195 = APPLICATION_CONTEXT ( 'automotive_design' ) ;
#196 = EDGE_LOOP ( 'NONE', ( #32, #103, #145, #8 ) ) ;
#197 = LENGTH_MEASURE_WITH_UNIT ( LENGTH_MEASURE( 0.02539999999999999897 ), #59 );
#198 = VERTEX_POINT ( 'NONE', #140 ) ;
#199 = EDGE_CURVE ( 'NONE', #175, #279, #206, .T. ) ;
#200 = AXIS2_PLACEMENT_3D ( 'NONE', #247, #14, #166 ) ;
#201 = CARTESIAN_POINT ( 'NONE',  ( 1.334865011070615584E-17, 0.0000000000000000000, 0.1089999999999999997 ) ) ;
#202 = PRODUCT_DEFINITION_SHAPE ( 'NONE', 'NONE',  #150 ) ;
#203 = AXIS2_PLACEMENT_3D ( 'NONE', #48, #245, #69 ) ;
#204 = VERTEX_POINT ( 'NONE', #120 ) ;
#205 = ORIENTED_EDGE ( 'NONE', *, *, #64, .T. ) ;
#206 = CIRCLE ( 'NONE', #77, 0.02342655000000000085 ) ;
#207 = CARTESIAN_POINT ( 'NONE',  ( 0.04750000000000064587, 6.735557395310483192E-18, 1.500000000000000222 ) ) ;
#208 = COLOUR_RGB ( '',0.7921568627450980005, 0.8196078431372548767, 0.9333333333333333481 ) ;
#209 = FILL_AREA_STYLE ('',( #187 ) ) ;
#210 = EDGE_CURVE ( 'NONE', #167, #108, #170, .T. ) ;
#211 = PRESENTATION_STYLE_ASSIGNMENT (( #243 ) ) ;
#212 = DIRECTION ( 'NONE',  ( -1.224646799147353700E-16, -0.0000000000000000000, -1.000000000000000000 ) ) ;
#213 = CIRCLE ( 'NONE', #83, 0.06250000000000002776 ) ;
#214 = CARTESIAN_POINT ( 'NONE',  ( 0.0000000000000000000, 0.0000000000000000000, 0.0000000000000000000 ) ) ;
#215 = AXIS2_PLACEMENT_3D ( 'NONE', #214, #162, #94 ) ;
#216 = DIRECTION ( 'NONE',  ( 0.7071067811865462405, 8.659560562354916834E-17, -0.7071067811865486830 ) ) ;
#217 = ORIENTED_EDGE ( 'NONE', *, *, #154, .F. ) ;
#218 = DIRECTION ( 'NONE',  ( 1.224646799147353700E-16, 0.0000000000000000000, 1.000000000000000000 ) ) ;
#219 = DIMENSIONAL_EXPONENTS ( 1.000000000000000000, 0.0000000000000000000, 0.0000000000000000000, 0.0000000000000000000, 0.0000000000000000000, 0.0000000000000000000, 0.0000000000000000000 ) ;
#220 = CARTESIAN_POINT ( 'NONE',  ( 0.0000000000000000000, 0.0000000000000000000, 0.0000000000000000000 ) ) ;
#221 = DIRECTION ( 'NONE',  ( -1.224646799147353700E-16, -0.0000000000000000000, -1.000000000000000000 ) ) ;
#222 = ORIENTED_EDGE ( 'NONE', *, *, #177, .F. ) ;
#223 = AXIS2_PLACEMENT_3D ( 'NONE', #201, #12, #50 ) ;
#224 = EDGE_CURVE ( 'NONE', #108, #152, #229, .T. ) ;
#225 = CARTESIAN_POINT ( 'NONE',  ( 0.02342655000000000778, 0.0000000000000000000, 0.1089999999999999997 ) ) ;
#226 =( CONVERSION_BASED_UNIT ( 'INCH', #124 ) LENGTH_UNIT ( ) NAMED_UNIT ( #20 ) );
#227 = ORIENTED_EDGE ( 'NONE', *, *, #199, .T. ) ;
#228 =( GEOMETRIC_REPRESENTATION_CONTEXT ( 3 ) GLOBAL_UNCERTAINTY_ASSIGNED_CONTEXT ( ( #88 ) ) GLOBAL_UNIT_ASSIGNED_CONTEXT ( ( #93, #289, #79 ) ) REPRESENTATION_CONTEXT ( 'NONE', 'WORKASPACE' ) );
#229 = CIRCLE ( 'NONE', #200, 0.06250000000000002776 ) ;
#230 = EDGE_LOOP ( 'NONE', ( #255, #250, #280, #181 ) ) ;
#231 = AXIS2_PLACEMENT_3D ( 'NONE', #220, #165, #16 ) ;
#232 = ADVANCED_FACE ( 'NONE', ( #254 ), #178, .T. ) ;
#233 = DIRECTION ( 'NONE',  ( -0.1736481776669311916, 2.126576849575783316E-17, 0.9848077530122080203 ) ) ;
#234 = CARTESIAN_POINT ( 'NONE',  ( 0.0000000000000000000, 0.0000000000000000000, 1.500000000000000222 ) ) ;
#235 = AXIS2_PLACEMENT_3D ( 'NONE', #136, #246, #262 ) ;
#236 = EDGE_LOOP ( 'NONE', ( #284, #26, #248, #237 ) ) ;
#237 = ORIENTED_EDGE ( 'NONE', *, *, #270, .F. ) ;
#238 = UNCERTAINTY_MEASURE_WITH_UNIT (LENGTH_MEASURE( 1.000000000000000082E-05 ), #296, 'distance_accuracy_value', 'NONE');
#239 =( LENGTH_UNIT ( ) NAMED_UNIT ( * ) SI_UNIT ( $, .METRE. ) );
#240 = CARTESIAN_POINT ( 'NONE',  ( 3.513419753651716505E-34, 0.0000000000000000000, 2.868924947256543719E-18 ) ) ;
#241 = EDGE_CURVE ( 'NONE', #198, #167, #194, .T. ) ;
#242 = PRODUCT_DEFINITION_CONTEXT ( 'detailed design', #5, 'design' ) ;
#243 = SURFACE_STYLE_USAGE ( .BOTH. , #132 ) ;
#244 = CIRCLE ( 'NONE', #203, 0.02342654999999999391 ) ;
#245 = DIRECTION ( 'NONE',  ( -1.224646799147353700E-16, -0.0000000000000000000, -1.000000000000000000 ) ) ;
#246 = DIRECTION ( 'NONE',  ( -1.224646799147353700E-16, -0.0000000000000000000, -1.000000000000000000 ) ) ;
#247 = CARTESIAN_POINT ( 'NONE',  ( 0.0000000000000000000, 0.0000000000000000000, 1.485000000000000764 ) ) ;
#248 = ORIENTED_EDGE ( 'NONE', *, *, #199, .F. ) ;
#249 = EDGE_CURVE ( 'NONE', #257, #35, #82, .T. ) ;
#250 = ORIENTED_EDGE ( 'NONE', *, *, #241, .F. ) ;
#251 = CARTESIAN_POINT ( 'NONE',  ( 0.0000000000000000000, 0.0000000000000000000, 1.500000000000000222 ) ) ;
#252 = CYLINDRICAL_SURFACE ( 'NONE', #160, 0.06250000000000002776 ) ;
#253 = CIRCLE ( 'NONE', #134, 0.06250000000000002776 ) ;
#254 = FACE_OUTER_BOUND ( 'NONE', #84, .T. ) ;
#255 = ORIENTED_EDGE ( 'NONE', *, *, #210, .F. ) ;
#256 = DIRECTION ( 'NONE',  ( -0.0000000000000000000, -0.0000000000000000000, -1.000000000000000000 ) ) ;
#257 = VERTEX_POINT ( 'NONE', #144 ) ;
#258 = DIRECTION ( 'NONE',  ( -1.224646799147353700E-16, -0.0000000000000000000, -1.000000000000000000 ) ) ;
#259 = PRODUCT ( 'Micro_GEM-046-3', 'Micro_GEM-046-3', '', ( #169 ) ) ;
#260 = CARTESIAN_POINT ( 'NONE',  ( 0.06250000000000002776, 7.654042494670959086E-18, 1.500000000000000222 ) ) ;
#261 = ORIENTED_EDGE ( 'NONE', *, *, #13, .T. ) ;
#262 = DIRECTION ( 'NONE',  ( -1.000000000000000000, 0.0000000000000000000, 1.224646799147353700E-16 ) ) ;
#263 = CARTESIAN_POINT ( 'NONE',  ( -0.06250000000000002776, 0.0000000000000000000, 1.485000000000000764 ) ) ;
#264 = EDGE_CURVE ( 'NONE', #198, #152, #123, .T. ) ;
#265 = FACE_OUTER_BOUND ( 'NONE', #130, .T. ) ;
#266 = FACE_OUTER_BOUND ( 'NONE', #196, .T. ) ;
#267 = DIRECTION ( 'NONE',  ( -1.000000000000000000, 0.0000000000000000000, 0.0000000000000000000 ) ) ;
#268 = CIRCLE ( 'NONE', #235, 0.02342655000000000085 ) ;
#269 = CARTESIAN_POINT ( 'NONE',  ( -0.02342655000000000085, 0.0000000000000000000, 2.868924947256543719E-18 ) ) ;
#270 = EDGE_CURVE ( 'NONE', #41, #175, #122, .T. ) ;
#271 = DIRECTION ( 'NONE',  ( 0.1736481776669313859, 0.0000000000000000000, 0.9848077530122077983 ) ) ;
#272 = EDGE_LOOP ( 'NONE', ( #287, #261 ) ) ;
#273 = AXIS2_PLACEMENT_3D ( 'NONE', #234, #23, #107 ) ;
#274 = EDGE_CURVE ( 'NONE', #204, #35, #213, .T. ) ;
#275 = FILL_AREA_STYLE ('',( #278 ) ) ;
#276 = DIRECTION ( 'NONE',  ( -1.224646799147353700E-16, -0.0000000000000000000, -1.000000000000000000 ) ) ;
#277 = APPLICATION_PROTOCOL_DEFINITION ( 'draft international standard', 'automotive_design', 1998, #5 ) ;
#278 = FILL_AREA_STYLE_COLOUR ( '', #208 ) ;
#279 = VERTEX_POINT ( 'NONE', #147 ) ;
#280 = ORIENTED_EDGE ( 'NONE', *, *, #264, .T. ) ;
#281 = STYLED_ITEM ( 'NONE', ( #104 ), #127 ) ;
#282 = FACE_OUTER_BOUND ( 'NONE', #272, .T. ) ;
#283 = AXIS2_PLACEMENT_3D ( 'NONE', #110, #96, #188 ) ;
#284 = ORIENTED_EDGE ( 'NONE', *, *, #60, .T. ) ;
#285 = EDGE_LOOP ( 'NONE', ( #227, #68 ) ) ;
#286 = COLOUR_RGB ( '',0.7921568627450980005, 0.8196078431372548767, 0.9333333333333333481 ) ;
#287 = ORIENTED_EDGE ( 'NONE', *, *, #241, .T. ) ;
#288 = FACE_OUTER_BOUND ( 'NONE', #230, .T. ) ;
#289 =( NAMED_UNIT ( * ) PLANE_ANGLE_UNIT ( ) SI_UNIT ( $, .RADIAN. ) );
#290 = ADVANCED_FACE ( 'NONE', ( #18 ), #252, .T. ) ;
#291 = CARTESIAN_POINT ( 'NONE',  ( 4.048640026209108604E-17, 0.0000000000000000000, 0.3305965466147405274 ) ) ;
#292 = SURFACE_STYLE_FILL_AREA ( #209 ) ;
#293 = DIRECTION ( 'NONE',  ( -1.224646799147353700E-16, -0.0000000000000000000, -1.000000000000000000 ) ) ;
#294 = EDGE_CURVE ( 'NONE', #152, #108, #253, .T. ) ;
#295 = AXIS2_PLACEMENT_3D ( 'NONE', #52, #27, #267 ) ;
#296 =( CONVERSION_BASED_UNIT ( 'INCH', #197 ) LENGTH_UNIT ( ) NAMED_UNIT ( #219 ) );
#297 = MECHANICAL_DESIGN_GEOMETRIC_PRESENTATION_REPRESENTATION (  '', ( #281 ), #55 ) ;
#298 = ORIENTED_EDGE ( 'NONE', *, *, #274, .T. ) ;
#299 = PRODUCT_RELATED_PRODUCT_CATEGORY ( 'part', '', ( #259 ) ) ;
ENDSEC;
END-ISO-10303-21;
