ISO-10303-21;
HEADER;
FILE_DESCRIPTION (( 'STEP AP214' ),
    '1' );
FILE_NAME ('Micro_DMM-060-290X.STEP',
    '2021-09-02T16:23:09',
    ( '' ),
    ( '' ),
    'SwSTEP 2.0',
    'SolidWorks 2020',
    '' );
FILE_SCHEMA (( 'AUTOMOTIVE_DESIGN' ));
ENDSEC;

DATA;
#1 = DIRECTION ( 'NONE',  ( -1.000000000000000000, 0.0000000000000000000, 0.0000000000000000000 ) ) ;
#2 = CARTESIAN_POINT ( 'NONE',  ( 0.1181100000000000066, 1.446430334472939084E-17, 2.244094000000000033 ) ) ;
#3 = AXIS2_PLACEMENT_3D ( 'NONE', #238, #16, #189 ) ;
#4 = DIRECTION ( 'NONE',  ( -0.0000000000000000000, -0.0000000000000000000, -1.000000000000000000 ) ) ;
#5 = ORIENTED_EDGE ( 'NONE', *, *, #111, .T. ) ;
#6 =( NAMED_UNIT ( * ) PLANE_ANGLE_UNIT ( ) SI_UNIT ( $, .RADIAN. ) );
#7 = DIRECTION ( 'NONE',  ( 0.0000000000000000000, 0.0000000000000000000, 1.000000000000000000 ) ) ;
#8 = DIRECTION ( 'NONE',  ( 1.000000000000000000, 0.0000000000000000000, -0.0000000000000000000 ) ) ;
#9 = ORIENTED_EDGE ( 'NONE', *, *, #207, .F. ) ;
#10 =( LENGTH_UNIT ( ) NAMED_UNIT ( * ) SI_UNIT ( $, .METRE. ) );
#11 = VECTOR ( 'NONE', #178, 39.37007874015748143 ) ;
#12 = AXIS2_PLACEMENT_3D ( 'NONE', #17, #98, #112 ) ;
#13 = DIRECTION ( 'NONE',  ( -0.0000000000000000000, -0.0000000000000000000, -1.000000000000000000 ) ) ;
#14 = COLOUR_RGB ( '',0.7921568627450980005, 0.8196078431372548767, 0.9333333333333333481 ) ;
#15 = LENGTH_MEASURE_WITH_UNIT ( LENGTH_MEASURE( 0.02539999999999999897 ), #44 );
#16 = DIRECTION ( 'NONE',  ( 0.0000000000000000000, 0.0000000000000000000, -1.000000000000000000 ) ) ;
#17 = CARTESIAN_POINT ( 'NONE',  ( 0.0000000000000000000, 0.0000000000000000000, 1.707404996040164512E-17 ) ) ;
#18 = CIRCLE ( 'NONE', #172, 0.1180600000000000815 ) ;
#19 = DIRECTION ( 'NONE',  ( -0.0000000000000000000, -0.0000000000000000000, -1.000000000000000000 ) ) ;
#20 = CARTESIAN_POINT ( 'NONE',  ( -0.1180600000000000538, 0.0000000000000000000, 0.0000000000000000000 ) ) ;
#21 = EDGE_LOOP ( 'NONE', ( #179, #243 ) ) ;
#22 = DIRECTION ( 'NONE',  ( 0.7071067811865358044, 8.659560562354788645E-17, -0.7071067811865590080 ) ) ;
#23 = ADVANCED_FACE ( 'NONE', ( #286 ), #293, .T. ) ;
#24 =( GEOMETRIC_REPRESENTATION_CONTEXT ( 3 ) GLOBAL_UNCERTAINTY_ASSIGNED_CONTEXT ( ( #282 ) ) GLOBAL_UNIT_ASSIGNED_CONTEXT ( ( #163, #212, #39 ) ) REPRESENTATION_CONTEXT ( 'NONE', 'WORKASPACE' ) );
#25 = DIRECTION ( 'NONE',  ( -0.0000000000000000000, -0.0000000000000000000, -1.000000000000000000 ) ) ;
#26 = DIRECTION ( 'NONE',  ( -0.0000000000000000000, -0.0000000000000000000, -1.000000000000000000 ) ) ;
#27 = CARTESIAN_POINT ( 'NONE',  ( 0.1180600000000000538, 0.0000000000000000000, 0.1105599999999996030 ) ) ;
#28 = SURFACE_STYLE_FILL_AREA ( #313 ) ;
#29 = EDGE_LOOP ( 'NONE', ( #106, #140, #280, #144 ) ) ;
#30 = CARTESIAN_POINT ( 'NONE',  ( -0.1031100000000002570, 0.0000000000000000000, 2.244094000000000033 ) ) ;
#31 = FACE_OUTER_BOUND ( 'NONE', #21, .T. ) ;
#32 = SURFACE_SIDE_STYLE ('',( #100 ) ) ;
#33 = ADVANCED_FACE ( 'NONE', ( #60 ), #236, .T. ) ;
#34 = ORIENTED_EDGE ( 'NONE', *, *, #35, .F. ) ;
#35 = EDGE_CURVE ( 'NONE', #246, #253, #154, .T. ) ;
#36 = CARTESIAN_POINT ( 'NONE',  ( 0.0000000000000000000, 0.0000000000000000000, 1.707404996040164512E-17 ) ) ;
#37 = PRESENTATION_LAYER_ASSIGNMENT (  '', '', ( #287 ) ) ;
#38 = AXIS2_PLACEMENT_3D ( 'NONE', #197, #79, #171 ) ;
#39 =( NAMED_UNIT ( * ) SI_UNIT ( $, .STERADIAN. ) SOLID_ANGLE_UNIT ( ) );
#40 = PLANE ( 'NONE',  #137 ) ;
#41 = CARTESIAN_POINT ( 'NONE',  ( 0.1031100000000002570, 1.262733314600838667E-17, 2.244094000000000033 ) ) ;
#42 = EDGE_CURVE ( 'NONE', #126, #304, #89, .T. ) ;
#43 = CARTESIAN_POINT ( 'NONE',  ( -0.1180600000000000538, 1.445818011073365594E-17, 0.1105599999999996030 ) ) ;
#44 =( LENGTH_UNIT ( ) NAMED_UNIT ( * ) SI_UNIT ( $, .METRE. ) );
#45 = DIRECTION ( 'NONE',  ( -0.0000000000000000000, -0.0000000000000000000, -1.000000000000000000 ) ) ;
#46 = ADVANCED_FACE ( 'NONE', ( #31 ), #129, .F. ) ;
#47 = FACE_OUTER_BOUND ( 'NONE', #301, .T. ) ;
#48 = VERTEX_POINT ( 'NONE', #80 ) ;
#49 = AXIS2_PLACEMENT_3D ( 'NONE', #311, #13, #63 ) ;
#50 = VECTOR ( 'NONE', #322, 39.37007874015748143 ) ;
#51 = DIRECTION ( 'NONE',  ( -1.000000000000000000, 0.0000000000000000000, 0.0000000000000000000 ) ) ;
#52 = DIRECTION ( 'NONE',  ( -0.0000000000000000000, -0.0000000000000000000, -1.000000000000000000 ) ) ;
#53 = ORIENTED_EDGE ( 'NONE', *, *, #275, .F. ) ;
#54 = ADVANCED_FACE ( 'NONE', ( #173 ), #168, .T. ) ;
#55 = MANIFOLD_SOLID_BREP ( 'Cut-Revolve4', #159 ) ;
#56 = LINE ( 'NONE', #30, #105 ) ;
#57 = DIRECTION ( 'NONE',  ( -0.0000000000000000000, -0.0000000000000000000, -1.000000000000000000 ) ) ;
#58 = CONICAL_SURFACE ( 'NONE', #3, 0.1031100000000002570, 0.7853981633974318477 ) ;
#59 = ADVANCED_FACE ( 'NONE', ( #136 ), #40, .T. ) ;
#60 = FACE_OUTER_BOUND ( 'NONE', #83, .T. ) ;
#61 = VERTEX_POINT ( 'NONE', #261 ) ;
#62 = EDGE_LOOP ( 'NONE', ( #157, #256, #220, #72 ) ) ;
#63 = DIRECTION ( 'NONE',  ( -1.000000000000000000, 0.0000000000000000000, 0.0000000000000000000 ) ) ;
#64 = DIMENSIONAL_EXPONENTS ( 1.000000000000000000, 0.0000000000000000000, 0.0000000000000000000, 0.0000000000000000000, 0.0000000000000000000, 0.0000000000000000000, 0.0000000000000000000 ) ;
#65 = APPLICATION_PROTOCOL_DEFINITION ( 'draft international standard', 'automotive_design', 1998, #138 ) ;
#66 = LENGTH_MEASURE_WITH_UNIT ( LENGTH_MEASURE( 0.02539999999999999897 ), #10 );
#67 =( NAMED_UNIT ( * ) SI_UNIT ( $, .STERADIAN. ) SOLID_ANGLE_UNIT ( ) );
#68 = CIRCLE ( 'NONE', #281, 0.007499999999999999722 ) ;
#69 = DIRECTION ( 'NONE',  ( -1.000000000000000000, 0.0000000000000000000, 0.0000000000000000000 ) ) ;
#70 = ADVANCED_FACE ( 'NONE', ( #264 ), #58, .T. ) ;
#71 = FILL_AREA_STYLE_COLOUR ( '', #14 ) ;
#72 = ORIENTED_EDGE ( 'NONE', *, *, #195, .T. ) ;
#73 = AXIS2_PLACEMENT_3D ( 'NONE', #84, #52, #1 ) ;
#74 = ADVANCED_FACE ( 'NONE', ( #295 ), #162, .T. ) ;
#75 = CARTESIAN_POINT ( 'NONE',  ( 0.0000000000000000000, 0.0000000000000000000, 2.244094000000000033 ) ) ;
#76 = ORIENTED_EDGE ( 'NONE', *, *, #325, .F. ) ;
#77 = PRODUCT ( 'Micro_DMM-060-290X', 'Micro_DMM-060-290X', '', ( #211 ) ) ;
#78 = FACE_OUTER_BOUND ( 'NONE', #218, .T. ) ;
#79 = DIRECTION ( 'NONE',  ( -0.0000000000000000000, -0.0000000000000000000, -1.000000000000000000 ) ) ;
#80 = CARTESIAN_POINT ( 'NONE',  ( -0.1031100000000002570, 0.0000000000000000000, 2.244094000000000033 ) ) ;
#81 = CONICAL_SURFACE ( 'NONE', #254, 0.1031100000000002570, 0.7853981633974318477 ) ;
#82 = DIRECTION ( 'NONE',  ( -1.000000000000000000, 0.0000000000000000000, 0.0000000000000000000 ) ) ;
#83 = EDGE_LOOP ( 'NONE', ( #34, #116, #298, #283 ) ) ;
#84 = CARTESIAN_POINT ( 'NONE',  ( 0.0000000000000000000, 0.0000000000000000000, 2.244094000000000033 ) ) ;
#85 = ORIENTED_EDGE ( 'NONE', *, *, #165, .F. ) ;
#86 = ORIENTED_EDGE ( 'NONE', *, *, #325, .T. ) ;
#87 = PRODUCT_RELATED_PRODUCT_CATEGORY ( 'part', '', ( #77 ) ) ;
#88 = AXIS2_PLACEMENT_3D ( 'NONE', #75, #265, #241 ) ;
#89 = LINE ( 'NONE', #255, #161 ) ;
#90 = EDGE_LOOP ( 'NONE', ( #53, #208, #194, #85 ) ) ;
#91 = ORIENTED_EDGE ( 'NONE', *, *, #242, .T. ) ;
#92 =( GEOMETRIC_REPRESENTATION_CONTEXT ( 3 ) GLOBAL_UNCERTAINTY_ASSIGNED_CONTEXT ( ( #108 ) ) GLOBAL_UNIT_ASSIGNED_CONTEXT ( ( #190, #323, #94 ) ) REPRESENTATION_CONTEXT ( 'NONE', 'WORKASPACE' ) );
#93 = CARTESIAN_POINT ( 'NONE',  ( 0.0000000000000000000, 0.0000000000000000000, 2.244094000000000033 ) ) ;
#94 =( NAMED_UNIT ( * ) SI_UNIT ( $, .STERADIAN. ) SOLID_ANGLE_UNIT ( ) );
#95 = CARTESIAN_POINT ( 'NONE',  ( 0.0000000000000000000, 0.0000000000000000000, 0.6299209999999999532 ) ) ;
#96 =( GEOMETRIC_REPRESENTATION_CONTEXT ( 3 ) GLOBAL_UNCERTAINTY_ASSIGNED_CONTEXT ( ( #314 ) ) GLOBAL_UNIT_ASSIGNED_CONTEXT ( ( #309, #6, #67 ) ) REPRESENTATION_CONTEXT ( 'NONE', 'WORKASPACE' ) );
#97 = EDGE_CURVE ( 'NONE', #205, #204, #328, .T. ) ;
#98 = DIRECTION ( 'NONE',  ( -0.0000000000000000000, -0.0000000000000000000, -1.000000000000000000 ) ) ;
#99 = CARTESIAN_POINT ( 'NONE',  ( -0.007499999999999999722, 7.688332605047084406E-18, 1.707404996040164512E-17 ) ) ;
#100 = SURFACE_STYLE_FILL_AREA ( #225 ) ;
#101 = CYLINDRICAL_SURFACE ( 'NONE', #73, 0.1181100000000000066 ) ;
#102 = ORIENTED_EDGE ( 'NONE', *, *, #111, .F. ) ;
#103 = SURFACE_STYLE_USAGE ( .BOTH. , #32 ) ;
#104 = APPLICATION_CONTEXT ( 'automotive_design' ) ;
#105 = VECTOR ( 'NONE', #143, 39.37007874015748854 ) ;
#106 = ORIENTED_EDGE ( 'NONE', *, *, #289, .F. ) ;
#107 = ORIENTED_EDGE ( 'NONE', *, *, #260, .T. ) ;
#108 = UNCERTAINTY_MEASURE_WITH_UNIT (LENGTH_MEASURE( 1.000000000000000082E-05 ), #190, 'distance_accuracy_value', 'NONE');
#109 = ADVANCED_FACE ( 'NONE', ( #151 ), #81, .T. ) ;
#110 = COLOUR_RGB ( '',0.7921568627450980005, 0.8196078431372548767, 0.9333333333333333481 ) ;
#111 = EDGE_CURVE ( 'NONE', #304, #253, #228, .T. ) ;
#112 = DIRECTION ( 'NONE',  ( -1.000000000000000000, 0.0000000000000000000, 0.0000000000000000000 ) ) ;
#113 = VECTOR ( 'NONE', #226, 39.37007874015748143 ) ;
#114 = DIRECTION ( 'NONE',  ( -1.000000000000000000, 0.0000000000000000000, 0.0000000000000000000 ) ) ;
#115 = DIRECTION ( 'NONE',  ( -0.0000000000000000000, -0.0000000000000000000, -1.000000000000000000 ) ) ;
#116 = ORIENTED_EDGE ( 'NONE', *, *, #165, .T. ) ;
#117 = CARTESIAN_POINT ( 'NONE',  ( 0.0000000000000000000, 0.0000000000000000000, 0.0000000000000000000 ) ) ;
#118 = CIRCLE ( 'NONE', #294, 0.1180600000000000399 ) ;
#119 = CARTESIAN_POINT ( 'NONE',  ( 0.007499999999999999722, 0.0000000000000000000, 1.707404996040164512E-17 ) ) ;
#120 = ADVANCED_FACE ( 'NONE', ( #78 ), #101, .T. ) ;
#121 = DIRECTION ( 'NONE',  ( -0.0000000000000000000, 0.0000000000000000000, -1.000000000000000000 ) ) ;
#122 = ORIENTED_EDGE ( 'NONE', *, *, #35, .T. ) ;
#123 = CARTESIAN_POINT ( 'NONE',  ( 0.0000000000000000000, 0.0000000000000000000, 1.707404996040164512E-17 ) ) ;
#124 = DIRECTION ( 'NONE',  ( 0.0000000000000000000, 0.0000000000000000000, 1.000000000000000000 ) ) ;
#125 = SURFACE_STYLE_USAGE ( .BOTH. , #177 ) ;
#126 = VERTEX_POINT ( 'NONE', #272 ) ;
#127 = CARTESIAN_POINT ( 'NONE',  ( 0.0000000000000000000, 0.0000000000000000000, 2.244094000000000033 ) ) ;
#128 = EDGE_CURVE ( 'NONE', #167, #200, #274, .T. ) ;
#129 = PLANE ( 'NONE',  #305 ) ;
#130 = EDGE_LOOP ( 'NONE', ( #209, #198 ) ) ;
#131 = CIRCLE ( 'NONE', #321, 0.1181100000000000066 ) ;
#132 = DIRECTION ( 'NONE',  ( 1.000000000000000000, 0.0000000000000000000, 0.0000000000000000000 ) ) ;
#133 = DIMENSIONAL_EXPONENTS ( 1.000000000000000000, 0.0000000000000000000, 0.0000000000000000000, 0.0000000000000000000, 0.0000000000000000000, 0.0000000000000000000, 0.0000000000000000000 ) ;
#134 = AXIS2_PLACEMENT_3D ( 'NONE', #276, #124, #240 ) ;
#135 = LINE ( 'NONE', #41, #188 ) ;
#136 = FACE_OUTER_BOUND ( 'NONE', #130, .T. ) ;
#137 = AXIS2_PLACEMENT_3D ( 'NONE', #93, #291, #320 ) ;
#138 = APPLICATION_CONTEXT ( 'automotive_design' ) ;
#139 = DIRECTION ( 'NONE',  ( 0.0000000000000000000, 0.0000000000000000000, -1.000000000000000000 ) ) ;
#140 = ORIENTED_EDGE ( 'NONE', *, *, #239, .T. ) ;
#141 = CARTESIAN_POINT ( 'NONE',  ( 0.0000000000000000000, 0.0000000000000000000, 0.1105599999999995892 ) ) ;
#142 = EDGE_CURVE ( 'NONE', #205, #155, #68, .T. ) ;
#143 = DIRECTION ( 'NONE',  ( -0.7071067811865358044, 0.0000000000000000000, -0.7071067811865590080 ) ) ;
#144 = ORIENTED_EDGE ( 'NONE', *, *, #97, .F. ) ;
#145 = AXIS2_PLACEMENT_3D ( 'NONE', #36, #233, #132 ) ;
#146 = CIRCLE ( 'NONE', #12, 0.007499999999999999722 ) ;
#147 = DIRECTION ( 'NONE',  ( 0.0000000000000000000, 0.0000000000000000000, -1.000000000000000000 ) ) ;
#148 = ORIENTED_EDGE ( 'NONE', *, *, #275, .T. ) ;
#149 = DIRECTION ( 'NONE',  ( -1.000000000000000000, 0.0000000000000000000, 0.0000000000000000000 ) ) ;
#150 = ORIENTED_EDGE ( 'NONE', *, *, #308, .T. ) ;
#151 = FACE_OUTER_BOUND ( 'NONE', #234, .T. ) ;
#152 = CARTESIAN_POINT ( 'NONE',  ( 0.0000000000000000000, 0.0000000000000000000, 0.0000000000000000000 ) ) ;
#153 = AXIS2_PLACEMENT_3D ( 'NONE', #245, #25, #51 ) ;
#154 = LINE ( 'NONE', #2, #11 ) ;
#155 = VERTEX_POINT ( 'NONE', #99 ) ;
#156 = AXIS2_PLACEMENT_3D ( 'NONE', #160, #244, #296 ) ;
#157 = ORIENTED_EDGE ( 'NONE', *, *, #239, .F. ) ;
#158 = DIRECTION ( 'NONE',  ( 0.0000000000000000000, 0.0000000000000000000, 1.000000000000000000 ) ) ;
#159 = CLOSED_SHELL ( 'NONE', ( #250, #54, #109, #120, #33, #59, #70, #175, #23, #74, #46 ) ) ;
#160 = CARTESIAN_POINT ( 'NONE',  ( 0.0000000000000000000, 0.0000000000000000000, 0.6299209999999998422 ) ) ;
#161 = VECTOR ( 'NONE', #57, 39.37007874015748143 ) ;
#162 = CYLINDRICAL_SURFACE ( 'NONE', #38, 0.1180600000000000538 ) ;
#163 =( CONVERSION_BASED_UNIT ( 'INCH', #66 ) LENGTH_UNIT ( ) NAMED_UNIT ( #259 ) );
#164 = CARTESIAN_POINT ( 'NONE',  ( 0.1181100000000000066, 1.446430334472939084E-17, 2.229093999999999465 ) ) ;
#165 = EDGE_CURVE ( 'NONE', #246, #126, #201, .T. ) ;
#166 = DIRECTION ( 'NONE',  ( -0.0000000000000000000, -0.0000000000000000000, -1.000000000000000000 ) ) ;
#167 = VERTEX_POINT ( 'NONE', #222 ) ;
#168 = CONICAL_SURFACE ( 'NONE', #186, 0.007499999999999999722, 0.7853981633974503884 ) ;
#169 = ORIENTED_EDGE ( 'NONE', *, *, #42, .F. ) ;
#170 = FACE_BOUND ( 'NONE', #230, .T. ) ;
#171 = DIRECTION ( 'NONE',  ( -1.000000000000000000, 0.0000000000000000000, 0.0000000000000000000 ) ) ;
#172 = AXIS2_PLACEMENT_3D ( 'NONE', #95, #115, #69 ) ;
#173 = FACE_OUTER_BOUND ( 'NONE', #29, .T. ) ;
#174 = CARTESIAN_POINT ( 'NONE',  ( 0.007499999999999999722, 0.0000000000000000000, 1.707404996040164512E-17 ) ) ;
#175 = ADVANCED_FACE ( 'NONE', ( #170, #47 ), #199, .T. ) ;
#176 = DIRECTION ( 'NONE',  ( 0.0000000000000000000, 0.0000000000000000000, -1.000000000000000000 ) ) ;
#177 = SURFACE_SIDE_STYLE ('',( #28 ) ) ;
#178 = DIRECTION ( 'NONE',  ( -0.0000000000000000000, -0.0000000000000000000, -1.000000000000000000 ) ) ;
#179 = ORIENTED_EDGE ( 'NONE', *, *, #142, .T. ) ;
#180 = ADVANCED_BREP_SHAPE_REPRESENTATION ( 'Micro_DMM-060-290X', ( #55, #302 ), #92 ) ;
#181 = STYLED_ITEM ( 'NONE', ( #182 ), #180 ) ;
#182 = PRESENTATION_STYLE_ASSIGNMENT (( #125 ) ) ;
#183 = ORIENTED_EDGE ( 'NONE', *, *, #191, .F. ) ;
#184 = PRODUCT_DEFINITION ( 'UNKNOWN', '', #192, #237 ) ;
#185 = EDGE_LOOP ( 'NONE', ( #216, #203, #150, #310 ) ) ;
#186 = AXIS2_PLACEMENT_3D ( 'NONE', #123, #158, #187 ) ;
#187 = DIRECTION ( 'NONE',  ( 1.000000000000000000, 0.0000000000000000000, 0.0000000000000000000 ) ) ;
#188 = VECTOR ( 'NONE', #22, 39.37007874015748854 ) ;
#189 = DIRECTION ( 'NONE',  ( -1.000000000000000000, 0.0000000000000000000, 0.0000000000000000000 ) ) ;
#190 =( CONVERSION_BASED_UNIT ( 'INCH', #15 ) LENGTH_UNIT ( ) NAMED_UNIT ( #133 ) );
#191 = EDGE_CURVE ( 'NONE', #48, #126, #56, .T. ) ;
#192 = PRODUCT_DEFINITION_FORMATION_WITH_SPECIFIED_SOURCE ( 'ANY', '', #77, .NOT_KNOWN. ) ;
#193 = PRODUCT_DEFINITION_SHAPE ( 'NONE', 'NONE',  #184 ) ;
#194 = ORIENTED_EDGE ( 'NONE', *, *, #191, .T. ) ;
#195 = EDGE_CURVE ( 'NONE', #204, #315, #214, .T. ) ;
#196 = LINE ( 'NONE', #270, #317 ) ;
#197 = CARTESIAN_POINT ( 'NONE',  ( 0.0000000000000000000, 0.0000000000000000000, 0.0000000000000000000 ) ) ;
#198 = ORIENTED_EDGE ( 'NONE', *, *, #207, .T. ) ;
#199 = PLANE ( 'NONE',  #206 ) ;
#200 = VERTEX_POINT ( 'NONE', #251 ) ;
#201 = CIRCLE ( 'NONE', #297, 0.1181100000000000066 ) ;
#202 = CARTESIAN_POINT ( 'NONE',  ( 0.0000000000000000000, 0.0000000000000000000, 0.6299209999999999532 ) ) ;
#203 = ORIENTED_EDGE ( 'NONE', *, *, #316, .T. ) ;
#204 = VERTEX_POINT ( 'NONE', #27 ) ;
#205 = VERTEX_POINT ( 'NONE', #174 ) ;
#206 = AXIS2_PLACEMENT_3D ( 'NONE', #277, #121, #300 ) ;
#207 = EDGE_CURVE ( 'NONE', #61, #48, #268, .T. ) ;
#208 = ORIENTED_EDGE ( 'NONE', *, *, #231, .F. ) ;
#209 = ORIENTED_EDGE ( 'NONE', *, *, #231, .T. ) ;
#210 = AXIS2_PLACEMENT_3D ( 'NONE', #202, #26, #82 ) ;
#211 = PRODUCT_CONTEXT ( 'NONE', #104, 'mechanical' ) ;
#212 =( NAMED_UNIT ( * ) PLANE_ANGLE_UNIT ( ) SI_UNIT ( $, .RADIAN. ) );
#213 = CARTESIAN_POINT ( 'NONE',  ( -0.007499999999999999722, 9.184850993605147975E-19, 1.707404996040164512E-17 ) ) ;
#214 = CIRCLE ( 'NONE', #153, 0.1180600000000000399 ) ;
#215 = CARTESIAN_POINT ( 'NONE',  ( 0.0000000000000000000, 0.0000000000000000000, 2.229093999999999465 ) ) ;
#216 = ORIENTED_EDGE ( 'NONE', *, *, #242, .F. ) ;
#217 = DIRECTION ( 'NONE',  ( -0.7071067811865490160, 8.659560562354951347E-17, 0.7071067811865460184 ) ) ;
#218 = EDGE_LOOP ( 'NONE', ( #86, #122, #102, #169 ) ) ;
#219 = CARTESIAN_POINT ( 'NONE',  ( -0.1181100000000000066, 0.0000000000000000000, 0.6299209999999998422 ) ) ;
#220 = ORIENTED_EDGE ( 'NONE', *, *, #97, .T. ) ;
#221 = CIRCLE ( 'NONE', #88, 0.1031100000000002570 ) ;
#222 = CARTESIAN_POINT ( 'NONE',  ( -0.1180600000000000815, 0.0000000000000000000, 0.6299209999999999532 ) ) ;
#223 = DIRECTION ( 'NONE',  ( -1.000000000000000000, 0.0000000000000000000, 0.0000000000000000000 ) ) ;
#224 = ORIENTED_EDGE ( 'NONE', *, *, #128, .F. ) ;
#225 = FILL_AREA_STYLE ('',( #284 ) ) ;
#226 = DIRECTION ( 'NONE',  ( 0.7071067811865490160, 0.0000000000000000000, 0.7071067811865460184 ) ) ;
#227 = ORIENTED_EDGE ( 'NONE', *, *, #308, .F. ) ;
#228 = CIRCLE ( 'NONE', #235, 0.1181100000000000066 ) ;
#229 = CARTESIAN_POINT ( 'NONE',  ( 0.0000000000000000000, 0.0000000000000000000, 1.707404996040164512E-17 ) ) ;
#230 = EDGE_LOOP ( 'NONE', ( #224, #307 ) ) ;
#231 = EDGE_CURVE ( 'NONE', #48, #61, #221, .T. ) ;
#232 =( LENGTH_UNIT ( ) NAMED_UNIT ( * ) SI_UNIT ( $, .METRE. ) );
#233 = DIRECTION ( 'NONE',  ( 0.0000000000000000000, 0.0000000000000000000, 1.000000000000000000 ) ) ;
#234 = EDGE_LOOP ( 'NONE', ( #9, #148, #76, #183 ) ) ;
#235 = AXIS2_PLACEMENT_3D ( 'NONE', #303, #4, #306 ) ;
#236 = CYLINDRICAL_SURFACE ( 'NONE', #49, 0.1181100000000000066 ) ;
#237 = PRODUCT_DEFINITION_CONTEXT ( 'detailed design', #138, 'design' ) ;
#238 = CARTESIAN_POINT ( 'NONE',  ( 0.0000000000000000000, 0.0000000000000000000, 2.244094000000000033 ) ) ;
#239 = EDGE_CURVE ( 'NONE', #155, #315, #266, .T. ) ;
#240 = DIRECTION ( 'NONE',  ( 1.000000000000000000, 0.0000000000000000000, 0.0000000000000000000 ) ) ;
#241 = DIRECTION ( 'NONE',  ( 1.000000000000000000, 0.0000000000000000000, 0.0000000000000000000 ) ) ;
#242 = EDGE_CURVE ( 'NONE', #200, #204, #196, .T. ) ;
#243 = ORIENTED_EDGE ( 'NONE', *, *, #289, .T. ) ;
#244 = DIRECTION ( 'NONE',  ( -0.0000000000000000000, -0.0000000000000000000, -1.000000000000000000 ) ) ;
#245 = CARTESIAN_POINT ( 'NONE',  ( 0.0000000000000000000, 0.0000000000000000000, 0.1105599999999995892 ) ) ;
#246 = VERTEX_POINT ( 'NONE', #164 ) ;
#247 = CIRCLE ( 'NONE', #156, 0.1181100000000000066 ) ;
#248 = PRESENTATION_LAYER_ASSIGNMENT (  '', '', ( #181 ) ) ;
#249 = MECHANICAL_DESIGN_GEOMETRIC_PRESENTATION_REPRESENTATION (  '', ( #181 ), #96 ) ;
#250 = ADVANCED_FACE ( 'NONE', ( #299 ), #319, .T. ) ;
#251 = CARTESIAN_POINT ( 'NONE',  ( 0.1180600000000000815, 1.445818011073366210E-17, 0.6299209999999999532 ) ) ;
#252 = DIRECTION ( 'NONE',  ( 1.000000000000000000, 0.0000000000000000000, 0.0000000000000000000 ) ) ;
#253 = VERTEX_POINT ( 'NONE', #324 ) ;
#254 = AXIS2_PLACEMENT_3D ( 'NONE', #127, #147, #149 ) ;
#255 = CARTESIAN_POINT ( 'NONE',  ( -0.1181100000000000066, 0.0000000000000000000, 2.244094000000000033 ) ) ;
#256 = ORIENTED_EDGE ( 'NONE', *, *, #142, .F. ) ;
#257 = CARTESIAN_POINT ( 'NONE',  ( 0.0000000000000000000, 0.0000000000000000000, 0.0000000000000000000 ) ) ;
#258 = PRESENTATION_STYLE_ASSIGNMENT (( #103 ) ) ;
#259 = DIMENSIONAL_EXPONENTS ( 1.000000000000000000, 0.0000000000000000000, 0.0000000000000000000, 0.0000000000000000000, 0.0000000000000000000, 0.0000000000000000000, 0.0000000000000000000 ) ;
#260 = EDGE_CURVE ( 'NONE', #253, #304, #247, .T. ) ;
#261 = CARTESIAN_POINT ( 'NONE',  ( 0.1031100000000002570, 1.354581824536888722E-17, 2.244094000000000033 ) ) ;
#262 = VECTOR ( 'NONE', #217, 39.37007874015748143 ) ;
#263 = DIRECTION ( 'NONE',  ( 1.000000000000000000, 0.0000000000000000000, 0.0000000000000000000 ) ) ;
#264 = FACE_OUTER_BOUND ( 'NONE', #90, .T. ) ;
#265 = DIRECTION ( 'NONE',  ( 0.0000000000000000000, 0.0000000000000000000, 1.000000000000000000 ) ) ;
#266 = LINE ( 'NONE', #213, #262 ) ;
#267 = EDGE_CURVE ( 'NONE', #315, #204, #118, .T. ) ;
#268 = CIRCLE ( 'NONE', #134, 0.1031100000000002570 ) ;
#269 = LINE ( 'NONE', #20, #50 ) ;
#270 = CARTESIAN_POINT ( 'NONE',  ( 0.1180600000000000538, 1.445818011073365902E-17, 0.0000000000000000000 ) ) ;
#271 = EDGE_LOOP ( 'NONE', ( #285, #91, #279, #227 ) ) ;
#272 = CARTESIAN_POINT ( 'NONE',  ( -0.1181100000000000066, 0.0000000000000000000, 2.229093999999999465 ) ) ;
#273 = DIRECTION ( 'NONE',  ( -0.0000000000000000000, -0.0000000000000000000, -1.000000000000000000 ) ) ;
#274 = CIRCLE ( 'NONE', #210, 0.1180600000000000815 ) ;
#275 = EDGE_CURVE ( 'NONE', #61, #246, #135, .T. ) ;
#276 = CARTESIAN_POINT ( 'NONE',  ( 0.0000000000000000000, 0.0000000000000000000, 2.244094000000000033 ) ) ;
#277 = CARTESIAN_POINT ( 'NONE',  ( 0.1180600000000000815, 0.0000000000000000000, 0.6299209999999999532 ) ) ;
#278 = LENGTH_MEASURE_WITH_UNIT ( LENGTH_MEASURE( 0.02539999999999999897 ), #232 );
#279 = ORIENTED_EDGE ( 'NONE', *, *, #267, .F. ) ;
#280 = ORIENTED_EDGE ( 'NONE', *, *, #267, .T. ) ;
#281 = AXIS2_PLACEMENT_3D ( 'NONE', #229, #273, #223 ) ;
#282 = UNCERTAINTY_MEASURE_WITH_UNIT (LENGTH_MEASURE( 1.000000000000000082E-05 ), #163, 'distance_accuracy_value', 'NONE');
#283 = ORIENTED_EDGE ( 'NONE', *, *, #260, .F. ) ;
#284 = FILL_AREA_STYLE_COLOUR ( '', #110 ) ;
#285 = ORIENTED_EDGE ( 'NONE', *, *, #128, .T. ) ;
#286 = FACE_OUTER_BOUND ( 'NONE', #62, .T. ) ;
#287 = STYLED_ITEM ( 'NONE', ( #258 ), #55 ) ;
#288 = SHAPE_DEFINITION_REPRESENTATION ( #193, #180 ) ;
#289 = EDGE_CURVE ( 'NONE', #155, #205, #146, .T. ) ;
#290 = DIRECTION ( 'NONE',  ( 1.000000000000000000, 0.0000000000000000000, 0.0000000000000000000 ) ) ;
#291 = DIRECTION ( 'NONE',  ( 0.0000000000000000000, 0.0000000000000000000, 1.000000000000000000 ) ) ;
#292 = APPLICATION_PROTOCOL_DEFINITION ( 'draft international standard', 'automotive_design', 1998, #104 ) ;
#293 = CONICAL_SURFACE ( 'NONE', #145, 0.007499999999999999722, 0.7853981633974503884 ) ;
#294 = AXIS2_PLACEMENT_3D ( 'NONE', #141, #19, #114 ) ;
#295 = FACE_OUTER_BOUND ( 'NONE', #185, .T. ) ;
#296 = DIRECTION ( 'NONE',  ( -1.000000000000000000, 0.0000000000000000000, 0.0000000000000000000 ) ) ;
#297 = AXIS2_PLACEMENT_3D ( 'NONE', #329, #176, #252 ) ;
#298 = ORIENTED_EDGE ( 'NONE', *, *, #42, .T. ) ;
#299 = FACE_OUTER_BOUND ( 'NONE', #271, .T. ) ;
#300 = DIRECTION ( 'NONE',  ( -1.000000000000000000, 0.0000000000000000000, 0.0000000000000000000 ) ) ;
#301 = EDGE_LOOP ( 'NONE', ( #5, #107 ) ) ;
#302 = AXIS2_PLACEMENT_3D ( 'NONE', #257, #318, #290 ) ;
#303 = CARTESIAN_POINT ( 'NONE',  ( 0.0000000000000000000, 0.0000000000000000000, 0.6299209999999998422 ) ) ;
#304 = VERTEX_POINT ( 'NONE', #219 ) ;
#305 = AXIS2_PLACEMENT_3D ( 'NONE', #152, #7, #8 ) ;
#306 = DIRECTION ( 'NONE',  ( -1.000000000000000000, 0.0000000000000000000, 0.0000000000000000000 ) ) ;
#307 = ORIENTED_EDGE ( 'NONE', *, *, #316, .F. ) ;
#308 = EDGE_CURVE ( 'NONE', #167, #315, #269, .T. ) ;
#309 =( CONVERSION_BASED_UNIT ( 'INCH', #278 ) LENGTH_UNIT ( ) NAMED_UNIT ( #64 ) );
#310 = ORIENTED_EDGE ( 'NONE', *, *, #195, .F. ) ;
#311 = CARTESIAN_POINT ( 'NONE',  ( 0.0000000000000000000, 0.0000000000000000000, 2.244094000000000033 ) ) ;
#312 = AXIS2_PLACEMENT_3D ( 'NONE', #117, #166, #327 ) ;
#313 = FILL_AREA_STYLE ('',( #71 ) ) ;
#314 = UNCERTAINTY_MEASURE_WITH_UNIT (LENGTH_MEASURE( 1.000000000000000082E-05 ), #309, 'distance_accuracy_value', 'NONE');
#315 = VERTEX_POINT ( 'NONE', #43 ) ;
#316 = EDGE_CURVE ( 'NONE', #200, #167, #18, .T. ) ;
#317 = VECTOR ( 'NONE', #45, 39.37007874015748143 ) ;
#318 = DIRECTION ( 'NONE',  ( 0.0000000000000000000, 0.0000000000000000000, 1.000000000000000000 ) ) ;
#319 = CYLINDRICAL_SURFACE ( 'NONE', #312, 0.1180600000000000538 ) ;
#320 = DIRECTION ( 'NONE',  ( 1.000000000000000000, 0.0000000000000000000, -0.0000000000000000000 ) ) ;
#321 = AXIS2_PLACEMENT_3D ( 'NONE', #215, #139, #263 ) ;
#322 = DIRECTION ( 'NONE',  ( -0.0000000000000000000, -0.0000000000000000000, -1.000000000000000000 ) ) ;
#323 =( NAMED_UNIT ( * ) PLANE_ANGLE_UNIT ( ) SI_UNIT ( $, .RADIAN. ) );
#324 = CARTESIAN_POINT ( 'NONE',  ( 0.1181100000000000066, 1.446430334472939084E-17, 0.6299209999999998422 ) ) ;
#325 = EDGE_CURVE ( 'NONE', #126, #246, #131, .T. ) ;
#326 = MECHANICAL_DESIGN_GEOMETRIC_PRESENTATION_REPRESENTATION (  '', ( #287 ), #24 ) ;
#327 = DIRECTION ( 'NONE',  ( -1.000000000000000000, 0.0000000000000000000, 0.0000000000000000000 ) ) ;
#328 = LINE ( 'NONE', #119, #113 ) ;
#329 = CARTESIAN_POINT ( 'NONE',  ( 0.0000000000000000000, 0.0000000000000000000, 2.229093999999999465 ) ) ;
ENDSEC;
END-ISO-10303-21;
