ISO-10303-21;
HEADER;
FILE_DESCRIPTION (( 'STEP AP214' ),
    '1' );
FILE_NAME ('59631.STEP',
    '2023-07-24T15:17:18',
    ( '' ),
    ( '' ),
    'SwSTEP 2.0',
    'SolidWorks 2023',
    '' );
FILE_SCHEMA (( 'AUTOMOTIVE_DESIGN' ));
ENDSEC;

DATA;
#1 = FILL_AREA_STYLE_COLOUR ( '', #80 ) ;
#2 = DIRECTION ( 'NONE',  ( 1.223542297630008506E-16, -1.000000000000000000, 0.000000000000000000 ) ) ;
#3 = CYLINDRICAL_SURFACE ( 'NONE', #91, 3.999999999999998224 ) ;
#4 = COLOUR_RGB ( '',1.000000000000000000, 0.000000000000000000, 0.000000000000000000 ) ;
#5 = CIRCLE ( 'NONE', #111, 1.000000000000000000 ) ;
#6 =( LENGTH_UNIT ( ) NAMED_UNIT ( * ) SI_UNIT ( .MILLI., .METRE. ) );
#7 = ORIENTED_EDGE ( 'NONE', *, *, #342, .T. ) ;
#8 = CARTESIAN_POINT ( 'NONE',  ( 4.000000000000000000, 75.00000000000000000, 0.000000000000000000 ) ) ;
#9 = DIRECTION ( 'NONE',  ( 0.000000000000000000, 0.000000000000000000, -1.000000000000000000 ) ) ;
#10 = CARTESIAN_POINT ( 'NONE',  ( 4.770489558936219510E-15, 24.00000000000000000, 0.000000000000000000 ) ) ;
#11 = ORIENTED_EDGE ( 'NONE', *, *, #319, .T. ) ;
#12 = CARTESIAN_POINT ( 'NONE',  ( 0.000000000000000000, 24.00000000000000000, 0.000000000000000000 ) ) ;
#13 = EDGE_CURVE ( 'NONE', #46, #370, #302, .T. ) ;
#14 = PRESENTATION_LAYER_ASSIGNMENT (  '', '', ( #294 ) ) ;
#15 = PRODUCT ( '59631', '59631', '', ( #133 ) ) ;
#16 = PRESENTATION_STYLE_ASSIGNMENT (( #77 ) ) ;
#17 = CYLINDRICAL_SURFACE ( 'NONE', #184, 4.000000000000000000 ) ;
#18 = EDGE_CURVE ( 'NONE', #32, #182, #251, .T. ) ;
#19 = MANIFOLD_SOLID_BREP ( 'Revolve - Tool Body (Straight Shanked)', #89 ) ;
#20 = CARTESIAN_POINT ( 'NONE',  ( 0.000000000000000000, 24.00000000000000000, 0.000000000000000000 ) ) ;
#21 = DIRECTION ( 'NONE',  ( -1.000000000000000000, 0.000000000000000000, 0.000000000000000000 ) ) ;
#22 = VERTEX_POINT ( 'NONE', #167 ) ;
#23 = STYLED_ITEM ( 'NONE', ( #170 ), #84 ) ;
#24 = EDGE_CURVE ( 'NONE', #182, #153, #95, .T. ) ;
#25 = DIRECTION ( 'NONE',  ( -0.000000000000000000, -1.000000000000000000, -0.000000000000000000 ) ) ;
#26 = CARTESIAN_POINT ( 'NONE',  ( -4.000000000000000000, 75.00000000000000000, 0.000000000000000000 ) ) ;
#27 = MECHANICAL_DESIGN_GEOMETRIC_PRESENTATION_REPRESENTATION (  '', ( #368 ), #38 ) ;
#28 = PRESENTATION_STYLE_ASSIGNMENT (( #311 ) ) ;
#29 = PRODUCT_DEFINITION_FORMATION_WITH_SPECIFIED_SOURCE ( 'ANY', '', #15, .NOT_KNOWN. ) ;
#30 = ORIENTED_EDGE ( 'NONE', *, *, #225, .F. ) ;
#31 = CARTESIAN_POINT ( 'NONE',  ( 0.000000000000000000, 0.000000000000000000, 0.000000000000000000 ) ) ;
#32 = VERTEX_POINT ( 'NONE', #296 ) ;
#33 = CIRCLE ( 'NONE', #176, 4.000000000000001776 ) ;
#34 = DIRECTION ( 'NONE',  ( -1.000000000000000000, -1.223542297630008506E-16, 0.000000000000000000 ) ) ;
#35 = FILL_AREA_STYLE_COLOUR ( '', #4 ) ;
#36 = CARTESIAN_POINT ( 'NONE',  ( 0.000000000000000000, 0.000000000000000000, -4.000000000000000000 ) ) ;
#37 = CARTESIAN_POINT ( 'NONE',  ( 0.000000000000000000, 1.000000000000000000, 0.000000000000000000 ) ) ;
#38 =( GEOMETRIC_REPRESENTATION_CONTEXT ( 3 ) GLOBAL_UNCERTAINTY_ASSIGNED_CONTEXT ( ( #66 ) ) GLOBAL_UNIT_ASSIGNED_CONTEXT ( ( #367, #221, #106 ) ) REPRESENTATION_CONTEXT ( 'NONE', 'WORKASPACE' ) );
#39 = CIRCLE ( 'NONE', #242, 1.000000000000000000 ) ;
#40 = DIRECTION ( 'NONE',  ( -1.223542297630008506E-16, 1.000000000000000000, -0.000000000000000000 ) ) ;
#41 =( NAMED_UNIT ( * ) SI_UNIT ( $, .STERADIAN. ) SOLID_ANGLE_UNIT ( ) );
#42 =( LENGTH_UNIT ( ) NAMED_UNIT ( * ) SI_UNIT ( .MILLI., .METRE. ) );
#43 = UNCERTAINTY_MEASURE_WITH_UNIT (LENGTH_MEASURE( 1.000000000000000082E-05 ), #117, 'distance_accuracy_value', 'NONE');
#44 = CARTESIAN_POINT ( 'NONE',  ( 4.898587196589412829E-16, 1.000000000000000000, 4.000000000000000000 ) ) ;
#45 = PRESENTATION_STYLE_ASSIGNMENT (( #298 ) ) ;
#46 = VERTEX_POINT ( 'NONE', #109 ) ;
#47 = CARTESIAN_POINT ( 'NONE',  ( 4.286263797015736595E-16, 0.000000000000000000, 3.000000000000000000 ) ) ;
#48 =( NAMED_UNIT ( * ) PLANE_ANGLE_UNIT ( ) SI_UNIT ( $, .RADIAN. ) );
#49 = CYLINDRICAL_SURFACE ( 'NONE', #156, 4.000000000000000000 ) ;
#50 = EDGE_LOOP ( 'NONE', ( #359, #108, #301, #334 ) ) ;
#51 = APPLICATION_CONTEXT ( 'automotive_design' ) ;
#52 = SURFACE_SIDE_STYLE ('',( #255 ) ) ;
#53 = CIRCLE ( 'NONE', #137, 4.000000000000000000 ) ;
#54 =( LENGTH_UNIT ( ) NAMED_UNIT ( * ) SI_UNIT ( .MILLI., .METRE. ) );
#55 = PRESENTATION_STYLE_ASSIGNMENT (( #188 ) ) ;
#56 = EDGE_CURVE ( 'NONE', #182, #32, #53, .T. ) ;
#57 =( NAMED_UNIT ( * ) PLANE_ANGLE_UNIT ( ) SI_UNIT ( $, .RADIAN. ) );
#58 = DIRECTION ( 'NONE',  ( 0.000000000000000000, 0.000000000000000000, -1.000000000000000000 ) ) ;
#59 = DIRECTION ( 'NONE',  ( -0.000000000000000000, -1.000000000000000000, -0.000000000000000000 ) ) ;
#60 = FACE_OUTER_BOUND ( 'NONE', #326, .T. ) ;
#61 = DIRECTION ( 'NONE',  ( -1.224646799147352961E-16, 0.000000000000000000, -1.000000000000000000 ) ) ;
#62 =( LENGTH_UNIT ( ) NAMED_UNIT ( * ) SI_UNIT ( .MILLI., .METRE. ) );
#63 = ORIENTED_EDGE ( 'NONE', *, *, #309, .F. ) ;
#64 = DIRECTION ( 'NONE',  ( -1.223542297630008506E-16, 1.000000000000000000, -0.000000000000000000 ) ) ;
#65 =( NAMED_UNIT ( * ) SI_UNIT ( $, .STERADIAN. ) SOLID_ANGLE_UNIT ( ) );
#66 = UNCERTAINTY_MEASURE_WITH_UNIT (LENGTH_MEASURE( 1.000000000000000082E-05 ), #367, 'distance_accuracy_value', 'NONE');
#67 = CARTESIAN_POINT ( 'NONE',  ( 3.673940397442059868E-16, 1.000000000000000000, 3.000000000000000000 ) ) ;
#68 = DIRECTION ( 'NONE',  ( 0.000000000000000000, 0.000000000000000000, -1.000000000000000000 ) ) ;
#69 = STYLED_ITEM ( 'NONE', ( #246 ), #159 ) ;
#70 =( NAMED_UNIT ( * ) PLANE_ANGLE_UNIT ( ) SI_UNIT ( $, .RADIAN. ) );
#71 = EDGE_CURVE ( 'NONE', #169, #22, #128, .T. ) ;
#72 = FACE_OUTER_BOUND ( 'NONE', #252, .T. ) ;
#73 = SURFACE_STYLE_FILL_AREA ( #215 ) ;
#74 = DIRECTION ( 'NONE',  ( 0.000000000000000000, 0.000000000000000000, -1.000000000000000000 ) ) ;
#75 = EDGE_CURVE ( 'NONE', #103, #153, #310, .T. ) ;
#76 =( GEOMETRIC_REPRESENTATION_CONTEXT ( 3 ) GLOBAL_UNCERTAINTY_ASSIGNED_CONTEXT ( ( #207 ) ) GLOBAL_UNIT_ASSIGNED_CONTEXT ( ( #146, #171, #364 ) ) REPRESENTATION_CONTEXT ( 'NONE', 'WORKASPACE' ) );
#77 = SURFACE_STYLE_USAGE ( .BOTH. , #272 ) ;
#78 =( GEOMETRIC_REPRESENTATION_CONTEXT ( 3 ) GLOBAL_UNCERTAINTY_ASSIGNED_CONTEXT ( ( #119 ) ) GLOBAL_UNIT_ASSIGNED_CONTEXT ( ( #54, #208, #305 ) ) REPRESENTATION_CONTEXT ( 'NONE', 'WORKASPACE' ) );
#79 = SURFACE_STYLE_FILL_AREA ( #104 ) ;
#80 = COLOUR_RGB ( '',1.000000000000000000, 0.000000000000000000, 0.000000000000000000 ) ;
#81 = VERTEX_POINT ( 'NONE', #291 ) ;
#82 = SURFACE_STYLE_FILL_AREA ( #338 ) ;
#83 = ORIENTED_EDGE ( 'NONE', *, *, #24, .F. ) ;
#84 = ADVANCED_FACE ( 'NONE', ( #72 ), #256, .T. ) ;
#85 = CIRCLE ( 'NONE', #276, 3.000000000000000000 ) ;
#86 = ORIENTED_EDGE ( 'NONE', *, *, #279, .T. ) ;
#87 = FILL_AREA_STYLE_COLOUR ( '', #366 ) ;
#88 = DIRECTION ( 'NONE',  ( -1.223542297630008506E-16, 1.000000000000000000, -0.000000000000000000 ) ) ;
#89 = CLOSED_SHELL ( 'NONE', ( #247, #335, #113, #344 ) ) ;
#90 = ORIENTED_EDGE ( 'NONE', *, *, #18, .F. ) ;
#91 = AXIS2_PLACEMENT_3D ( 'NONE', #265, #230, #348 ) ;
#92 = AXIS2_PLACEMENT_3D ( 'NONE', #350, #59, #163 ) ;
#93 = CARTESIAN_POINT ( 'NONE',  ( -1.469576158976823750E-15, 75.00000000000000000, 0.000000000000000000 ) ) ;
#94 = FACE_OUTER_BOUND ( 'NONE', #245, .T. ) ;
#95 = LINE ( 'NONE', #351, #144 ) ;
#96 = DIRECTION ( 'NONE',  ( -1.000000000000000000, 0.000000000000000000, 0.000000000000000000 ) ) ;
#97 = AXIS2_PLACEMENT_3D ( 'NONE', #93, #40, #96 ) ;
#98 = EDGE_LOOP ( 'NONE', ( #102, #283, #262, #194 ) ) ;
#99 = PLANE ( 'NONE',  #168 ) ;
#100 = AXIS2_PLACEMENT_3D ( 'NONE', #343, #88, #197 ) ;
#101 = CARTESIAN_POINT ( 'NONE',  ( 0.000000000000000000, 0.000000000000000000, 0.000000000000000000 ) ) ;
#102 = ORIENTED_EDGE ( 'NONE', *, *, #75, .T. ) ;
#103 = VERTEX_POINT ( 'NONE', #295 ) ;
#104 = FILL_AREA_STYLE ('',( #363 ) ) ;
#105 =( NAMED_UNIT ( * ) SI_UNIT ( $, .STERADIAN. ) SOLID_ANGLE_UNIT ( ) );
#106 =( NAMED_UNIT ( * ) SI_UNIT ( $, .STERADIAN. ) SOLID_ANGLE_UNIT ( ) );
#107 = FILL_AREA_STYLE ('',( #267 ) ) ;
#108 = ORIENTED_EDGE ( 'NONE', *, *, #225, .T. ) ;
#109 = CARTESIAN_POINT ( 'NONE',  ( 4.000000000000000000, 24.00000000000000000, 4.898587196589413815E-16 ) ) ;
#110 = VECTOR ( 'NONE', #315, 1000.000000000000000 ) ;
#111 = AXIS2_PLACEMENT_3D ( 'NONE', #67, #259, #61 ) ;
#112 = PRESENTATION_LAYER_ASSIGNMENT (  '', '', ( #270 ) ) ;
#113 = ADVANCED_FACE ( 'NONE', ( #268 ), #3, .T. ) ;
#114 = DIRECTION ( 'NONE',  ( 1.000000000000000000, 1.223542297630008506E-16, 0.000000000000000000 ) ) ;
#115 = CARTESIAN_POINT ( 'NONE',  ( 0.000000000000000000, 0.000000000000000000, 0.000000000000000000 ) ) ;
#116 = CIRCLE ( 'NONE', #97, 4.000000000000001776 ) ;
#117 =( LENGTH_UNIT ( ) NAMED_UNIT ( * ) SI_UNIT ( .MILLI., .METRE. ) );
#118 = ORIENTED_EDGE ( 'NONE', *, *, #124, .F. ) ;
#119 = UNCERTAINTY_MEASURE_WITH_UNIT (LENGTH_MEASURE( 1.000000000000000082E-05 ), #54, 'distance_accuracy_value', 'NONE');
#120 = PRODUCT_DEFINITION_SHAPE ( 'NONE', 'NONE',  #324 ) ;
#121 = SURFACE_SIDE_STYLE ('',( #73 ) ) ;
#122 = EDGE_LOOP ( 'NONE', ( #352, #123 ) ) ;
#123 = ORIENTED_EDGE ( 'NONE', *, *, #71, .T. ) ;
#124 = EDGE_CURVE ( 'NONE', #81, #329, #116, .T. ) ;
#125 = AXIS2_PLACEMENT_3D ( 'NONE', #20, #25, #151 ) ;
#126 =( GEOMETRIC_REPRESENTATION_CONTEXT ( 3 ) GLOBAL_UNCERTAINTY_ASSIGNED_CONTEXT ( ( #349 ) ) GLOBAL_UNIT_ASSIGNED_CONTEXT ( ( #6, #321, #65 ) ) REPRESENTATION_CONTEXT ( 'NONE', 'WORKASPACE' ) );
#127 = AXIS2_PLACEMENT_3D ( 'NONE', #10, #136, #135 ) ;
#128 = CIRCLE ( 'NONE', #178, 3.000000000000000000 ) ;
#129 = DIRECTION ( 'NONE',  ( 0.000000000000000000, 0.000000000000000000, -1.000000000000000000 ) ) ;
#130 = DIRECTION ( 'NONE',  ( 0.000000000000000000, 0.000000000000000000, -1.000000000000000000 ) ) ;
#131 = DIRECTION ( 'NONE',  ( 0.000000000000000000, 0.000000000000000000, 1.000000000000000000 ) ) ;
#132 = AXIS2_PLACEMENT_3D ( 'NONE', #209, #299, #74 ) ;
#133 = PRODUCT_CONTEXT ( 'NONE', #51, 'mechanical' ) ;
#134 = ADVANCED_FACE ( 'NONE', ( #204 ), #275, .T. ) ;
#135 = DIRECTION ( 'NONE',  ( -1.000000000000000000, 0.000000000000000000, 0.000000000000000000 ) ) ;
#136 = DIRECTION ( 'NONE',  ( -1.223542297630008506E-16, 1.000000000000000000, -0.000000000000000000 ) ) ;
#137 = AXIS2_PLACEMENT_3D ( 'NONE', #12, #325, #9 ) ;
#138 = AXIS2_PLACEMENT_3D ( 'NONE', #224, #341, #58 ) ;
#139 = FACE_OUTER_BOUND ( 'NONE', #278, .T. ) ;
#140 = DIRECTION ( 'NONE',  ( -0.000000000000000000, -1.000000000000000000, -0.000000000000000000 ) ) ;
#141 = ORIENTED_EDGE ( 'NONE', *, *, #13, .T. ) ;
#142 = UNCERTAINTY_MEASURE_WITH_UNIT (LENGTH_MEASURE( 1.000000000000000082E-05 ), #258, 'distance_accuracy_value', 'NONE');
#143 =( NAMED_UNIT ( * ) SI_UNIT ( $, .STERADIAN. ) SOLID_ANGLE_UNIT ( ) );
#144 = VECTOR ( 'NONE', #140, 1000.000000000000000 ) ;
#145 = SURFACE_SIDE_STYLE ('',( #300 ) ) ;
#146 =( LENGTH_UNIT ( ) NAMED_UNIT ( * ) SI_UNIT ( .MILLI., .METRE. ) );
#147 = MECHANICAL_DESIGN_GEOMETRIC_PRESENTATION_REPRESENTATION (  '', ( #198 ), #248 ) ;
#148 =( GEOMETRIC_REPRESENTATION_CONTEXT ( 3 ) GLOBAL_UNCERTAINTY_ASSIGNED_CONTEXT ( ( #142 ) ) GLOBAL_UNIT_ASSIGNED_CONTEXT ( ( #258, #70, #41 ) ) REPRESENTATION_CONTEXT ( 'NONE', 'WORKASPACE' ) );
#149 = ADVANCED_BREP_SHAPE_REPRESENTATION ( '59631', ( #263, #19, #261 ), #148 ) ;
#150 = FACE_OUTER_BOUND ( 'NONE', #122, .T. ) ;
#151 = DIRECTION ( 'NONE',  ( 0.000000000000000000, 0.000000000000000000, -1.000000000000000000 ) ) ;
#152 = LINE ( 'NONE', #282, #110 ) ;
#153 = VERTEX_POINT ( 'NONE', #44 ) ;
#154 = MECHANICAL_DESIGN_GEOMETRIC_PRESENTATION_REPRESENTATION (  '', ( #270 ), #306 ) ;
#155 = PRESENTATION_LAYER_ASSIGNMENT (  '', '', ( #23 ) ) ;
#156 = AXIS2_PLACEMENT_3D ( 'NONE', #191, #226, #129 ) ;
#157 = DIRECTION ( 'NONE',  ( -0.000000000000000000, -1.000000000000000000, -0.000000000000000000 ) ) ;
#158 = FILL_AREA_STYLE ('',( #1 ) ) ;
#159 = ADVANCED_FACE ( 'NONE', ( #181 ), #17, .T. ) ;
#160 = AXIS2_PLACEMENT_3D ( 'NONE', #37, #165, #68 ) ;
#161 = PRESENTATION_STYLE_ASSIGNMENT (( #289 ) ) ;
#162 = SHAPE_DEFINITION_REPRESENTATION ( #120, #149 ) ;
#163 = DIRECTION ( 'NONE',  ( 0.000000000000000000, 0.000000000000000000, -1.000000000000000000 ) ) ;
#164 = ORIENTED_EDGE ( 'NONE', *, *, #369, .F. ) ;
#165 = DIRECTION ( 'NONE',  ( -0.000000000000000000, -1.000000000000000000, -0.000000000000000000 ) ) ;
#166 = PLANE ( 'NONE',  #277 ) ;
#167 = CARTESIAN_POINT ( 'NONE',  ( 0.000000000000000000, 0.000000000000000000, -3.000000000000000000 ) ) ;
#168 = AXIS2_PLACEMENT_3D ( 'NONE', #288, #284, #130 ) ;
#169 = VERTEX_POINT ( 'NONE', #47 ) ;
#170 = PRESENTATION_STYLE_ASSIGNMENT (( #320 ) ) ;
#171 =( NAMED_UNIT ( * ) PLANE_ANGLE_UNIT ( ) SI_UNIT ( $, .RADIAN. ) );
#172 = EDGE_LOOP ( 'NONE', ( #83, #235, #7, #274 ) ) ;
#173 = UNCERTAINTY_MEASURE_WITH_UNIT (LENGTH_MEASURE( 1.000000000000000082E-05 ), #62, 'distance_accuracy_value', 'NONE');
#174 = DIRECTION ( 'NONE',  ( 0.000000000000000000, 1.000000000000000000, 0.000000000000000000 ) ) ;
#175 = ORIENTED_EDGE ( 'NONE', *, *, #24, .T. ) ;
#176 = AXIS2_PLACEMENT_3D ( 'NONE', #307, #358, #21 ) ;
#177 = VECTOR ( 'NONE', #64, 1000.000000000000000 ) ;
#178 = AXIS2_PLACEMENT_3D ( 'NONE', #115, #233, #206 ) ;
#179 = CARTESIAN_POINT ( 'NONE',  ( 0.000000000000000000, 24.00000000000000000, 0.000000000000000000 ) ) ;
#180 = EDGE_CURVE ( 'NONE', #329, #81, #33, .T. ) ;
#181 = FACE_OUTER_BOUND ( 'NONE', #172, .T. ) ;
#182 = VERTEX_POINT ( 'NONE', #240 ) ;
#183 = ORIENTED_EDGE ( 'NONE', *, *, #75, .F. ) ;
#184 = AXIS2_PLACEMENT_3D ( 'NONE', #101, #244, #210 ) ;
#185 = DIRECTION ( 'NONE',  ( 0.000000000000000000, 0.000000000000000000, 1.000000000000000000 ) ) ;
#186 = SURFACE_SIDE_STYLE ('',( #82 ) ) ;
#187 = ORIENTED_EDGE ( 'NONE', *, *, #56, .F. ) ;
#188 = SURFACE_STYLE_USAGE ( .BOTH. , #220 ) ;
#189 = CARTESIAN_POINT ( 'NONE',  ( 4.770489558936219510E-15, 24.00000000000000000, 0.000000000000000000 ) ) ;
#190 = AXIS2_PLACEMENT_3D ( 'NONE', #179, #174, #212 ) ;
#191 = CARTESIAN_POINT ( 'NONE',  ( 0.000000000000000000, 0.000000000000000000, 0.000000000000000000 ) ) ;
#192 = STYLED_ITEM ( 'NONE', ( #28 ), #254 ) ;
#193 = MECHANICAL_DESIGN_GEOMETRIC_PRESENTATION_REPRESENTATION (  '', ( #361 ), #199 ) ;
#194 = ORIENTED_EDGE ( 'NONE', *, *, #279, .F. ) ;
#195 = DIRECTION ( 'NONE',  ( 0.000000000000000000, 0.000000000000000000, -1.000000000000000000 ) ) ;
#196 = PRODUCT_RELATED_PRODUCT_CATEGORY ( 'part', '', ( #15 ) ) ;
#197 = DIRECTION ( 'NONE',  ( -1.000000000000000000, 0.000000000000000000, 0.000000000000000000 ) ) ;
#198 = STYLED_ITEM ( 'NONE', ( #45 ), #201 ) ;
#199 =( GEOMETRIC_REPRESENTATION_CONTEXT ( 3 ) GLOBAL_UNCERTAINTY_ASSIGNED_CONTEXT ( ( #297 ) ) GLOBAL_UNIT_ASSIGNED_CONTEXT ( ( #317, #57, #253 ) ) REPRESENTATION_CONTEXT ( 'NONE', 'WORKASPACE' ) );
#200 =( NAMED_UNIT ( * ) SI_UNIT ( $, .STERADIAN. ) SOLID_ANGLE_UNIT ( ) );
#201 = ADVANCED_FACE ( 'NONE', ( #150 ), #99, .T. ) ;
#202 = APPLICATION_PROTOCOL_DEFINITION ( 'draft international standard', 'automotive_design', 1998, #316 ) ;
#203 = APPLICATION_PROTOCOL_DEFINITION ( 'draft international standard', 'automotive_design', 1998, #51 ) ;
#204 = FACE_OUTER_BOUND ( 'NONE', #285, .T. ) ;
#205 = CARTESIAN_POINT ( 'NONE',  ( -4.000000000000003553, 75.00000000000000000, 0.000000000000000000 ) ) ;
#206 = DIRECTION ( 'NONE',  ( 0.000000000000000000, 0.000000000000000000, -1.000000000000000000 ) ) ;
#207 = UNCERTAINTY_MEASURE_WITH_UNIT (LENGTH_MEASURE( 1.000000000000000082E-05 ), #146, 'distance_accuracy_value', 'NONE');
#208 =( NAMED_UNIT ( * ) PLANE_ANGLE_UNIT ( ) SI_UNIT ( $, .RADIAN. ) );
#209 = CARTESIAN_POINT ( 'NONE',  ( 0.000000000000000000, 1.000000000000000000, 0.000000000000000000 ) ) ;
#210 = DIRECTION ( 'NONE',  ( 0.000000000000000000, 0.000000000000000000, -1.000000000000000000 ) ) ;
#211 = CIRCLE ( 'NONE', #127, 3.999999999999996447 ) ;
#212 = DIRECTION ( 'NONE',  ( 0.000000000000000000, -0.000000000000000000, 1.000000000000000000 ) ) ;
#213 = ADVANCED_FACE ( 'NONE', ( #286 ), #236, .T. ) ;
#214 = PRESENTATION_STYLE_ASSIGNMENT (( #362 ) ) ;
#215 = FILL_AREA_STYLE ('',( #271 ) ) ;
#216 = COLOUR_RGB ( '',1.000000000000000000, 0.000000000000000000, 0.000000000000000000 ) ;
#217 = CLOSED_SHELL ( 'NONE', ( #254, #213, #201, #84, #159, #134 ) ) ;
#218 = FILL_AREA_STYLE_COLOUR ( '', #360 ) ;
#219 = ORIENTED_EDGE ( 'NONE', *, *, #180, .T. ) ;
#220 = SURFACE_SIDE_STYLE ('',( #337 ) ) ;
#221 =( NAMED_UNIT ( * ) PLANE_ANGLE_UNIT ( ) SI_UNIT ( $, .RADIAN. ) );
#222 = MECHANICAL_DESIGN_GEOMETRIC_PRESENTATION_REPRESENTATION (  '', ( #23 ), #126 ) ;
#223 = FILL_AREA_STYLE ('',( #87 ) ) ;
#224 = CARTESIAN_POINT ( 'NONE',  ( 0.000000000000000000, 1.000000000000000000, 0.000000000000000000 ) ) ;
#225 = EDGE_CURVE ( 'NONE', #46, #81, #152, .T. ) ;
#226 = DIRECTION ( 'NONE',  ( -0.000000000000000000, -1.000000000000000000, -0.000000000000000000 ) ) ;
#227 = CYLINDRICAL_SURFACE ( 'NONE', #100, 3.999999999999998224 ) ;
#228 = ORIENTED_EDGE ( 'NONE', *, *, #71, .F. ) ;
#229 = SURFACE_STYLE_FILL_AREA ( #107 ) ;
#230 = DIRECTION ( 'NONE',  ( -1.223542297630008506E-16, 1.000000000000000000, -0.000000000000000000 ) ) ;
#231 = ORIENTED_EDGE ( 'NONE', *, *, #342, .F. ) ;
#232 = CARTESIAN_POINT ( 'NONE',  ( -3.999999999999991562, 24.00000000000000000, 0.000000000000000000 ) ) ;
#233 = DIRECTION ( 'NONE',  ( -0.000000000000000000, -1.000000000000000000, -0.000000000000000000 ) ) ;
#234 = EDGE_CURVE ( 'NONE', #22, #169, #85, .T. ) ;
#235 = ORIENTED_EDGE ( 'NONE', *, *, #56, .T. ) ;
#236 = TOROIDAL_SURFACE ( 'NONE', #138, 3.000000000000000000, 1.000000000000000000 ) ;
#237 = FILL_AREA_STYLE ('',( #35 ) ) ;
#238 = ORIENTED_EDGE ( 'NONE', *, *, #281, .T. ) ;
#239 = SURFACE_STYLE_FILL_AREA ( #237 ) ;
#240 = CARTESIAN_POINT ( 'NONE',  ( 4.898587196589412829E-16, 24.00000000000000000, 4.000000000000000000 ) ) ;
#241 = MECHANICAL_DESIGN_GEOMETRIC_PRESENTATION_REPRESENTATION (  '', ( #192 ), #78 ) ;
#242 = AXIS2_PLACEMENT_3D ( 'NONE', #250, #280, #131 ) ;
#243 = SURFACE_SIDE_STYLE ('',( #79 ) ) ;
#244 = DIRECTION ( 'NONE',  ( -0.000000000000000000, -1.000000000000000000, -0.000000000000000000 ) ) ;
#245 = EDGE_LOOP ( 'NONE', ( #164, #322 ) ) ;
#246 = PRESENTATION_STYLE_ASSIGNMENT (( #357 ) ) ;
#247 = ADVANCED_FACE ( 'NONE', ( #318 ), #227, .T. ) ;
#248 =( GEOMETRIC_REPRESENTATION_CONTEXT ( 3 ) GLOBAL_UNCERTAINTY_ASSIGNED_CONTEXT ( ( #332 ) ) GLOBAL_UNIT_ASSIGNED_CONTEXT ( ( #42, #48, #105 ) ) REPRESENTATION_CONTEXT ( 'NONE', 'WORKASPACE' ) );
#249 = PRESENTATION_LAYER_ASSIGNMENT (  '', '', ( #361 ) ) ;
#250 = CARTESIAN_POINT ( 'NONE',  ( 0.000000000000000000, 1.000000000000000000, -3.000000000000000000 ) ) ;
#251 = CIRCLE ( 'NONE', #125, 4.000000000000000000 ) ;
#252 = EDGE_LOOP ( 'NONE', ( #63, #11, #86, #228 ) ) ;
#253 =( NAMED_UNIT ( * ) SI_UNIT ( $, .STERADIAN. ) SOLID_ANGLE_UNIT ( ) );
#254 = ADVANCED_FACE ( 'NONE', ( #60 ), #49, .T. ) ;
#255 = SURFACE_STYLE_FILL_AREA ( #158 ) ;
#256 = TOROIDAL_SURFACE ( 'NONE', #160, 3.000000000000000000, 1.000000000000000000 ) ;
#257 = DIRECTION ( 'NONE',  ( 1.000000000000000000, 0.000000000000000000, 0.000000000000000000 ) ) ;
#258 =( LENGTH_UNIT ( ) NAMED_UNIT ( * ) SI_UNIT ( .MILLI., .METRE. ) );
#259 = DIRECTION ( 'NONE',  ( 1.000000000000000000, 0.000000000000000000, -1.224646799147353207E-16 ) ) ;
#260 = PRESENTATION_LAYER_ASSIGNMENT (  '', '', ( #192 ) ) ;
#261 = AXIS2_PLACEMENT_3D ( 'NONE', #336, #185, #257 ) ;
#262 = ORIENTED_EDGE ( 'NONE', *, *, #234, .F. ) ;
#263 = MANIFOLD_SOLID_BREP ( 'Revolve - Cutting Edge', #217 ) ;
#264 = PLANE ( 'NONE',  #304 ) ;
#265 = CARTESIAN_POINT ( 'NONE',  ( -1.469576158976823750E-15, 75.00000000000000000, 0.000000000000000000 ) ) ;
#266 = ORIENTED_EDGE ( 'NONE', *, *, #18, .T. ) ;
#267 = FILL_AREA_STYLE_COLOUR ( '', #355 ) ;
#268 = FACE_OUTER_BOUND ( 'NONE', #339, .T. ) ;
#269 = MECHANICAL_DESIGN_GEOMETRIC_PRESENTATION_REPRESENTATION (  '', ( #294 ), #354 ) ;
#270 = STYLED_ITEM ( 'NONE', ( #214 ), #19 ) ;
#271 = FILL_AREA_STYLE_COLOUR ( '', #313 ) ;
#272 = SURFACE_SIDE_STYLE ('',( #239 ) ) ;
#273 = DIRECTION ( 'NONE',  ( -1.000000000000000000, 0.000000000000000000, 0.000000000000000000 ) ) ;
#274 = ORIENTED_EDGE ( 'NONE', *, *, #319, .F. ) ;
#275 = PLANE ( 'NONE',  #190 ) ;
#276 = AXIS2_PLACEMENT_3D ( 'NONE', #31, #157, #195 ) ;
#277 = AXIS2_PLACEMENT_3D ( 'NONE', #323, #293, #34 ) ;
#278 = EDGE_LOOP ( 'NONE', ( #219, #356 ) ) ;
#279 = EDGE_CURVE ( 'NONE', #103, #22, #39, .T. ) ;
#280 = DIRECTION ( 'NONE',  ( -1.000000000000000000, 0.000000000000000000, 0.000000000000000000 ) ) ;
#281 = EDGE_CURVE ( 'NONE', #370, #329, #287, .T. ) ;
#282 = CARTESIAN_POINT ( 'NONE',  ( 3.999999999999996447, 75.00000000000000000, 4.898587196589410857E-16 ) ) ;
#283 = ORIENTED_EDGE ( 'NONE', *, *, #309, .T. ) ;
#284 = DIRECTION ( 'NONE',  ( 0.000000000000000000, -1.000000000000000000, -0.000000000000000000 ) ) ;
#285 = EDGE_LOOP ( 'NONE', ( #90, #187 ) ) ;
#286 = FACE_OUTER_BOUND ( 'NONE', #98, .T. ) ;
#287 = LINE ( 'NONE', #26, #177 ) ;
#288 = CARTESIAN_POINT ( 'NONE',  ( 0.000000000000000000, 0.000000000000000000, 0.000000000000000000 ) ) ;
#289 = SURFACE_STYLE_USAGE ( .BOTH. , #52 ) ;
#290 = LINE ( 'NONE', #36, #333 ) ;
#291 = CARTESIAN_POINT ( 'NONE',  ( 4.000000000000000000, 75.00000000000000000, 4.898587196589412829E-16 ) ) ;
#292 = PRODUCT_DEFINITION_CONTEXT ( 'detailed design', #316, 'design' ) ;
#293 = DIRECTION ( 'NONE',  ( -1.223542297630008506E-16, 1.000000000000000000, 0.000000000000000000 ) ) ;
#294 = STYLED_ITEM ( 'NONE', ( #16 ), #134 ) ;
#295 = CARTESIAN_POINT ( 'NONE',  ( 0.000000000000000000, 1.000000000000000000, -4.000000000000000000 ) ) ;
#296 = CARTESIAN_POINT ( 'NONE',  ( 0.000000000000000000, 24.00000000000000000, -4.000000000000000000 ) ) ;
#297 = UNCERTAINTY_MEASURE_WITH_UNIT (LENGTH_MEASURE( 1.000000000000000082E-05 ), #317, 'distance_accuracy_value', 'NONE');
#298 = SURFACE_STYLE_USAGE ( .BOTH. , #121 ) ;
#299 = DIRECTION ( 'NONE',  ( -0.000000000000000000, -1.000000000000000000, -0.000000000000000000 ) ) ;
#300 = SURFACE_STYLE_FILL_AREA ( #328 ) ;
#301 = ORIENTED_EDGE ( 'NONE', *, *, #180, .F. ) ;
#302 = CIRCLE ( 'NONE', #312, 3.999999999999996447 ) ;
#303 = PRESENTATION_LAYER_ASSIGNMENT (  '', '', ( #69 ) ) ;
#304 = AXIS2_PLACEMENT_3D ( 'NONE', #8, #2, #114 ) ;
#305 =( NAMED_UNIT ( * ) SI_UNIT ( $, .STERADIAN. ) SOLID_ANGLE_UNIT ( ) );
#306 =( GEOMETRIC_REPRESENTATION_CONTEXT ( 3 ) GLOBAL_UNCERTAINTY_ASSIGNED_CONTEXT ( ( #173 ) ) GLOBAL_UNIT_ASSIGNED_CONTEXT ( ( #62, #353, #200 ) ) REPRESENTATION_CONTEXT ( 'NONE', 'WORKASPACE' ) );
#307 = CARTESIAN_POINT ( 'NONE',  ( -1.469576158976823750E-15, 75.00000000000000000, 0.000000000000000000 ) ) ;
#308 =( NAMED_UNIT ( * ) PLANE_ANGLE_UNIT ( ) SI_UNIT ( $, .RADIAN. ) );
#309 = EDGE_CURVE ( 'NONE', #153, #169, #5, .T. ) ;
#310 = CIRCLE ( 'NONE', #132, 4.000000000000000000 ) ;
#311 = SURFACE_STYLE_USAGE ( .BOTH. , #186 ) ;
#312 = AXIS2_PLACEMENT_3D ( 'NONE', #189, #314, #273 ) ;
#313 = COLOUR_RGB ( '',1.000000000000000000, 0.000000000000000000, 0.000000000000000000 ) ;
#314 = DIRECTION ( 'NONE',  ( -1.223542297630008506E-16, 1.000000000000000000, -0.000000000000000000 ) ) ;
#315 = DIRECTION ( 'NONE',  ( -1.223542297630008506E-16, 1.000000000000000000, -0.000000000000000000 ) ) ;
#316 = APPLICATION_CONTEXT ( 'automotive_design' ) ;
#317 =( LENGTH_UNIT ( ) NAMED_UNIT ( * ) SI_UNIT ( .MILLI., .METRE. ) );
#318 = FACE_OUTER_BOUND ( 'NONE', #50, .T. ) ;
#319 = EDGE_CURVE ( 'NONE', #153, #103, #340, .T. ) ;
#320 = SURFACE_STYLE_USAGE ( .BOTH. , #345 ) ;
#321 =( NAMED_UNIT ( * ) PLANE_ANGLE_UNIT ( ) SI_UNIT ( $, .RADIAN. ) );
#322 = ORIENTED_EDGE ( 'NONE', *, *, #13, .F. ) ;
#323 = CARTESIAN_POINT ( 'NONE',  ( 4.770489558936219510E-15, 24.00000000000000000, 0.000000000000000000 ) ) ;
#324 = PRODUCT_DEFINITION ( 'UNKNOWN', '', #29, #292 ) ;
#325 = DIRECTION ( 'NONE',  ( -0.000000000000000000, -1.000000000000000000, -0.000000000000000000 ) ) ;
#326 = EDGE_LOOP ( 'NONE', ( #266, #175, #183, #231 ) ) ;
#327 = FILL_AREA_STYLE_COLOUR ( '', #216 ) ;
#328 = FILL_AREA_STYLE ('',( #327 ) ) ;
#329 = VERTEX_POINT ( 'NONE', #205 ) ;
#330 = COLOUR_RGB ( '',0.7921568627450980005, 0.8196078431372548767, 0.9333333333333333481 ) ;
#331 = PRESENTATION_LAYER_ASSIGNMENT (  '', '', ( #368 ) ) ;
#332 = UNCERTAINTY_MEASURE_WITH_UNIT (LENGTH_MEASURE( 1.000000000000000082E-05 ), #42, 'distance_accuracy_value', 'NONE');
#333 = VECTOR ( 'NONE', #347, 1000.000000000000000 ) ;
#334 = ORIENTED_EDGE ( 'NONE', *, *, #281, .F. ) ;
#335 = ADVANCED_FACE ( 'NONE', ( #94 ), #166, .F. ) ;
#336 = CARTESIAN_POINT ( 'NONE',  ( 0.000000000000000000, 0.000000000000000000, 0.000000000000000000 ) ) ;
#337 = SURFACE_STYLE_FILL_AREA ( #223 ) ;
#338 = FILL_AREA_STYLE ('',( #218 ) ) ;
#339 = EDGE_LOOP ( 'NONE', ( #30, #141, #238, #118 ) ) ;
#340 = CIRCLE ( 'NONE', #92, 4.000000000000000000 ) ;
#341 = DIRECTION ( 'NONE',  ( -0.000000000000000000, -1.000000000000000000, -0.000000000000000000 ) ) ;
#342 = EDGE_CURVE ( 'NONE', #32, #103, #290, .T. ) ;
#343 = CARTESIAN_POINT ( 'NONE',  ( -1.469576158976823750E-15, 75.00000000000000000, 0.000000000000000000 ) ) ;
#344 = ADVANCED_FACE ( 'NONE', ( #139 ), #264, .F. ) ;
#345 = SURFACE_SIDE_STYLE ('',( #229 ) ) ;
#346 = PRESENTATION_LAYER_ASSIGNMENT (  '', '', ( #198 ) ) ;
#347 = DIRECTION ( 'NONE',  ( -0.000000000000000000, -1.000000000000000000, -0.000000000000000000 ) ) ;
#348 = DIRECTION ( 'NONE',  ( -1.000000000000000000, 0.000000000000000000, 0.000000000000000000 ) ) ;
#349 = UNCERTAINTY_MEASURE_WITH_UNIT (LENGTH_MEASURE( 1.000000000000000082E-05 ), #6, 'distance_accuracy_value', 'NONE');
#350 = CARTESIAN_POINT ( 'NONE',  ( 0.000000000000000000, 1.000000000000000000, 0.000000000000000000 ) ) ;
#351 = CARTESIAN_POINT ( 'NONE',  ( 4.898587196589412829E-16, 0.000000000000000000, 4.000000000000000000 ) ) ;
#352 = ORIENTED_EDGE ( 'NONE', *, *, #234, .T. ) ;
#353 =( NAMED_UNIT ( * ) PLANE_ANGLE_UNIT ( ) SI_UNIT ( $, .RADIAN. ) );
#354 =( GEOMETRIC_REPRESENTATION_CONTEXT ( 3 ) GLOBAL_UNCERTAINTY_ASSIGNED_CONTEXT ( ( #43 ) ) GLOBAL_UNIT_ASSIGNED_CONTEXT ( ( #117, #308, #143 ) ) REPRESENTATION_CONTEXT ( 'NONE', 'WORKASPACE' ) );
#355 = COLOUR_RGB ( '',1.000000000000000000, 0.000000000000000000, 0.000000000000000000 ) ;
#356 = ORIENTED_EDGE ( 'NONE', *, *, #124, .T. ) ;
#357 = SURFACE_STYLE_USAGE ( .BOTH. , #145 ) ;
#358 = DIRECTION ( 'NONE',  ( -1.223542297630008506E-16, 1.000000000000000000, -0.000000000000000000 ) ) ;
#359 = ORIENTED_EDGE ( 'NONE', *, *, #369, .T. ) ;
#360 = COLOUR_RGB ( '',1.000000000000000000, 0.000000000000000000, 0.000000000000000000 ) ;
#361 = STYLED_ITEM ( 'NONE', ( #55 ), #263 ) ;
#362 = SURFACE_STYLE_USAGE ( .BOTH. , #243 ) ;
#363 = FILL_AREA_STYLE_COLOUR ( '', #330 ) ;
#364 =( NAMED_UNIT ( * ) SI_UNIT ( $, .STERADIAN. ) SOLID_ANGLE_UNIT ( ) );
#365 = MECHANICAL_DESIGN_GEOMETRIC_PRESENTATION_REPRESENTATION (  '', ( #69 ), #76 ) ;
#366 = COLOUR_RGB ( '',0.7921568627450980005, 0.8196078431372548767, 0.9333333333333333481 ) ;
#367 =( LENGTH_UNIT ( ) NAMED_UNIT ( * ) SI_UNIT ( .MILLI., .METRE. ) );
#368 = STYLED_ITEM ( 'NONE', ( #161 ), #213 ) ;
#369 = EDGE_CURVE ( 'NONE', #370, #46, #211, .T. ) ;
#370 = VERTEX_POINT ( 'NONE', #232 ) ;
ENDSEC;
END-ISO-10303-21;
