ISO-10303-21;
HEADER;
FILE_DESCRIPTION (( 'STEP AP214' ),
    '1' );
FILE_NAME ('Micro_AEMM-120-4X.STEP',
    '2022-03-15T14:31:43',
    ( '' ),
    ( '' ),
    'SwSTEP 2.0',
    'SolidWorks 2022',
    '' );
FILE_SCHEMA (( 'AUTOMOTIVE_DESIGN' ));
ENDSEC;

DATA;
#1 = CARTESIAN_POINT ( 'NONE',  ( 0.000000000000000000, 0.000000000000000000, 3.267717000000000649 ) ) ;
#2 = ORIENTED_EDGE ( 'NONE', *, *, #187, .F. ) ;
#3 = CONICAL_SURFACE ( 'NONE', #72, 0.2359842795000000049, 0.1745329251994338915 ) ;
#4 = AXIS2_PLACEMENT_3D ( 'NONE', #8, #97, #93 ) ;
#5 = FACE_OUTER_BOUND ( 'NONE', #211, .T. ) ;
#6 = VECTOR ( 'NONE', #153, 39.37007874015748854 ) ;
#7 = FACE_OUTER_BOUND ( 'NONE', #42, .T. ) ;
#8 = CARTESIAN_POINT ( 'NONE',  ( 0.000000000000000000, 0.000000000000000000, 0.000000000000000000 ) ) ;
#9 = APPLICATION_PROTOCOL_DEFINITION ( 'draft international standard', 'automotive_design', 1998, #117 ) ;
#10 = CARTESIAN_POINT ( 'NONE',  ( 3.539197317345352573E-33, 0.000000000000000000, 2.889973925387694330E-17 ) ) ;
#11 = AXIS2_PLACEMENT_3D ( 'NONE', #124, #79, #78 ) ;
#12 = CARTESIAN_POINT ( 'NONE',  ( 0.2362204999999999999, 2.892866792179872647E-17, 3.267717000000000649 ) ) ;
#13 = CARTESIAN_POINT ( 'NONE',  ( 0.000000000000000000, 0.000000000000000000, 0.000000000000000000 ) ) ;
#14 = CIRCLE ( 'NONE', #17, 0.2362204999999999999 ) ;
#15 = AXIS2_PLACEMENT_3D ( 'NONE', #74, #289, #171 ) ;
#16 = VERTEX_POINT ( 'NONE', #101 ) ;
#17 = AXIS2_PLACEMENT_3D ( 'NONE', #125, #223, #19 ) ;
#18 =( NAMED_UNIT ( * ) SI_UNIT ( $, .STERADIAN. ) SOLID_ANGLE_UNIT ( ) );
#19 = DIRECTION ( 'NONE',  ( 1.000000000000000000, 0.000000000000000000, 0.000000000000000000 ) ) ;
#20 = ORIENTED_EDGE ( 'NONE', *, *, #201, .T. ) ;
#21 =( CONVERSION_BASED_UNIT ( 'INCH', #182 ) LENGTH_UNIT ( ) NAMED_UNIT ( #199 ) );
#22 = ORIENTED_EDGE ( 'NONE', *, *, #191, .T. ) ;
#23 = CARTESIAN_POINT ( 'NONE',  ( 0.000000000000000000, 0.000000000000000000, 3.267717000000000649 ) ) ;
#24 = ORIENTED_EDGE ( 'NONE', *, *, #159, .F. ) ;
#25 = CIRCLE ( 'NONE', #285, 0.2359842795000000049 ) ;
#26 =( LENGTH_UNIT ( ) NAMED_UNIT ( * ) SI_UNIT ( $, .METRE. ) );
#27 = EDGE_LOOP ( 'NONE', ( #2, #22, #39, #37 ) ) ;
#28 = DIRECTION ( 'NONE',  ( 1.000000000000000000, 0.000000000000000000, -0.000000000000000000 ) ) ;
#29 = VERTEX_POINT ( 'NONE', #224 ) ;
#30 = SURFACE_STYLE_USAGE ( .BOTH. , #134 ) ;
#31 = SHAPE_DEFINITION_REPRESENTATION ( #226, #150 ) ;
#32 = DIMENSIONAL_EXPONENTS ( 1.000000000000000000, 0.000000000000000000, 0.000000000000000000, 0.000000000000000000, 0.000000000000000000, 0.000000000000000000, 0.000000000000000000 ) ;
#33 = AXIS2_PLACEMENT_3D ( 'NONE', #241, #188, #261 ) ;
#34 = EDGE_CURVE ( 'NONE', #111, #16, #193, .T. ) ;
#35 = DIRECTION ( 'NONE',  ( -1.000000000000000000, 0.000000000000000000, 0.000000000000000000 ) ) ;
#36 = LENGTH_MEASURE_WITH_UNIT ( LENGTH_MEASURE( 0.02539999999999999897 ), #104 );
#37 = ORIENTED_EDGE ( 'NONE', *, *, #95, .F. ) ;
#38 = VERTEX_POINT ( 'NONE', #290 ) ;
#39 = ORIENTED_EDGE ( 'NONE', *, *, #262, .T. ) ;
#40 = CARTESIAN_POINT ( 'NONE',  ( 0.000000000000000000, 0.000000000000000000, 3.252717000000002301 ) ) ;
#41 = EDGE_LOOP ( 'NONE', ( #130, #253 ) ) ;
#42 = EDGE_LOOP ( 'NONE', ( #154, #108, #103, #24 ) ) ;
#43 =( NAMED_UNIT ( * ) SI_UNIT ( $, .STERADIAN. ) SOLID_ANGLE_UNIT ( ) );
#44 = DIRECTION ( 'NONE',  ( 0.000000000000000000, 0.000000000000000000, 1.000000000000000000 ) ) ;
#45 = DIRECTION ( 'NONE',  ( 0.1736481776669313859, 0.000000000000000000, 0.9848077530122077983 ) ) ;
#46 = ORIENTED_EDGE ( 'NONE', *, *, #54, .F. ) ;
#47 = MECHANICAL_DESIGN_GEOMETRIC_PRESENTATION_REPRESENTATION (  '', ( #296 ), #221 ) ;
#48 = CARTESIAN_POINT ( 'NONE',  ( -0.2362204999999999999, 0.000000000000000000, 3.252717000000002301 ) ) ;
#49 = EDGE_LOOP ( 'NONE', ( #278, #244, #250, #181 ) ) ;
#50 = SURFACE_SIDE_STYLE ('',( #51 ) ) ;
#51 = SURFACE_STYLE_FILL_AREA ( #234 ) ;
#52 = EDGE_CURVE ( 'NONE', #38, #257, #254, .T. ) ;
#53 = CARTESIAN_POINT ( 'NONE',  ( 0.2359842795000000049, 2.889973925387693713E-17, 0.000000000000000000 ) ) ;
#54 = EDGE_CURVE ( 'NONE', #90, #16, #14, .T. ) ;
#55 = LINE ( 'NONE', #141, #288 ) ;
#56 = PRODUCT_DEFINITION_FORMATION_WITH_SPECIFIED_SOURCE ( 'ANY', '', #144, .NOT_KNOWN. ) ;
#57 = DIRECTION ( 'NONE',  ( 1.000000000000000000, 0.000000000000000000, 0.000000000000000000 ) ) ;
#58 = UNCERTAINTY_MEASURE_WITH_UNIT (LENGTH_MEASURE( 1.000000000000000082E-05 ), #277, 'distance_accuracy_value', 'NONE');
#59 = CONICAL_SURFACE ( 'NONE', #236, 0.2212205000000019295, 0.7853981633974482790 ) ;
#60 = DIRECTION ( 'NONE',  ( -1.000000000000000000, 0.000000000000000000, 1.224646799147353454E-16 ) ) ;
#61 = CARTESIAN_POINT ( 'NONE',  ( 0.000000000000000000, 0.000000000000000000, 3.267717000000000649 ) ) ;
#62 = ORIENTED_EDGE ( 'NONE', *, *, #162, .F. ) ;
#63 =( NAMED_UNIT ( * ) PLANE_ANGLE_UNIT ( ) SI_UNIT ( $, .RADIAN. ) );
#64 = CIRCLE ( 'NONE', #11, 0.2212205000000019295 ) ;
#65 = LENGTH_MEASURE_WITH_UNIT ( LENGTH_MEASURE( 0.02539999999999999897 ), #26 );
#66 = EDGE_LOOP ( 'NONE', ( #228, #20, #248, #186 ) ) ;
#67 = CYLINDRICAL_SURFACE ( 'NONE', #129, 0.2362204999999999999 ) ;
#68 = EDGE_LOOP ( 'NONE', ( #87, #237, #231, #62 ) ) ;
#69 = VECTOR ( 'NONE', #192, 39.37007874015747433 ) ;
#70 = PRODUCT_CONTEXT ( 'NONE', #294, 'mechanical' ) ;
#71 = DIRECTION ( 'NONE',  ( -1.000000000000000000, 0.000000000000000000, 1.224646799147353454E-16 ) ) ;
#72 = AXIS2_PLACEMENT_3D ( 'NONE', #132, #85, #207 ) ;
#73 = CYLINDRICAL_SURFACE ( 'NONE', #268, 0.2362204999999999999 ) ;
#74 = CARTESIAN_POINT ( 'NONE',  ( 0.000000000000000000, 0.000000000000000000, 3.267717000000000649 ) ) ;
#75 = STYLED_ITEM ( 'NONE', ( #210 ), #100 ) ;
#76 = DIRECTION ( 'NONE',  ( -1.224646799147353454E-16, -0.000000000000000000, -1.000000000000000000 ) ) ;
#77 = AXIS2_PLACEMENT_3D ( 'NONE', #242, #145, #57 ) ;
#78 = DIRECTION ( 'NONE',  ( 1.000000000000000000, 0.000000000000000000, 0.000000000000000000 ) ) ;
#79 = DIRECTION ( 'NONE',  ( 0.000000000000000000, 0.000000000000000000, 1.000000000000000000 ) ) ;
#80 = CARTESIAN_POINT ( 'NONE',  ( 0.2362204999999999999, 2.892866792179872647E-17, 3.252717000000002301 ) ) ;
#81 = CONICAL_SURFACE ( 'NONE', #295, 0.2359842795000000049, 0.1745329251994338915 ) ;
#82 = CARTESIAN_POINT ( 'NONE',  ( -0.2359842795000000049, 0.000000000000000000, 2.889973925387694330E-17 ) ) ;
#83 = VERTEX_POINT ( 'NONE', #80 ) ;
#84 = EDGE_CURVE ( 'NONE', #299, #83, #174, .T. ) ;
#85 = DIRECTION ( 'NONE',  ( 1.224646799147353454E-16, 0.000000000000000000, 1.000000000000000000 ) ) ;
#86 = CARTESIAN_POINT ( 'NONE',  ( 0.2212205000000019295, 2.709169772307794108E-17, 3.267717000000000649 ) ) ;
#87 = ORIENTED_EDGE ( 'NONE', *, *, #198, .F. ) ;
#88 = CLOSED_SHELL ( 'NONE', ( #149, #142, #238, #176, #209, #158, #135, #131, #165, #156 ) ) ;
#89 = DIRECTION ( 'NONE',  ( -1.000000000000000000, 0.000000000000000000, 0.000000000000000000 ) ) ;
#90 = VERTEX_POINT ( 'NONE', #252 ) ;
#91 = EDGE_CURVE ( 'NONE', #233, #299, #220, .T. ) ;
#92 = ORIENTED_EDGE ( 'NONE', *, *, #84, .F. ) ;
#93 = DIRECTION ( 'NONE',  ( 1.000000000000000000, 0.000000000000000000, 0.000000000000000000 ) ) ;
#94 = COLOUR_RGB ( '',0.7921568627450980005, 0.8196078431372548767, 0.9333333333333333481 ) ;
#95 = EDGE_CURVE ( 'NONE', #38, #90, #110, .T. ) ;
#96 = DIRECTION ( 'NONE',  ( -1.224646799147353454E-16, -0.000000000000000000, -1.000000000000000000 ) ) ;
#97 = DIRECTION ( 'NONE',  ( 0.000000000000000000, 0.000000000000000000, 1.000000000000000000 ) ) ;
#98 = DIRECTION ( 'NONE',  ( -1.000000000000000000, 0.000000000000000000, 0.000000000000000000 ) ) ;
#99 = CIRCLE ( 'NONE', #33, 0.2359842795000000049 ) ;
#100 = MANIFOLD_SOLID_BREP ( 'Cut-Revolve1', #88 ) ;
#101 = CARTESIAN_POINT ( 'NONE',  ( -0.2362204999999998611, 0.000000000000000000, 1.182441673027071039 ) ) ;
#102 = FILL_AREA_STYLE ('',( #218 ) ) ;
#103 = ORIENTED_EDGE ( 'NONE', *, *, #214, .F. ) ;
#104 =( LENGTH_UNIT ( ) NAMED_UNIT ( * ) SI_UNIT ( $, .METRE. ) );
#105 = PRODUCT_DEFINITION_CONTEXT ( 'detailed design', #117, 'design' ) ;
#106 = DIRECTION ( 'NONE',  ( 0.000000000000000000, 0.000000000000000000, 1.000000000000000000 ) ) ;
#107 = AXIS2_PLACEMENT_3D ( 'NONE', #232, #44, #28 ) ;
#108 = ORIENTED_EDGE ( 'NONE', *, *, #198, .T. ) ;
#109 = FACE_OUTER_BOUND ( 'NONE', #119, .T. ) ;
#110 = LINE ( 'NONE', #185, #166 ) ;
#111 = VERTEX_POINT ( 'NONE', #48 ) ;
#112 = AXIS2_PLACEMENT_3D ( 'NONE', #23, #106, #202 ) ;
#113 = DIRECTION ( 'NONE',  ( -0.000000000000000000, -0.000000000000000000, -1.000000000000000000 ) ) ;
#114 = CARTESIAN_POINT ( 'NONE',  ( 1.446432783766537492E-16, 0.000000000000000000, 1.181102000000000096 ) ) ;
#115 = FACE_OUTER_BOUND ( 'NONE', #68, .T. ) ;
#116 =( CONVERSION_BASED_UNIT ( 'INCH', #36 ) LENGTH_UNIT ( ) NAMED_UNIT ( #32 ) );
#117 = APPLICATION_CONTEXT ( 'automotive_design' ) ;
#118 = APPLICATION_PROTOCOL_DEFINITION ( 'draft international standard', 'automotive_design', 1998, #294 ) ;
#119 = EDGE_LOOP ( 'NONE', ( #200, #225, #298, #276 ) ) ;
#120 = UNCERTAINTY_MEASURE_WITH_UNIT (LENGTH_MEASURE( 1.000000000000000082E-05 ), #21, 'distance_accuracy_value', 'NONE');
#121 = DIRECTION ( 'NONE',  ( -0.7071067811865474617, 0.000000000000000000, -0.7071067811865474617 ) ) ;
#122 =( GEOMETRIC_REPRESENTATION_CONTEXT ( 3 ) GLOBAL_UNCERTAINTY_ASSIGNED_CONTEXT ( ( #58 ) ) GLOBAL_UNIT_ASSIGNED_CONTEXT ( ( #277, #281, #280 ) ) REPRESENTATION_CONTEXT ( 'NONE', 'WORKASPACE' ) );
#123 = PRODUCT_DEFINITION ( 'UNKNOWN', '', #56, #105 ) ;
#124 = CARTESIAN_POINT ( 'NONE',  ( 0.000000000000000000, 0.000000000000000000, 3.267717000000000649 ) ) ;
#125 = CARTESIAN_POINT ( 'NONE',  ( 1.448073410051043844E-16, 0.000000000000000000, 1.182441673027071039 ) ) ;
#126 = FACE_OUTER_BOUND ( 'NONE', #41, .T. ) ;
#127 = PRESENTATION_STYLE_ASSIGNMENT (( #30 ) ) ;
#128 = FILL_AREA_STYLE_COLOUR ( '', #264 ) ;
#130 = ORIENTED_EDGE ( 'NONE', *, *, #91, .T. ) ;
#129 = AXIS2_PLACEMENT_3D ( 'NONE', #215, #160, #189 ) ;
#131 = ADVANCED_FACE ( 'NONE', ( #109 ), #3, .T. ) ;
#132 = CARTESIAN_POINT ( 'NONE',  ( 1.446432783766537492E-16, 0.000000000000000000, 1.181102000000000096 ) ) ;
#133 = ORIENTED_EDGE ( 'NONE', *, *, #214, .T. ) ;
#134 = SURFACE_SIDE_STYLE ('',( #270 ) ) ;
#135 = ADVANCED_FACE ( 'NONE', ( #5 ), #59, .T. ) ;
#136 = CONICAL_SURFACE ( 'NONE', #15, 0.2212205000000019295, 0.7853981633974482790 ) ;
#137 = LINE ( 'NONE', #12, #208 ) ;
#138 = DIRECTION ( 'NONE',  ( -1.224646799147353454E-16, -0.000000000000000000, -1.000000000000000000 ) ) ;
#139 = VECTOR ( 'NONE', #121, 39.37007874015748854 ) ;
#140 = CYLINDRICAL_SURFACE ( 'NONE', #255, 0.2359842795000000049 ) ;
#141 = CARTESIAN_POINT ( 'NONE',  ( 0.2359842795000000049, 2.889973925387693713E-17, -2.889973925387694330E-17 ) ) ;
#142 = ADVANCED_FACE ( 'NONE', ( #260 ), #81, .T. ) ;
#143 = CIRCLE ( 'NONE', #170, 0.2362204999999999999 ) ;
#144 = PRODUCT ( 'Micro_AEMM-120-4X', 'Micro_AEMM-120-4X', '', ( #70 ) ) ;
#145 = DIRECTION ( 'NONE',  ( -1.224646799147353454E-16, -0.000000000000000000, -1.000000000000000000 ) ) ;
#146 = DIRECTION ( 'NONE',  ( 0.000000000000000000, 0.000000000000000000, -1.000000000000000000 ) ) ;
#147 = ORIENTED_EDGE ( 'NONE', *, *, #279, .T. ) ;
#148 = DIRECTION ( 'NONE',  ( -1.000000000000000000, 0.000000000000000000, 0.000000000000000000 ) ) ;
#149 = ADVANCED_FACE ( 'NONE', ( #7 ), #256, .T. ) ;
#150 = ADVANCED_BREP_SHAPE_REPRESENTATION ( 'Micro_AEMM-120-4X', ( #100, #4 ), #190 ) ;
#151 = UNCERTAINTY_MEASURE_WITH_UNIT (LENGTH_MEASURE( 1.000000000000000082E-05 ), #116, 'distance_accuracy_value', 'NONE');
#152 = CARTESIAN_POINT ( 'NONE',  ( 1.446432783766537492E-16, 0.000000000000000000, 1.181102000000000096 ) ) ;
#153 = DIRECTION ( 'NONE',  ( 0.7071067811865474617, 8.659560562354932858E-17, -0.7071067811865474617 ) ) ;
#154 = ORIENTED_EDGE ( 'NONE', *, *, #187, .T. ) ;
#155 = DIRECTION ( 'NONE',  ( 1.224646799147353454E-16, 0.000000000000000000, 1.000000000000000000 ) ) ;
#156 = ADVANCED_FACE ( 'NONE', ( #251 ), #183, .F. ) ;
#157 = DIRECTION ( 'NONE',  ( 1.000000000000000000, 0.000000000000000000, 0.000000000000000000 ) ) ;
#158 = ADVANCED_FACE ( 'NONE', ( #126 ), #227, .T. ) ;
#159 = EDGE_CURVE ( 'NONE', #257, #29, #297, .T. ) ;
#160 = DIRECTION ( 'NONE',  ( -0.000000000000000000, -0.000000000000000000, -1.000000000000000000 ) ) ;
#161 = AXIS2_PLACEMENT_3D ( 'NONE', #10, #138, #287 ) ;
#162 = EDGE_CURVE ( 'NONE', #196, #29, #99, .T. ) ;
#163 = FACE_OUTER_BOUND ( 'NONE', #66, .T. ) ;
#164 = DIRECTION ( 'NONE',  ( -0.000000000000000000, -0.000000000000000000, -1.000000000000000000 ) ) ;
#165 = ADVANCED_FACE ( 'NONE', ( #115 ), #140, .T. ) ;
#166 = VECTOR ( 'NONE', #45, 39.37007874015748143 ) ;
#167 = LINE ( 'NONE', #245, #139 ) ;
#168 = PRODUCT_RELATED_PRODUCT_CATEGORY ( 'part', '', ( #144 ) ) ;
#169 = FACE_OUTER_BOUND ( 'NONE', #49, .T. ) ;
#170 = AXIS2_PLACEMENT_3D ( 'NONE', #40, #146, #222 ) ;
#171 = DIRECTION ( 'NONE',  ( -1.000000000000000000, 0.000000000000000000, 0.000000000000000000 ) ) ;
#172 = DIRECTION ( 'NONE',  ( -0.000000000000000000, -0.000000000000000000, -1.000000000000000000 ) ) ;
#173 = DIRECTION ( 'NONE',  ( 1.000000000000000000, 0.000000000000000000, 0.000000000000000000 ) ) ;
#174 = LINE ( 'NONE', #86, #6 ) ;
#175 = PRESENTATION_LAYER_ASSIGNMENT (  '', '', ( #75 ) ) ;
#176 = ADVANCED_FACE ( 'NONE', ( #163 ), #73, .T. ) ;
#177 = CARTESIAN_POINT ( 'NONE',  ( 0.000000000000000000, 0.000000000000000000, 0.000000000000000000 ) ) ;
#178 = CIRCLE ( 'NONE', #243, 0.2362204999999999999 ) ;
#179 = DIRECTION ( 'NONE',  ( -1.224646799147353454E-16, -0.000000000000000000, -1.000000000000000000 ) ) ;
#180 = DIMENSIONAL_EXPONENTS ( 1.000000000000000000, 0.000000000000000000, 0.000000000000000000, 0.000000000000000000, 0.000000000000000000, 0.000000000000000000, 0.000000000000000000 ) ;
#181 = ORIENTED_EDGE ( 'NONE', *, *, #279, .F. ) ;
#182 = LENGTH_MEASURE_WITH_UNIT ( LENGTH_MEASURE( 0.02539999999999999897 ), #204 );
#183 = PLANE ( 'NONE',  #107 ) ;
#184 = ORIENTED_EDGE ( 'NONE', *, *, #34, .T. ) ;
#185 = CARTESIAN_POINT ( 'NONE',  ( 0.2359842795000001436, 0.000000000000000000, 1.181102000000000096 ) ) ;
#186 = ORIENTED_EDGE ( 'NONE', *, *, #34, .F. ) ;
#187 = EDGE_CURVE ( 'NONE', #257, #38, #25, .T. ) ;
#188 = DIRECTION ( 'NONE',  ( -1.224646799147353454E-16, -0.000000000000000000, -1.000000000000000000 ) ) ;
#189 = DIRECTION ( 'NONE',  ( -1.000000000000000000, 0.000000000000000000, 0.000000000000000000 ) ) ;
#190 =( GEOMETRIC_REPRESENTATION_CONTEXT ( 3 ) GLOBAL_UNCERTAINTY_ASSIGNED_CONTEXT ( ( #151 ) ) GLOBAL_UNIT_ASSIGNED_CONTEXT ( ( #116, #216, #18 ) ) REPRESENTATION_CONTEXT ( 'NONE', 'WORKASPACE' ) );
#191 = EDGE_CURVE ( 'NONE', #257, #16, #286, .T. ) ;
#192 = DIRECTION ( 'NONE',  ( -0.1736481776669311916, 2.126576849575783316E-17, 0.9848077530122080203 ) ) ;
#193 = LINE ( 'NONE', #194, #272 ) ;
#194 = CARTESIAN_POINT ( 'NONE',  ( -0.2362204999999999999, 0.000000000000000000, 3.267717000000000649 ) ) ;
#195 = AXIS2_PLACEMENT_3D ( 'NONE', #197, #76, #148 ) ;
#196 = VERTEX_POINT ( 'NONE', #53 ) ;
#197 = CARTESIAN_POINT ( 'NONE',  ( 1.446432783766537492E-16, 0.000000000000000000, 1.181102000000000096 ) ) ;
#198 = EDGE_CURVE ( 'NONE', #38, #196, #55, .T. ) ;
#199 = DIMENSIONAL_EXPONENTS ( 1.000000000000000000, 0.000000000000000000, 0.000000000000000000, 0.000000000000000000, 0.000000000000000000, 0.000000000000000000, 0.000000000000000000 ) ;
#200 = ORIENTED_EDGE ( 'NONE', *, *, #191, .F. ) ;
#201 = EDGE_CURVE ( 'NONE', #83, #90, #137, .T. ) ;
#202 = DIRECTION ( 'NONE',  ( 1.000000000000000000, 0.000000000000000000, -0.000000000000000000 ) ) ;
#203 = PRESENTATION_LAYER_ASSIGNMENT (  '', '', ( #296 ) ) ;
#204 =( LENGTH_UNIT ( ) NAMED_UNIT ( * ) SI_UNIT ( $, .METRE. ) );
#205 = ORIENTED_EDGE ( 'NONE', *, *, #247, .F. ) ;
#206 = ORIENTED_EDGE ( 'NONE', *, *, #91, .F. ) ;
#207 = DIRECTION ( 'NONE',  ( 1.000000000000000000, 0.000000000000000000, 0.000000000000000000 ) ) ;
#208 = VECTOR ( 'NONE', #164, 39.37007874015748143 ) ;
#209 = ADVANCED_FACE ( 'NONE', ( #239 ), #67, .T. ) ;
#210 = PRESENTATION_STYLE_ASSIGNMENT (( #230 ) ) ;
#211 = EDGE_LOOP ( 'NONE', ( #92, #206, #147, #205 ) ) ;
#212 = MECHANICAL_DESIGN_GEOMETRIC_PRESENTATION_REPRESENTATION (  '', ( #75 ), #122 ) ;
#213 = CARTESIAN_POINT ( 'NONE',  ( -0.2359842794999998661, 2.889973925387693713E-17, 1.181102000000000096 ) ) ;
#214 = EDGE_CURVE ( 'NONE', #29, #196, #273, .T. ) ;
#215 = CARTESIAN_POINT ( 'NONE',  ( 0.000000000000000000, 0.000000000000000000, 3.267717000000000649 ) ) ;
#216 =( NAMED_UNIT ( * ) PLANE_ANGLE_UNIT ( ) SI_UNIT ( $, .RADIAN. ) );
#217 = ORIENTED_EDGE ( 'NONE', *, *, #162, .T. ) ;
#218 = FILL_AREA_STYLE_COLOUR ( '', #94 ) ;
#219 = ORIENTED_EDGE ( 'NONE', *, *, #247, .T. ) ;
#220 = CIRCLE ( 'NONE', #291, 0.2212205000000019295 ) ;
#221 =( GEOMETRIC_REPRESENTATION_CONTEXT ( 3 ) GLOBAL_UNCERTAINTY_ASSIGNED_CONTEXT ( ( #120 ) ) GLOBAL_UNIT_ASSIGNED_CONTEXT ( ( #21, #63, #43 ) ) REPRESENTATION_CONTEXT ( 'NONE', 'WORKASPACE' ) );
#222 = DIRECTION ( 'NONE',  ( 1.000000000000000000, 0.000000000000000000, 0.000000000000000000 ) ) ;
#223 = DIRECTION ( 'NONE',  ( -1.224646799147353454E-16, -0.000000000000000000, -1.000000000000000000 ) ) ;
#224 = CARTESIAN_POINT ( 'NONE',  ( -0.2359842795000000049, 0.000000000000000000, 5.779947850775388659E-17 ) ) ;
#225 = ORIENTED_EDGE ( 'NONE', *, *, #52, .F. ) ;
#226 = PRODUCT_DEFINITION_SHAPE ( 'NONE', 'NONE',  #123 ) ;
#227 = PLANE ( 'NONE',  #112 ) ;
#228 = ORIENTED_EDGE ( 'NONE', *, *, #266, .T. ) ;
#229 = VECTOR ( 'NONE', #179, 39.37007874015748143 ) ;
#230 = SURFACE_STYLE_USAGE ( .BOTH. , #50 ) ;
#231 = ORIENTED_EDGE ( 'NONE', *, *, #159, .T. ) ;
#232 = CARTESIAN_POINT ( 'NONE',  ( 0.000000000000000000, 0.000000000000000000, 0.000000000000000000 ) ) ;
#233 = VERTEX_POINT ( 'NONE', #292 ) ;
#234 = FILL_AREA_STYLE ('',( #128 ) ) ;
#235 = DIRECTION ( 'NONE',  ( 1.000000000000000000, 0.000000000000000000, 0.000000000000000000 ) ) ;
#236 = AXIS2_PLACEMENT_3D ( 'NONE', #61, #259, #89 ) ;
#237 = ORIENTED_EDGE ( 'NONE', *, *, #52, .T. ) ;
#238 = ADVANCED_FACE ( 'NONE', ( #169 ), #136, .T. ) ;
#239 = FACE_OUTER_BOUND ( 'NONE', #240, .T. ) ;
#240 = EDGE_LOOP ( 'NONE', ( #283, #219, #184, #46 ) ) ;
#241 = CARTESIAN_POINT ( 'NONE',  ( 3.539197317345352573E-33, 0.000000000000000000, 2.889973925387694330E-17 ) ) ;
#242 = CARTESIAN_POINT ( 'NONE',  ( 1.448073410051043844E-16, 0.000000000000000000, 1.182441673027071039 ) ) ;
#243 = AXIS2_PLACEMENT_3D ( 'NONE', #269, #293, #173 ) ;
#244 = ORIENTED_EDGE ( 'NONE', *, *, #84, .T. ) ;
#245 = CARTESIAN_POINT ( 'NONE',  ( -0.2212205000000019295, 0.000000000000000000, 3.267717000000000649 ) ) ;
#246 = CARTESIAN_POINT ( 'NONE',  ( -0.2359842794999998661, 2.891420358783783796E-17, 1.181102000000000096 ) ) ;
#247 = EDGE_CURVE ( 'NONE', #83, #111, #178, .T. ) ;
#248 = ORIENTED_EDGE ( 'NONE', *, *, #262, .F. ) ;
#249 = CIRCLE ( 'NONE', #77, 0.2362204999999999999 ) ;
#250 = ORIENTED_EDGE ( 'NONE', *, *, #266, .F. ) ;
#251 = FACE_OUTER_BOUND ( 'NONE', #271, .T. ) ;
#252 = CARTESIAN_POINT ( 'NONE',  ( 0.2362205000000001665, 2.892866792179874496E-17, 1.182441673027071039 ) ) ;
#253 = ORIENTED_EDGE ( 'NONE', *, *, #258, .T. ) ;
#254 = CIRCLE ( 'NONE', #195, 0.2359842795000000049 ) ;
#255 = AXIS2_PLACEMENT_3D ( 'NONE', #13, #282, #71 ) ;
#256 = CYLINDRICAL_SURFACE ( 'NONE', #265, 0.2359842795000000049 ) ;
#257 = VERTEX_POINT ( 'NONE', #246 ) ;
#258 = EDGE_CURVE ( 'NONE', #299, #233, #64, .T. ) ;
#259 = DIRECTION ( 'NONE',  ( 0.000000000000000000, 0.000000000000000000, -1.000000000000000000 ) ) ;
#260 = FACE_OUTER_BOUND ( 'NONE', #27, .T. ) ;
#261 = DIRECTION ( 'NONE',  ( -1.000000000000000000, 0.000000000000000000, 1.224646799147353454E-16 ) ) ;
#262 = EDGE_CURVE ( 'NONE', #16, #90, #249, .T. ) ;
#263 = DIRECTION ( 'NONE',  ( -1.224646799147353454E-16, -0.000000000000000000, -1.000000000000000000 ) ) ;
#264 = COLOUR_RGB ( '',0.7921568627450980005, 0.8196078431372548767, 0.9333333333333333481 ) ;
#265 = AXIS2_PLACEMENT_3D ( 'NONE', #177, #274, #60 ) ;
#266 = EDGE_CURVE ( 'NONE', #111, #83, #143, .T. ) ;
#267 = CARTESIAN_POINT ( 'NONE',  ( 0.2212205000000019295, 2.801018282243833685E-17, 3.267717000000000649 ) ) ;
#268 = AXIS2_PLACEMENT_3D ( 'NONE', #284, #113, #35 ) ;
#269 = CARTESIAN_POINT ( 'NONE',  ( 0.000000000000000000, 0.000000000000000000, 3.252717000000002301 ) ) ;
#270 = SURFACE_STYLE_FILL_AREA ( #102 ) ;
#271 = EDGE_LOOP ( 'NONE', ( #133, #217 ) ) ;
#272 = VECTOR ( 'NONE', #172, 39.37007874015748143 ) ;
#273 = CIRCLE ( 'NONE', #161, 0.2359842795000000049 ) ;
#274 = DIRECTION ( 'NONE',  ( -1.224646799147353454E-16, -0.000000000000000000, -1.000000000000000000 ) ) ;
#275 = DIRECTION ( 'NONE',  ( 0.000000000000000000, 0.000000000000000000, 1.000000000000000000 ) ) ;
#276 = ORIENTED_EDGE ( 'NONE', *, *, #54, .T. ) ;
#277 =( CONVERSION_BASED_UNIT ( 'INCH', #65 ) LENGTH_UNIT ( ) NAMED_UNIT ( #180 ) );
#278 = ORIENTED_EDGE ( 'NONE', *, *, #258, .F. ) ;
#279 = EDGE_CURVE ( 'NONE', #233, #111, #167, .T. ) ;
#280 =( NAMED_UNIT ( * ) SI_UNIT ( $, .STERADIAN. ) SOLID_ANGLE_UNIT ( ) );
#281 =( NAMED_UNIT ( * ) PLANE_ANGLE_UNIT ( ) SI_UNIT ( $, .RADIAN. ) );
#282 = DIRECTION ( 'NONE',  ( -1.224646799147353454E-16, -0.000000000000000000, -1.000000000000000000 ) ) ;
#283 = ORIENTED_EDGE ( 'NONE', *, *, #201, .F. ) ;
#284 = CARTESIAN_POINT ( 'NONE',  ( 0.000000000000000000, 0.000000000000000000, 3.267717000000000649 ) ) ;
#285 = AXIS2_PLACEMENT_3D ( 'NONE', #114, #263, #98 ) ;
#286 = LINE ( 'NONE', #213, #69 ) ;
#287 = DIRECTION ( 'NONE',  ( -1.000000000000000000, 0.000000000000000000, 1.224646799147353454E-16 ) ) ;
#288 = VECTOR ( 'NONE', #96, 39.37007874015748143 ) ;
#289 = DIRECTION ( 'NONE',  ( 0.000000000000000000, 0.000000000000000000, -1.000000000000000000 ) ) ;
#290 = CARTESIAN_POINT ( 'NONE',  ( 0.2359842795000001436, 0.000000000000000000, 1.181102000000000096 ) ) ;
#291 = AXIS2_PLACEMENT_3D ( 'NONE', #1, #275, #157 ) ;
#292 = CARTESIAN_POINT ( 'NONE',  ( -0.2212205000000019295, 0.000000000000000000, 3.267717000000000649 ) ) ;
#293 = DIRECTION ( 'NONE',  ( 0.000000000000000000, 0.000000000000000000, -1.000000000000000000 ) ) ;
#294 = APPLICATION_CONTEXT ( 'automotive_design' ) ;
#295 = AXIS2_PLACEMENT_3D ( 'NONE', #152, #155, #235 ) ;
#296 = STYLED_ITEM ( 'NONE', ( #127 ), #150 ) ;
#297 = LINE ( 'NONE', #82, #229 ) ;
#298 = ORIENTED_EDGE ( 'NONE', *, *, #95, .T. ) ;
#299 = VERTEX_POINT ( 'NONE', #267 ) ;
ENDSEC;
END-ISO-10303-21;
