ISO-10303-21;
HEADER;
FILE_DESCRIPTION (( 'STEP AP214' ),
    '1' );
FILE_NAME ('24392.STEP',
    '2023-06-22T17:11:34',
    ( '' ),
    ( '' ),
    'SwSTEP 2.0',
    'SolidWorks 2023',
    '' );
FILE_SCHEMA (( 'AUTOMOTIVE_DESIGN' ));
ENDSEC;

DATA;
#1 = DIRECTION ( 'NONE',  ( 0.000000000000000000, 0.000000000000000000, -1.000000000000000000 ) ) ;
#2 = ORIENTED_EDGE ( 'NONE', *, *, #178, .F. ) ;
#3 =( NAMED_UNIT ( * ) SI_UNIT ( $, .STERADIAN. ) SOLID_ANGLE_UNIT ( ) );
#4 = CARTESIAN_POINT ( 'NONE',  ( 3.673940397442059375E-16, 3.000000000000000444, 0.000000000000000000 ) ) ;
#5 = CARTESIAN_POINT ( 'NONE',  ( 0.000000000000000000, 0.7499999999999998890, 0.000000000000000000 ) ) ;
#6 = EDGE_LOOP ( 'NONE', ( #186, #2 ) ) ;
#7 = PRESENTATION_LAYER_ASSIGNMENT (  '', '', ( #36 ) ) ;
#8 = LENGTH_MEASURE_WITH_UNIT ( LENGTH_MEASURE( 0.02539999999999999897 ), #52 );
#9 = CARTESIAN_POINT ( 'NONE',  ( -0.3124999999999993339, 3.000000000000000444, 0.000000000000000000 ) ) ;
#10 = LINE ( 'NONE', #129, #266 ) ;
#11 = PRESENTATION_LAYER_ASSIGNMENT (  '', '', ( #181 ) ) ;
#12 = FACE_OUTER_BOUND ( 'NONE', #177, .T. ) ;
#13 = DIRECTION ( 'NONE',  ( -1.632862398863137527E-16, -1.000000000000000000, 0.000000000000000000 ) ) ;
#14 = DIRECTION ( 'NONE',  ( 1.632862398863137527E-16, 1.000000000000000000, -0.000000000000000000 ) ) ;
#15 = SURFACE_STYLE_USAGE ( .BOTH. , #236 ) ;
#16 = CIRCLE ( 'NONE', #216, 0.3124999999999996669 ) ;
#17 = ORIENTED_EDGE ( 'NONE', *, *, #119, .F. ) ;
#18 = EDGE_CURVE ( 'NONE', #201, #56, #304, .T. ) ;
#19 =( GEOMETRIC_REPRESENTATION_CONTEXT ( 3 ) GLOBAL_UNCERTAINTY_ASSIGNED_CONTEXT ( ( #151 ) ) GLOBAL_UNIT_ASSIGNED_CONTEXT ( ( #280, #197, #137 ) ) REPRESENTATION_CONTEXT ( 'NONE', 'WORKASPACE' ) );
#20 = ORIENTED_EDGE ( 'NONE', *, *, #18, .T. ) ;
#21 = LINE ( 'NONE', #251, #202 ) ;
#22 = ORIENTED_EDGE ( 'NONE', *, *, #147, .F. ) ;
#23 = MECHANICAL_DESIGN_GEOMETRIC_PRESENTATION_REPRESENTATION (  '', ( #36 ), #40 ) ;
#24 = AXIS2_PLACEMENT_3D ( 'NONE', #78, #206, #109 ) ;
#25 = FILL_AREA_STYLE_COLOUR ( '', #138 ) ;
#26 = ORIENTED_EDGE ( 'NONE', *, *, #49, .T. ) ;
#27 =( CONVERSION_BASED_UNIT ( 'INCH', #228 ) LENGTH_UNIT ( ) NAMED_UNIT ( #273 ) );
#28 = SURFACE_STYLE_FILL_AREA ( #55 ) ;
#29 = DIRECTION ( 'NONE',  ( -1.000000000000000000, 0.000000000000000000, 0.000000000000000000 ) ) ;
#30 = COLOUR_RGB ( '',1.000000000000000000, 0.000000000000000000, 0.000000000000000000 ) ;
#31 =( GEOMETRIC_REPRESENTATION_CONTEXT ( 3 ) GLOBAL_UNCERTAINTY_ASSIGNED_CONTEXT ( ( #288 ) ) GLOBAL_UNIT_ASSIGNED_CONTEXT ( ( #183, #110, #298 ) ) REPRESENTATION_CONTEXT ( 'NONE', 'WORKASPACE' ) );
#32 =( LENGTH_UNIT ( ) NAMED_UNIT ( * ) SI_UNIT ( $, .METRE. ) );
#33 =( CONVERSION_BASED_UNIT ( 'INCH', #256 ) LENGTH_UNIT ( ) NAMED_UNIT ( #211 ) );
#34 = DIRECTION ( 'NONE',  ( 1.632862398863137527E-16, 1.000000000000000000, -0.000000000000000000 ) ) ;
#35 = LENGTH_MEASURE_WITH_UNIT ( LENGTH_MEASURE( 0.02539999999999999897 ), #39 );
#36 = STYLED_ITEM ( 'NONE', ( #58 ), #87 ) ;
#37 = MECHANICAL_DESIGN_GEOMETRIC_PRESENTATION_REPRESENTATION (  '', ( #47 ), #19 ) ;
#38 = SURFACE_STYLE_FILL_AREA ( #300 ) ;
#39 =( LENGTH_UNIT ( ) NAMED_UNIT ( * ) SI_UNIT ( $, .METRE. ) );
#40 =( GEOMETRIC_REPRESENTATION_CONTEXT ( 3 ) GLOBAL_UNCERTAINTY_ASSIGNED_CONTEXT ( ( #286 ) ) GLOBAL_UNIT_ASSIGNED_CONTEXT ( ( #27, #209, #252 ) ) REPRESENTATION_CONTEXT ( 'NONE', 'WORKASPACE' ) );
#41 =( GEOMETRIC_REPRESENTATION_CONTEXT ( 3 ) GLOBAL_UNCERTAINTY_ASSIGNED_CONTEXT ( ( #225 ) ) GLOBAL_UNIT_ASSIGNED_CONTEXT ( ( #33, #278, #218 ) ) REPRESENTATION_CONTEXT ( 'NONE', 'WORKASPACE' ) );
#42 = UNCERTAINTY_MEASURE_WITH_UNIT (LENGTH_MEASURE( 1.000000000000000082E-05 ), #98, 'distance_accuracy_value', 'NONE');
#43 = VERTEX_POINT ( 'NONE', #60 ) ;
#44 = EDGE_LOOP ( 'NONE', ( #120, #91, #214, #290 ) ) ;
#45 = DIMENSIONAL_EXPONENTS ( 1.000000000000000000, 0.000000000000000000, 0.000000000000000000, 0.000000000000000000, 0.000000000000000000, 0.000000000000000000, 0.000000000000000000 ) ;
#46 = DIRECTION ( 'NONE',  ( -1.000000000000000000, 0.000000000000000000, 0.000000000000000000 ) ) ;
#47 = STYLED_ITEM ( 'NONE', ( #262 ), #277 ) ;
#48 = ORIENTED_EDGE ( 'NONE', *, *, #250, .F. ) ;
#49 = EDGE_CURVE ( 'NONE', #234, #247, #199, .T. ) ;
#50 = FACE_OUTER_BOUND ( 'NONE', #224, .T. ) ;
#51 = DIMENSIONAL_EXPONENTS ( 1.000000000000000000, 0.000000000000000000, 0.000000000000000000, 0.000000000000000000, 0.000000000000000000, 0.000000000000000000, 0.000000000000000000 ) ;
#52 =( LENGTH_UNIT ( ) NAMED_UNIT ( * ) SI_UNIT ( $, .METRE. ) );
#53 = ORIENTED_EDGE ( 'NONE', *, *, #49, .F. ) ;
#54 = MECHANICAL_DESIGN_GEOMETRIC_PRESENTATION_REPRESENTATION (  '', ( #196 ), #31 ) ;
#55 = FILL_AREA_STYLE ('',( #81 ) ) ;
#56 = VERTEX_POINT ( 'NONE', #179 ) ;
#57 = CARTESIAN_POINT ( 'NONE',  ( -6.065921084684207584E-32, 0.7499999999999998890, 0.000000000000000000 ) ) ;
#58 = PRESENTATION_STYLE_ASSIGNMENT (( #157 ) ) ;
#59 = PRESENTATION_STYLE_ASSIGNMENT (( #90 ) ) ;
#60 = CARTESIAN_POINT ( 'NONE',  ( -0.3125000000000000000, 0.7499999999999998890, 0.000000000000000000 ) ) ;
#61 = STYLED_ITEM ( 'NONE', ( #194 ), #142 ) ;
#62 = PRESENTATION_LAYER_ASSIGNMENT (  '', '', ( #284 ) ) ;
#63 = CARTESIAN_POINT ( 'NONE',  ( -6.065921084684207584E-32, 0.7499999999999998890, 0.000000000000000000 ) ) ;
#64 = APPLICATION_PROTOCOL_DEFINITION ( 'draft international standard', 'automotive_design', 1998, #282 ) ;
#65 = PRODUCT_RELATED_PRODUCT_CATEGORY ( 'part', '', ( #67 ) ) ;
#66 = SURFACE_STYLE_FILL_AREA ( #192 ) ;
#67 = PRODUCT ( '24392', '24392', '', ( #257 ) ) ;
#68 = DIRECTION ( 'NONE',  ( 1.000000000000000000, 0.000000000000000000, 0.000000000000000000 ) ) ;
#69 = SURFACE_STYLE_USAGE ( .BOTH. , #164 ) ;
#70 = FACE_OUTER_BOUND ( 'NONE', #272, .T. ) ;
#71 =( NAMED_UNIT ( * ) PLANE_ANGLE_UNIT ( ) SI_UNIT ( $, .RADIAN. ) );
#72 = PRODUCT_DEFINITION_CONTEXT ( 'detailed design', #237, 'design' ) ;
#73 = ORIENTED_EDGE ( 'NONE', *, *, #100, .T. ) ;
#74 = DIMENSIONAL_EXPONENTS ( 1.000000000000000000, 0.000000000000000000, 0.000000000000000000, 0.000000000000000000, 0.000000000000000000, 0.000000000000000000, 0.000000000000000000 ) ;
#75 = DIRECTION ( 'NONE',  ( -0.000000000000000000, -1.000000000000000000, -0.000000000000000000 ) ) ;
#76 = EDGE_CURVE ( 'NONE', #108, #56, #10, .T. ) ;
#77 = AXIS2_PLACEMENT_3D ( 'NONE', #57, #136, #88 ) ;
#78 = CARTESIAN_POINT ( 'NONE',  ( 3.673940397442059375E-16, 3.000000000000000444, 0.000000000000000000 ) ) ;
#79 = ORIENTED_EDGE ( 'NONE', *, *, #178, .T. ) ;
#80 = UNCERTAINTY_MEASURE_WITH_UNIT (LENGTH_MEASURE( 1.000000000000000082E-05 ), #283, 'distance_accuracy_value', 'NONE');
#81 = FILL_AREA_STYLE_COLOUR ( '', #86 ) ;
#82 = ORIENTED_EDGE ( 'NONE', *, *, #242, .T. ) ;
#83 = SURFACE_STYLE_FILL_AREA ( #293 ) ;
#84 = DIRECTION ( 'NONE',  ( -1.000000000000000000, 0.000000000000000000, 0.000000000000000000 ) ) ;
#85 = CLOSED_SHELL ( 'NONE', ( #277, #210, #142, #87 ) ) ;
#86 = COLOUR_RGB ( '',0.7921568627450980005, 0.8196078431372548767, 0.9333333333333333481 ) ;
#87 = ADVANCED_FACE ( 'NONE', ( #154 ), #292, .T. ) ;
#88 = DIRECTION ( 'NONE',  ( -1.000000000000000000, 0.000000000000000000, 0.000000000000000000 ) ) ;
#89 = DIRECTION ( 'NONE',  ( 0.000000000000000000, 0.000000000000000000, -1.000000000000000000 ) ) ;
#90 = SURFACE_STYLE_USAGE ( .BOTH. , #155 ) ;
#91 = ORIENTED_EDGE ( 'NONE', *, *, #76, .T. ) ;
#92 = DIRECTION ( 'NONE',  ( -0.000000000000000000, -1.000000000000000000, -0.000000000000000000 ) ) ;
#93 = SHAPE_DEFINITION_REPRESENTATION ( #308, #171 ) ;
#94 = DIRECTION ( 'NONE',  ( -0.000000000000000000, -1.000000000000000000, -0.000000000000000000 ) ) ;
#95 = FILL_AREA_STYLE_COLOUR ( '', #30 ) ;
#96 =( NAMED_UNIT ( * ) SI_UNIT ( $, .STERADIAN. ) SOLID_ANGLE_UNIT ( ) );
#97 = FACE_OUTER_BOUND ( 'NONE', #44, .T. ) ;
#98 =( CONVERSION_BASED_UNIT ( 'INCH', #258 ) LENGTH_UNIT ( ) NAMED_UNIT ( #268 ) );
#99 = CARTESIAN_POINT ( 'NONE',  ( 0.000000000000000000, 0.000000000000000000, -0.3125000000000000000 ) ) ;
#100 = EDGE_CURVE ( 'NONE', #43, #299, #195, .T. ) ;
#101 = CIRCLE ( 'NONE', #281, 0.3125000000000000000 ) ;
#102 = ORIENTED_EDGE ( 'NONE', *, *, #140, .T. ) ;
#103 = MECHANICAL_DESIGN_GEOMETRIC_PRESENTATION_REPRESENTATION (  '', ( #61 ), #254 ) ;
#104 = ORIENTED_EDGE ( 'NONE', *, *, #140, .F. ) ;
#105 = CARTESIAN_POINT ( 'NONE',  ( 0.3125000000000000000, 3.000000000000000444, 3.827021247335477694E-17 ) ) ;
#106 = CARTESIAN_POINT ( 'NONE',  ( 3.827021247335478926E-17, 0.7499999999999998890, 0.3125000000000000000 ) ) ;
#107 = CYLINDRICAL_SURFACE ( 'NONE', #24, 0.3124999999999998890 ) ;
#108 = VERTEX_POINT ( 'NONE', #106 ) ;
#109 = DIRECTION ( 'NONE',  ( -1.000000000000000000, 0.000000000000000000, 0.000000000000000000 ) ) ;
#110 =( NAMED_UNIT ( * ) PLANE_ANGLE_UNIT ( ) SI_UNIT ( $, .RADIAN. ) );
#111 = SURFACE_STYLE_FILL_AREA ( #160 ) ;
#112 = CARTESIAN_POINT ( 'NONE',  ( 0.000000000000000000, 0.000000000000000000, 0.000000000000000000 ) ) ;
#113 = CARTESIAN_POINT ( 'NONE',  ( 4.165999396282938028E-33, 0.7499999999999998890, 0.000000000000000000 ) ) ;
#114 = CIRCLE ( 'NONE', #149, 0.3125000000000000000 ) ;
#115 = FACE_OUTER_BOUND ( 'NONE', #244, .T. ) ;
#116 = PLANE ( 'NONE',  #241 ) ;
#117 = AXIS2_PLACEMENT_3D ( 'NONE', #4, #301, #84 ) ;
#118 = UNCERTAINTY_MEASURE_WITH_UNIT (LENGTH_MEASURE( 1.000000000000000082E-05 ), #191, 'distance_accuracy_value', 'NONE');
#119 = EDGE_CURVE ( 'NONE', #299, #234, #207, .T. ) ;
#120 = ORIENTED_EDGE ( 'NONE', *, *, #158, .T. ) ;
#121 = PRESENTATION_STYLE_ASSIGNMENT (( #269 ) ) ;
#122 = ORIENTED_EDGE ( 'NONE', *, *, #226, .T. ) ;
#123 = COLOUR_RGB ( '',1.000000000000000000, 0.000000000000000000, 0.000000000000000000 ) ;
#124 = AXIS2_PLACEMENT_3D ( 'NONE', #176, #296, #246 ) ;
#125 = DIMENSIONAL_EXPONENTS ( 1.000000000000000000, 0.000000000000000000, 0.000000000000000000, 0.000000000000000000, 0.000000000000000000, 0.000000000000000000, 0.000000000000000000 ) ;
#126 = FILL_AREA_STYLE_COLOUR ( '', #261 ) ;
#127 = CARTESIAN_POINT ( 'NONE',  ( 3.673940397442059375E-16, 3.000000000000000444, 0.000000000000000000 ) ) ;
#128 = SURFACE_SIDE_STYLE ('',( #28 ) ) ;
#129 = CARTESIAN_POINT ( 'NONE',  ( 3.827021247335478926E-17, 0.000000000000000000, 0.3125000000000000000 ) ) ;
#130 = FILL_AREA_STYLE_COLOUR ( '', #123 ) ;
#131 = DIRECTION ( 'NONE',  ( 0.000000000000000000, -0.000000000000000000, 1.000000000000000000 ) ) ;
#132 = DIRECTION ( 'NONE',  ( -0.000000000000000000, -1.000000000000000000, -0.000000000000000000 ) ) ;
#133 = SURFACE_SIDE_STYLE ('',( #111 ) ) ;
#134 = VECTOR ( 'NONE', #14, 39.37007874015748143 ) ;
#135 = MECHANICAL_DESIGN_GEOMETRIC_PRESENTATION_REPRESENTATION (  '', ( #284 ), #144 ) ;
#136 = DIRECTION ( 'NONE',  ( 1.632862398863137527E-16, 1.000000000000000000, -0.000000000000000000 ) ) ;
#137 =( NAMED_UNIT ( * ) SI_UNIT ( $, .STERADIAN. ) SOLID_ANGLE_UNIT ( ) );
#138 = COLOUR_RGB ( '',1.000000000000000000, 0.000000000000000000, 0.000000000000000000 ) ;
#139 = DIRECTION ( 'NONE',  ( 1.632862398863137527E-16, 1.000000000000000000, -0.000000000000000000 ) ) ;
#140 = EDGE_CURVE ( 'NONE', #43, #247, #161, .T. ) ;
#141 = LENGTH_MEASURE_WITH_UNIT ( LENGTH_MEASURE( 0.02539999999999999897 ), #212 );
#142 = ADVANCED_FACE ( 'NONE', ( #12 ), #263, .T. ) ;
#143 = AXIS2_PLACEMENT_3D ( 'NONE', #182, #297, #89 ) ;
#144 =( GEOMETRIC_REPRESENTATION_CONTEXT ( 3 ) GLOBAL_UNCERTAINTY_ASSIGNED_CONTEXT ( ( #118 ) ) GLOBAL_UNIT_ASSIGNED_CONTEXT ( ( #191, #238, #163 ) ) REPRESENTATION_CONTEXT ( 'NONE', 'WORKASPACE' ) );
#145 = CARTESIAN_POINT ( 'NONE',  ( 0.000000000000000000, 0.7499999999999998890, 0.000000000000000000 ) ) ;
#146 = ORIENTED_EDGE ( 'NONE', *, *, #147, .T. ) ;
#147 = EDGE_CURVE ( 'NONE', #247, #234, #16, .T. ) ;
#148 = ORIENTED_EDGE ( 'NONE', *, *, #100, .F. ) ;
#149 = AXIS2_PLACEMENT_3D ( 'NONE', #285, #75, #150 ) ;
#150 = DIRECTION ( 'NONE',  ( 0.000000000000000000, 0.000000000000000000, -1.000000000000000000 ) ) ;
#151 = UNCERTAINTY_MEASURE_WITH_UNIT (LENGTH_MEASURE( 1.000000000000000082E-05 ), #280, 'distance_accuracy_value', 'NONE');
#152 = CLOSED_SHELL ( 'NONE', ( #255, #303, #221, #306 ) ) ;
#153 = CIRCLE ( 'NONE', #174, 0.3125000000000000000 ) ;
#154 = FACE_OUTER_BOUND ( 'NONE', #270, .T. ) ;
#155 = SURFACE_SIDE_STYLE ('',( #83 ) ) ;
#156 = DIRECTION ( 'NONE',  ( -0.000000000000000000, -1.000000000000000000, -0.000000000000000000 ) ) ;
#157 = SURFACE_STYLE_USAGE ( .BOTH. , #133 ) ;
#158 = EDGE_CURVE ( 'NONE', #294, #108, #153, .T. ) ;
#159 = PRESENTATION_STYLE_ASSIGNMENT (( #249 ) ) ;
#160 = FILL_AREA_STYLE ('',( #130 ) ) ;
#161 = LINE ( 'NONE', #190, #173 ) ;
#162 =( GEOMETRIC_REPRESENTATION_CONTEXT ( 3 ) GLOBAL_UNCERTAINTY_ASSIGNED_CONTEXT ( ( #80 ) ) GLOBAL_UNIT_ASSIGNED_CONTEXT ( ( #283, #170, #3 ) ) REPRESENTATION_CONTEXT ( 'NONE', 'WORKASPACE' ) );
#163 =( NAMED_UNIT ( * ) SI_UNIT ( $, .STERADIAN. ) SOLID_ANGLE_UNIT ( ) );
#164 = SURFACE_SIDE_STYLE ('',( #66 ) ) ;
#165 = DIRECTION ( 'NONE',  ( -1.000000000000000000, 1.632862398863137527E-16, 0.000000000000000000 ) ) ;
#166 = AXIS2_PLACEMENT_3D ( 'NONE', #232, #156, #271 ) ;
#167 = PRESENTATION_LAYER_ASSIGNMENT (  '', '', ( #196 ) ) ;
#168 = PRODUCT_DEFINITION_FORMATION_WITH_SPECIFIED_SOURCE ( 'ANY', '', #67, .NOT_KNOWN. ) ;
#169 = PLANE ( 'NONE',  #200 ) ;
#170 =( NAMED_UNIT ( * ) PLANE_ANGLE_UNIT ( ) SI_UNIT ( $, .RADIAN. ) );
#171 = ADVANCED_BREP_SHAPE_REPRESENTATION ( '24392', ( #260, #259, #302 ), #41 ) ;
#172 = DIRECTION ( 'NONE',  ( 0.000000000000000000, 0.000000000000000000, -1.000000000000000000 ) ) ;
#173 = VECTOR ( 'NONE', #34, 39.37007874015748143 ) ;
#174 = AXIS2_PLACEMENT_3D ( 'NONE', #145, #309, #1 ) ;
#175 = SURFACE_STYLE_FILL_AREA ( #227 ) ;
#176 = CARTESIAN_POINT ( 'NONE',  ( 3.673940397442059375E-16, 3.000000000000000444, 0.000000000000000000 ) ) ;
#177 = EDGE_LOOP ( 'NONE', ( #276, #79, #122, #48 ) ) ;
#178 = EDGE_CURVE ( 'NONE', #108, #294, #114, .T. ) ;
#179 = CARTESIAN_POINT ( 'NONE',  ( 3.827021247335478926E-17, 0.000000000000000000, 0.3125000000000000000 ) ) ;
#180 = DIRECTION ( 'NONE',  ( -0.000000000000000000, -1.000000000000000000, -0.000000000000000000 ) ) ;
#181 = STYLED_ITEM ( 'NONE', ( #121 ), #210 ) ;
#182 = CARTESIAN_POINT ( 'NONE',  ( 0.000000000000000000, 0.000000000000000000, 0.000000000000000000 ) ) ;
#183 =( CONVERSION_BASED_UNIT ( 'INCH', #8 ) LENGTH_UNIT ( ) NAMED_UNIT ( #74 ) );
#184 = DIRECTION ( 'NONE',  ( 1.632862398863137527E-16, 1.000000000000000000, -0.000000000000000000 ) ) ;
#185 = DIRECTION ( 'NONE',  ( 0.000000000000000000, 1.000000000000000000, 0.000000000000000000 ) ) ;
#186 = ORIENTED_EDGE ( 'NONE', *, *, #158, .F. ) ;
#187 =( LENGTH_UNIT ( ) NAMED_UNIT ( * ) SI_UNIT ( $, .METRE. ) );
#188 = DIRECTION ( 'NONE',  ( 0.000000000000000000, 0.000000000000000000, 1.000000000000000000 ) ) ;
#189 = PLANE ( 'NONE',  #305 ) ;
#190 = CARTESIAN_POINT ( 'NONE',  ( -0.3124999999999995559, 3.000000000000000444, 0.000000000000000000 ) ) ;
#191 =( CONVERSION_BASED_UNIT ( 'INCH', #141 ) LENGTH_UNIT ( ) NAMED_UNIT ( #125 ) );
#192 = FILL_AREA_STYLE ('',( #95 ) ) ;
#193 = CARTESIAN_POINT ( 'NONE',  ( 0.000000000000000000, 0.7499999999999998890, -0.3125000000000000000 ) ) ;
#194 = PRESENTATION_STYLE_ASSIGNMENT (( #69 ) ) ;
#195 = CIRCLE ( 'NONE', #230, 0.3125000000000000000 ) ;
#196 = STYLED_ITEM ( 'NONE', ( #159 ), #259 ) ;
#197 =( NAMED_UNIT ( * ) PLANE_ANGLE_UNIT ( ) SI_UNIT ( $, .RADIAN. ) );
#198 = CARTESIAN_POINT ( 'NONE',  ( 0.000000000000000000, 0.000000000000000000, 0.000000000000000000 ) ) ;
#199 = CIRCLE ( 'NONE', #117, 0.3124999999999996669 ) ;
#200 = AXIS2_PLACEMENT_3D ( 'NONE', #5, #185, #131 ) ;
#201 = VERTEX_POINT ( 'NONE', #99 ) ;
#202 = VECTOR ( 'NONE', #132, 39.37007874015748143 ) ;
#203 = SURFACE_SIDE_STYLE ('',( #175 ) ) ;
#204 = PRODUCT_DEFINITION ( 'UNKNOWN', '', #168, #72 ) ;
#205 = ORIENTED_EDGE ( 'NONE', *, *, #242, .F. ) ;
#206 = DIRECTION ( 'NONE',  ( 1.632862398863137527E-16, 1.000000000000000000, -0.000000000000000000 ) ) ;
#207 = LINE ( 'NONE', #220, #134 ) ;
#208 = FILL_AREA_STYLE_COLOUR ( '', #287 ) ;
#209 =( NAMED_UNIT ( * ) PLANE_ANGLE_UNIT ( ) SI_UNIT ( $, .RADIAN. ) );
#210 = ADVANCED_FACE ( 'NONE', ( #245 ), #169, .T. ) ;
#211 = DIMENSIONAL_EXPONENTS ( 1.000000000000000000, 0.000000000000000000, 0.000000000000000000, 0.000000000000000000, 0.000000000000000000, 0.000000000000000000, 0.000000000000000000 ) ;
#212 =( LENGTH_UNIT ( ) NAMED_UNIT ( * ) SI_UNIT ( $, .METRE. ) );
#213 = CIRCLE ( 'NONE', #77, 0.3125000000000000000 ) ;
#214 = ORIENTED_EDGE ( 'NONE', *, *, #18, .F. ) ;
#215 = CARTESIAN_POINT ( 'NONE',  ( 0.000000000000000000, 0.000000000000000000, 0.000000000000000000 ) ) ;
#216 = AXIS2_PLACEMENT_3D ( 'NONE', #127, #265, #46 ) ;
#217 = APPLICATION_PROTOCOL_DEFINITION ( 'draft international standard', 'automotive_design', 1998, #237 ) ;
#218 =( NAMED_UNIT ( * ) SI_UNIT ( $, .STERADIAN. ) SOLID_ANGLE_UNIT ( ) );
#219 = DIRECTION ( 'NONE',  ( 1.000000000000000000, -1.632862398863137527E-16, 0.000000000000000000 ) ) ;
#220 = CARTESIAN_POINT ( 'NONE',  ( 0.3125000000000002220, 3.000000000000000444, 3.827021247335477078E-17 ) ) ;
#221 = ADVANCED_FACE ( 'NONE', ( #274 ), #233, .T. ) ;
#222 = CARTESIAN_POINT ( 'NONE',  ( 0.3125000000000000000, 3.000000000000000444, 0.000000000000000000 ) ) ;
#223 =( LENGTH_UNIT ( ) NAMED_UNIT ( * ) SI_UNIT ( $, .METRE. ) );
#224 = EDGE_LOOP ( 'NONE', ( #73, #248, #22, #104 ) ) ;
#225 = UNCERTAINTY_MEASURE_WITH_UNIT (LENGTH_MEASURE( 1.000000000000000082E-05 ), #33, 'distance_accuracy_value', 'NONE');
#226 = EDGE_CURVE ( 'NONE', #294, #201, #21, .T. ) ;
#227 = FILL_AREA_STYLE ('',( #126 ) ) ;
#228 = LENGTH_MEASURE_WITH_UNIT ( LENGTH_MEASURE( 0.02539999999999999897 ), #32 );
#229 = ORIENTED_EDGE ( 'NONE', *, *, #250, .T. ) ;
#230 = AXIS2_PLACEMENT_3D ( 'NONE', #63, #184, #29 ) ;
#231 = AXIS2_PLACEMENT_3D ( 'NONE', #198, #279, #172 ) ;
#232 = CARTESIAN_POINT ( 'NONE',  ( 0.000000000000000000, 0.000000000000000000, 0.000000000000000000 ) ) ;
#233 = CYLINDRICAL_SURFACE ( 'NONE', #124, 0.3124999999999998890 ) ;
#234 = VERTEX_POINT ( 'NONE', #105 ) ;
#235 = DIRECTION ( 'NONE',  ( 0.000000000000000000, 0.000000000000000000, -1.000000000000000000 ) ) ;
#236 = SURFACE_SIDE_STYLE ('',( #38 ) ) ;
#237 = APPLICATION_CONTEXT ( 'automotive_design' ) ;
#238 =( NAMED_UNIT ( * ) PLANE_ANGLE_UNIT ( ) SI_UNIT ( $, .RADIAN. ) );
#239 = CARTESIAN_POINT ( 'NONE',  ( 0.3125000000000000000, 0.7499999999999998890, 3.827021247335477694E-17 ) ) ;
#240 = PRESENTATION_LAYER_ASSIGNMENT (  '', '', ( #61 ) ) ;
#241 = AXIS2_PLACEMENT_3D ( 'NONE', #113, #139, #165 ) ;
#242 = EDGE_CURVE ( 'NONE', #299, #43, #213, .T. ) ;
#243 = LENGTH_MEASURE_WITH_UNIT ( LENGTH_MEASURE( 0.02539999999999999897 ), #264 );
#244 = EDGE_LOOP ( 'NONE', ( #146, #26 ) ) ;
#245 = FACE_OUTER_BOUND ( 'NONE', #6, .T. ) ;
#246 = DIRECTION ( 'NONE',  ( -1.000000000000000000, 0.000000000000000000, 0.000000000000000000 ) ) ;
#247 = VERTEX_POINT ( 'NONE', #9 ) ;
#248 = ORIENTED_EDGE ( 'NONE', *, *, #119, .T. ) ;
#249 = SURFACE_STYLE_USAGE ( .BOTH. , #128 ) ;
#250 = EDGE_CURVE ( 'NONE', #56, #201, #101, .T. ) ;
#251 = CARTESIAN_POINT ( 'NONE',  ( 0.000000000000000000, 0.000000000000000000, -0.3125000000000000000 ) ) ;
#252 =( NAMED_UNIT ( * ) SI_UNIT ( $, .STERADIAN. ) SOLID_ANGLE_UNIT ( ) );
#253 = CARTESIAN_POINT ( 'NONE',  ( 0.000000000000000000, 0.000000000000000000, 0.000000000000000000 ) ) ;
#254 =( GEOMETRIC_REPRESENTATION_CONTEXT ( 3 ) GLOBAL_UNCERTAINTY_ASSIGNED_CONTEXT ( ( #42 ) ) GLOBAL_UNIT_ASSIGNED_CONTEXT ( ( #98, #71, #96 ) ) REPRESENTATION_CONTEXT ( 'NONE', 'WORKASPACE' ) );
#255 = ADVANCED_FACE ( 'NONE', ( #50 ), #107, .T. ) ;
#256 = LENGTH_MEASURE_WITH_UNIT ( LENGTH_MEASURE( 0.02539999999999999897 ), #187 );
#257 = PRODUCT_CONTEXT ( 'NONE', #282, 'mechanical' ) ;
#258 = LENGTH_MEASURE_WITH_UNIT ( LENGTH_MEASURE( 0.02539999999999999897 ), #223 );
#259 = MANIFOLD_SOLID_BREP ( 'Revolve - Tool Body (Straight Shanked)', #152 ) ;
#260 = MANIFOLD_SOLID_BREP ( 'Revolve - Cutting Edge', #85 ) ;
#261 = COLOUR_RGB ( '',1.000000000000000000, 0.000000000000000000, 0.000000000000000000 ) ;
#262 = PRESENTATION_STYLE_ASSIGNMENT (( #15 ) ) ;
#263 = CYLINDRICAL_SURFACE ( 'NONE', #231, 0.3125000000000000000 ) ;
#264 =( LENGTH_UNIT ( ) NAMED_UNIT ( * ) SI_UNIT ( $, .METRE. ) );
#265 = DIRECTION ( 'NONE',  ( 1.632862398863137527E-16, 1.000000000000000000, -0.000000000000000000 ) ) ;
#266 = VECTOR ( 'NONE', #92, 39.37007874015748143 ) ;
#267 = AXIS2_PLACEMENT_3D ( 'NONE', #215, #94, #235 ) ;
#268 = DIMENSIONAL_EXPONENTS ( 1.000000000000000000, 0.000000000000000000, 0.000000000000000000, 0.000000000000000000, 0.000000000000000000, 0.000000000000000000, 0.000000000000000000 ) ;
#269 = SURFACE_STYLE_USAGE ( .BOTH. , #203 ) ;
#270 = EDGE_LOOP ( 'NONE', ( #20, #229 ) ) ;
#271 = DIRECTION ( 'NONE',  ( 0.000000000000000000, 0.000000000000000000, -1.000000000000000000 ) ) ;
#272 = EDGE_LOOP ( 'NONE', ( #148, #205 ) ) ;
#273 = DIMENSIONAL_EXPONENTS ( 1.000000000000000000, 0.000000000000000000, 0.000000000000000000, 0.000000000000000000, 0.000000000000000000, 0.000000000000000000, 0.000000000000000000 ) ;
#274 = FACE_OUTER_BOUND ( 'NONE', #275, .T. ) ;
#275 = EDGE_LOOP ( 'NONE', ( #17, #82, #102, #53 ) ) ;
#276 = ORIENTED_EDGE ( 'NONE', *, *, #76, .F. ) ;
#277 = ADVANCED_FACE ( 'NONE', ( #97 ), #291, .T. ) ;
#278 =( NAMED_UNIT ( * ) PLANE_ANGLE_UNIT ( ) SI_UNIT ( $, .RADIAN. ) );
#279 = DIRECTION ( 'NONE',  ( -0.000000000000000000, -1.000000000000000000, -0.000000000000000000 ) ) ;
#280 =( CONVERSION_BASED_UNIT ( 'INCH', #35 ) LENGTH_UNIT ( ) NAMED_UNIT ( #51 ) );
#281 = AXIS2_PLACEMENT_3D ( 'NONE', #112, #180, #289 ) ;
#282 = APPLICATION_CONTEXT ( 'automotive_design' ) ;
#283 =( CONVERSION_BASED_UNIT ( 'INCH', #243 ) LENGTH_UNIT ( ) NAMED_UNIT ( #45 ) );
#284 = STYLED_ITEM ( 'NONE', ( #59 ), #260 ) ;
#285 = CARTESIAN_POINT ( 'NONE',  ( 0.000000000000000000, 0.7499999999999998890, 0.000000000000000000 ) ) ;
#286 = UNCERTAINTY_MEASURE_WITH_UNIT (LENGTH_MEASURE( 1.000000000000000082E-05 ), #27, 'distance_accuracy_value', 'NONE');
#287 = COLOUR_RGB ( '',0.7921568627450980005, 0.8196078431372548767, 0.9333333333333333481 ) ;
#288 = UNCERTAINTY_MEASURE_WITH_UNIT (LENGTH_MEASURE( 1.000000000000000082E-05 ), #183, 'distance_accuracy_value', 'NONE');
#289 = DIRECTION ( 'NONE',  ( 0.000000000000000000, 0.000000000000000000, -1.000000000000000000 ) ) ;
#290 = ORIENTED_EDGE ( 'NONE', *, *, #226, .F. ) ;
#291 = CYLINDRICAL_SURFACE ( 'NONE', #267, 0.3125000000000000000 ) ;
#292 = PLANE ( 'NONE',  #143 ) ;
#293 = FILL_AREA_STYLE ('',( #208 ) ) ;
#294 = VERTEX_POINT ( 'NONE', #193 ) ;
#295 = MECHANICAL_DESIGN_GEOMETRIC_PRESENTATION_REPRESENTATION (  '', ( #181 ), #162 ) ;
#296 = DIRECTION ( 'NONE',  ( 1.632862398863137527E-16, 1.000000000000000000, -0.000000000000000000 ) ) ;
#297 = DIRECTION ( 'NONE',  ( 0.000000000000000000, -1.000000000000000000, -0.000000000000000000 ) ) ;
#298 =( NAMED_UNIT ( * ) SI_UNIT ( $, .STERADIAN. ) SOLID_ANGLE_UNIT ( ) );
#299 = VERTEX_POINT ( 'NONE', #239 ) ;
#300 = FILL_AREA_STYLE ('',( #25 ) ) ;
#301 = DIRECTION ( 'NONE',  ( 1.632862398863137527E-16, 1.000000000000000000, -0.000000000000000000 ) ) ;
#302 = AXIS2_PLACEMENT_3D ( 'NONE', #253, #188, #68 ) ;
#303 = ADVANCED_FACE ( 'NONE', ( #70 ), #116, .F. ) ;
#304 = CIRCLE ( 'NONE', #166, 0.3125000000000000000 ) ;
#305 = AXIS2_PLACEMENT_3D ( 'NONE', #222, #13, #219 ) ;
#306 = ADVANCED_FACE ( 'NONE', ( #115 ), #189, .F. ) ;
#307 = PRESENTATION_LAYER_ASSIGNMENT (  '', '', ( #47 ) ) ;
#308 = PRODUCT_DEFINITION_SHAPE ( 'NONE', 'NONE',  #204 ) ;
#309 = DIRECTION ( 'NONE',  ( -0.000000000000000000, -1.000000000000000000, -0.000000000000000000 ) ) ;
ENDSEC;
END-ISO-10303-21;
