ISO-10303-21;
HEADER;
FILE_DESCRIPTION (( 'STEP AP214' ),
    '1' );
FILE_NAME ('Micro_RSC-125-1X.STEP',
    '2021-09-03T17:44:08',
    ( '' ),
    ( '' ),
    'SwSTEP 2.0',
    'SolidWorks 2020',
    '' );
FILE_SCHEMA (( 'AUTOMOTIVE_DESIGN' ));
ENDSEC;

DATA;
#1 = FACE_OUTER_BOUND ( 'NONE', #13, .T. ) ;
#2 = CARTESIAN_POINT ( 'NONE',  ( 0.04750000000000063893, 5.817072295950005757E-18, 1.500000000000000222 ) ) ;
#3 = CARTESIAN_POINT ( 'NONE',  ( 0.06249999999999997918, 7.654042494670954463E-18, 0.1013249722427790322 ) ) ;
#4 = EDGE_CURVE ( 'NONE', #157, #38, #229, .T. ) ;
#5 = CARTESIAN_POINT ( 'NONE',  ( -0.04750000000000063893, 0.0000000000000000000, 1.500000000000000222 ) ) ;
#6 = CARTESIAN_POINT ( 'NONE',  ( -0.04750000000000063893, 0.0000000000000000000, 1.500000000000000222 ) ) ;
#7 = AXIS2_PLACEMENT_3D ( 'NONE', #12, #33, #40 ) ;
#8 = CARTESIAN_POINT ( 'NONE',  ( -0.003999999999999999216, 4.071950607164948101E-18, 0.0000000000000000000 ) ) ;
#9 = DIRECTION ( 'NONE',  ( 1.000000000000000000, 0.0000000000000000000, 0.0000000000000000000 ) ) ;
#10 = ORIENTED_EDGE ( 'NONE', *, *, #213, .T. ) ;
#11 = ADVANCED_FACE ( 'NONE', ( #15 ), #175, .F. ) ;
#12 = CARTESIAN_POINT ( 'NONE',  ( 0.0000000000000000000, 0.0000000000000000000, 0.0000000000000000000 ) ) ;
#13 = EDGE_LOOP ( 'NONE', ( #182, #146, #21, #42 ) ) ;
#14 = CONICAL_SURFACE ( 'NONE', #34, 0.04750000000000063893, 0.7853981633974453924 ) ;
#15 = FACE_OUTER_BOUND ( 'NONE', #151, .T. ) ;
#16 = FACE_OUTER_BOUND ( 'NONE', #115, .T. ) ;
#17 = CARTESIAN_POINT ( 'NONE',  ( -0.06249999999999997918, 0.0000000000000000000, 0.1013249722427790322 ) ) ;
#18 = DIRECTION ( 'NONE',  ( 0.5000000000000009992, 0.0000000000000000000, 0.8660254037844380415 ) ) ;
#19 = VERTEX_POINT ( 'NONE', #17 ) ;
#20 = SURFACE_STYLE_USAGE ( .BOTH. , #95 ) ;
#21 = ORIENTED_EDGE ( 'NONE', *, *, #27, .T. ) ;
#22 = CARTESIAN_POINT ( 'NONE',  ( -0.06249999999999997918, 0.0000000000000000000, 1.485000000000000764 ) ) ;
#23 = PLANE ( 'NONE',  #153 ) ;
#24 = COLOUR_RGB ( '',0.7921568627450980005, 0.8196078431372548767, 0.9333333333333333481 ) ;
#25 =( NAMED_UNIT ( * ) PLANE_ANGLE_UNIT ( ) SI_UNIT ( $, .RADIAN. ) );
#26 = CARTESIAN_POINT ( 'NONE',  ( 0.0000000000000000000, 0.0000000000000000000, 1.500000000000000222 ) ) ;
#27 = EDGE_CURVE ( 'NONE', #172, #19, #237, .T. ) ;
#28 = CARTESIAN_POINT ( 'NONE',  ( 0.0000000000000000000, 0.0000000000000000000, 0.0000000000000000000 ) ) ;
#29 = EDGE_CURVE ( 'NONE', #19, #58, #142, .T. ) ;
#30 = CIRCLE ( 'NONE', #206, 0.04750000000000063893 ) ;
#31 = DIRECTION ( 'NONE',  ( 0.0000000000000000000, 0.0000000000000000000, -1.000000000000000000 ) ) ;
#32 = FACE_OUTER_BOUND ( 'NONE', #41, .T. ) ;
#33 = DIRECTION ( 'NONE',  ( -0.0000000000000000000, -0.0000000000000000000, -1.000000000000000000 ) ) ;
#34 = AXIS2_PLACEMENT_3D ( 'NONE', #26, #67, #137 ) ;
#35 = EDGE_LOOP ( 'NONE', ( #86, #190, #128, #98 ) ) ;
#36 = EDGE_CURVE ( 'NONE', #170, #75, #184, .T. ) ;
#37 = FILL_AREA_STYLE_COLOUR ( '', #24 ) ;
#38 = VERTEX_POINT ( 'NONE', #5 ) ;
#39 = ORIENTED_EDGE ( 'NONE', *, *, #4, .F. ) ;
#40 = DIRECTION ( 'NONE',  ( -1.000000000000000000, 0.0000000000000000000, 0.0000000000000000000 ) ) ;
#41 = EDGE_LOOP ( 'NONE', ( #100, #205, #209, #239 ) ) ;
#42 = ORIENTED_EDGE ( 'NONE', *, *, #213, .F. ) ;
#43 = CYLINDRICAL_SURFACE ( 'NONE', #48, 0.06249999999999997918 ) ;
#44 = CIRCLE ( 'NONE', #197, 0.06249999999999997918 ) ;
#45 = LENGTH_MEASURE_WITH_UNIT ( LENGTH_MEASURE( 0.02539999999999999897 ), #214 );
#46 =( NAMED_UNIT ( * ) SI_UNIT ( $, .STERADIAN. ) SOLID_ANGLE_UNIT ( ) );
#47 = DIRECTION ( 'NONE',  ( -0.0000000000000000000, -0.0000000000000000000, -1.000000000000000000 ) ) ;
#48 = AXIS2_PLACEMENT_3D ( 'NONE', #60, #244, #79 ) ;
#49 = DIRECTION ( 'NONE',  ( 0.0000000000000000000, 0.0000000000000000000, 1.000000000000000000 ) ) ;
#50 = PRESENTATION_STYLE_ASSIGNMENT (( #248 ) ) ;
#51 = DIRECTION ( 'NONE',  ( -0.7071067811865454633, 0.0000000000000000000, -0.7071067811865495711 ) ) ;
#52 = STYLED_ITEM ( 'NONE', ( #189 ), #165 ) ;
#53 = FACE_OUTER_BOUND ( 'NONE', #161, .T. ) ;
#54 = SURFACE_STYLE_FILL_AREA ( #126 ) ;
#55 = DIRECTION ( 'NONE',  ( 1.000000000000000000, 0.0000000000000000000, 0.0000000000000000000 ) ) ;
#56 = AXIS2_PLACEMENT_3D ( 'NONE', #198, #49, #235 ) ;
#57 = CIRCLE ( 'NONE', #136, 0.06249999999999997918 ) ;
#58 = VERTEX_POINT ( 'NONE', #3 ) ;
#59 = ORIENTED_EDGE ( 'NONE', *, *, #29, .F. ) ;
#60 = CARTESIAN_POINT ( 'NONE',  ( 0.0000000000000000000, 0.0000000000000000000, 1.500000000000000222 ) ) ;
#61 = EDGE_LOOP ( 'NONE', ( #221, #132, #145, #10 ) ) ;
#62 = DIRECTION ( 'NONE',  ( 1.000000000000000000, 0.0000000000000000000, -0.0000000000000000000 ) ) ;
#63 = ADVANCED_FACE ( 'NONE', ( #143 ), #150, .T. ) ;
#64 = CONICAL_SURFACE ( 'NONE', #188, 0.003999999999999999216, 0.5235987755983000369 ) ;
#65 = FILL_AREA_STYLE ('',( #155 ) ) ;
#66 =( GEOMETRIC_REPRESENTATION_CONTEXT ( 3 ) GLOBAL_UNCERTAINTY_ASSIGNED_CONTEXT ( ( #127 ) ) GLOBAL_UNIT_ASSIGNED_CONTEXT ( ( #243, #135, #46 ) ) REPRESENTATION_CONTEXT ( 'NONE', 'WORKASPACE' ) );
#67 = DIRECTION ( 'NONE',  ( 0.0000000000000000000, 0.0000000000000000000, -1.000000000000000000 ) ) ;
#68 = DIRECTION ( 'NONE',  ( -0.0000000000000000000, -0.0000000000000000000, -1.000000000000000000 ) ) ;
#69 = DIRECTION ( 'NONE',  ( 0.0000000000000000000, 0.0000000000000000000, -1.000000000000000000 ) ) ;
#70 = FACE_OUTER_BOUND ( 'NONE', #35, .T. ) ;
#71 = DIRECTION ( 'NONE',  ( -0.0000000000000000000, -0.0000000000000000000, -1.000000000000000000 ) ) ;
#72 = CIRCLE ( 'NONE', #131, 0.06249999999999997918 ) ;
#73 = DIRECTION ( 'NONE',  ( 0.0000000000000000000, 0.0000000000000000000, 1.000000000000000000 ) ) ;
#74 = EDGE_CURVE ( 'NONE', #226, #172, #57, .T. ) ;
#75 = VERTEX_POINT ( 'NONE', #140 ) ;
#76 = DIRECTION ( 'NONE',  ( 1.000000000000000000, 0.0000000000000000000, 0.0000000000000000000 ) ) ;
#77 = AXIS2_PLACEMENT_3D ( 'NONE', #114, #196, #223 ) ;
#78 = ADVANCED_FACE ( 'NONE', ( #53 ), #160, .T. ) ;
#79 = DIRECTION ( 'NONE',  ( -1.000000000000000000, 0.0000000000000000000, 0.0000000000000000000 ) ) ;
#80 = CARTESIAN_POINT ( 'NONE',  ( 0.0000000000000000000, 0.0000000000000000000, 1.500000000000000222 ) ) ;
#81 = DIRECTION ( 'NONE',  ( -0.0000000000000000000, -0.0000000000000000000, -1.000000000000000000 ) ) ;
#82 = AXIS2_PLACEMENT_3D ( 'NONE', #80, #212, #227 ) ;
#83 = EDGE_CURVE ( 'NONE', #172, #226, #44, .T. ) ;
#84 = CLOSED_SHELL ( 'NONE', ( #109, #78, #191, #195, #174, #139, #63, #11 ) ) ;
#85 = DIRECTION ( 'NONE',  ( 0.0000000000000000000, 0.0000000000000000000, 1.000000000000000000 ) ) ;
#86 = ORIENTED_EDGE ( 'NONE', *, *, #123, .F. ) ;
#87 = DIMENSIONAL_EXPONENTS ( 1.000000000000000000, 0.0000000000000000000, 0.0000000000000000000, 0.0000000000000000000, 0.0000000000000000000, 0.0000000000000000000, 0.0000000000000000000 ) ;
#88 = DIRECTION ( 'NONE',  ( -1.000000000000000000, 0.0000000000000000000, 0.0000000000000000000 ) ) ;
#89 = APPLICATION_PROTOCOL_DEFINITION ( 'draft international standard', 'automotive_design', 1998, #201 ) ;
#90 = CARTESIAN_POINT ( 'NONE',  ( -0.06249999999999997918, 0.0000000000000000000, 1.500000000000000222 ) ) ;
#91 = MECHANICAL_DESIGN_GEOMETRIC_PRESENTATION_REPRESENTATION (  '', ( #240 ), #66 ) ;
#92 = LENGTH_MEASURE_WITH_UNIT ( LENGTH_MEASURE( 0.02539999999999999897 ), #103 );
#93 = VECTOR ( 'NONE', #51, 39.37007874015748143 ) ;
#94 = ORIENTED_EDGE ( 'NONE', *, *, #123, .T. ) ;
#95 = SURFACE_SIDE_STYLE ('',( #246 ) ) ;
#96 = UNCERTAINTY_MEASURE_WITH_UNIT (LENGTH_MEASURE( 1.000000000000000082E-05 ), #116, 'distance_accuracy_value', 'NONE');
#97 =( GEOMETRIC_REPRESENTATION_CONTEXT ( 3 ) GLOBAL_UNCERTAINTY_ASSIGNED_CONTEXT ( ( #224 ) ) GLOBAL_UNIT_ASSIGNED_CONTEXT ( ( #159, #230, #193 ) ) REPRESENTATION_CONTEXT ( 'NONE', 'WORKASPACE' ) );
#98 = ORIENTED_EDGE ( 'NONE', *, *, #74, .F. ) ;
#99 = CARTESIAN_POINT ( 'NONE',  ( 0.0000000000000000000, 0.0000000000000000000, 1.500000000000000222 ) ) ;
#100 = ORIENTED_EDGE ( 'NONE', *, *, #36, .F. ) ;
#101 = FACE_OUTER_BOUND ( 'NONE', #179, .T. ) ;
#102 = DIRECTION ( 'NONE',  ( 0.0000000000000000000, 0.0000000000000000000, 1.000000000000000000 ) ) ;
#103 =( LENGTH_UNIT ( ) NAMED_UNIT ( * ) SI_UNIT ( $, .METRE. ) );
#104 = DIRECTION ( 'NONE',  ( -0.5000000000000009992, 6.123233995736778362E-17, 0.8660254037844380415 ) ) ;
#105 = PRODUCT_CONTEXT ( 'NONE', #129, 'mechanical' ) ;
#106 = CARTESIAN_POINT ( 'NONE',  ( 0.0000000000000000000, 0.0000000000000000000, 1.485000000000000764 ) ) ;
#107 = CARTESIAN_POINT ( 'NONE',  ( 0.0000000000000000000, 0.0000000000000000000, 0.0000000000000000000 ) ) ;
#108 = COLOUR_RGB ( '',0.7921568627450980005, 0.8196078431372548767, 0.9333333333333333481 ) ;
#109 = ADVANCED_FACE ( 'NONE', ( #32 ), #64, .T. ) ;
#110 = MANIFOLD_SOLID_BREP ( 'Cut-Revolve1', #84 ) ;
#111 = DIRECTION ( 'NONE',  ( 0.7071067811865454633, 8.659560562354908206E-17, -0.7071067811865495711 ) ) ;
#112 = CARTESIAN_POINT ( 'NONE',  ( 0.06249999999999997918, 7.654042494670954463E-18, 1.485000000000000764 ) ) ;
#113 = SURFACE_SIDE_STYLE ('',( #54 ) ) ;
#114 = CARTESIAN_POINT ( 'NONE',  ( 0.0000000000000000000, 0.0000000000000000000, 1.500000000000000222 ) ) ;
#115 = EDGE_LOOP ( 'NONE', ( #210, #242 ) ) ;
#116 =( CONVERSION_BASED_UNIT ( 'INCH', #45 ) LENGTH_UNIT ( ) NAMED_UNIT ( #118 ) );
#117 = ORIENTED_EDGE ( 'NONE', *, *, #36, .T. ) ;
#118 = DIMENSIONAL_EXPONENTS ( 1.000000000000000000, 0.0000000000000000000, 0.0000000000000000000, 0.0000000000000000000, 0.0000000000000000000, 0.0000000000000000000, 0.0000000000000000000 ) ;
#119 = LINE ( 'NONE', #2, #249 ) ;
#120 = VECTOR ( 'NONE', #104, 39.37007874015748143 ) ;
#121 = CARTESIAN_POINT ( 'NONE',  ( 0.0000000000000000000, 0.0000000000000000000, 1.500000000000000222 ) ) ;
#122 = MECHANICAL_DESIGN_GEOMETRIC_PRESENTATION_REPRESENTATION (  '', ( #52 ), #124 ) ;
#123 = EDGE_CURVE ( 'NONE', #157, #226, #119, .T. ) ;
#124 =( GEOMETRIC_REPRESENTATION_CONTEXT ( 3 ) GLOBAL_UNCERTAINTY_ASSIGNED_CONTEXT ( ( #96 ) ) GLOBAL_UNIT_ASSIGNED_CONTEXT ( ( #116, #25, #134 ) ) REPRESENTATION_CONTEXT ( 'NONE', 'WORKASPACE' ) );
#125 = AXIS2_PLACEMENT_3D ( 'NONE', #167, #68, #88 ) ;
#126 = FILL_AREA_STYLE ('',( #37 ) ) ;
#127 = UNCERTAINTY_MEASURE_WITH_UNIT (LENGTH_MEASURE( 1.000000000000000082E-05 ), #243, 'distance_accuracy_value', 'NONE');
#128 = ORIENTED_EDGE ( 'NONE', *, *, #147, .T. ) ;
#129 = APPLICATION_CONTEXT ( 'automotive_design' ) ;
#130 = CARTESIAN_POINT ( 'NONE',  ( 0.003999999999999999216, 0.0000000000000000000, 0.0000000000000000000 ) ) ;
#131 = AXIS2_PLACEMENT_3D ( 'NONE', #133, #81, #208 ) ;
#132 = ORIENTED_EDGE ( 'NONE', *, *, #171, .F. ) ;
#133 = CARTESIAN_POINT ( 'NONE',  ( 0.0000000000000000000, 0.0000000000000000000, 0.1013249722427790322 ) ) ;
#134 =( NAMED_UNIT ( * ) SI_UNIT ( $, .STERADIAN. ) SOLID_ANGLE_UNIT ( ) );
#135 =( NAMED_UNIT ( * ) PLANE_ANGLE_UNIT ( ) SI_UNIT ( $, .RADIAN. ) );
#136 = AXIS2_PLACEMENT_3D ( 'NONE', #106, #31, #219 ) ;
#137 = DIRECTION ( 'NONE',  ( -1.000000000000000000, 0.0000000000000000000, 0.0000000000000000000 ) ) ;
#138 = DIRECTION ( 'NONE',  ( -1.000000000000000000, 0.0000000000000000000, 0.0000000000000000000 ) ) ;
#139 = ADVANCED_FACE ( 'NONE', ( #70 ), #14, .T. ) ;
#140 = CARTESIAN_POINT ( 'NONE',  ( 0.003999999999999999216, 0.0000000000000000000, 0.0000000000000000000 ) ) ;
#141 = CARTESIAN_POINT ( 'NONE',  ( 0.06249999999999997918, 7.654042494670954463E-18, 1.500000000000000222 ) ) ;
#142 = CIRCLE ( 'NONE', #125, 0.06249999999999997918 ) ;
#143 = FACE_OUTER_BOUND ( 'NONE', #61, .T. ) ;
#144 = DIRECTION ( 'NONE',  ( 0.0000000000000000000, 0.0000000000000000000, 1.000000000000000000 ) ) ;
#145 = ORIENTED_EDGE ( 'NONE', *, *, #187, .T. ) ;
#146 = ORIENTED_EDGE ( 'NONE', *, *, #74, .T. ) ;
#147 = EDGE_CURVE ( 'NONE', #38, #172, #216, .T. ) ;
#148 = ORIENTED_EDGE ( 'NONE', *, *, #27, .F. ) ;
#149 = DIRECTION ( 'NONE',  ( 1.000000000000000000, 0.0000000000000000000, -0.0000000000000000000 ) ) ;
#150 = CONICAL_SURFACE ( 'NONE', #169, 0.003999999999999999216, 0.5235987755983000369 ) ;
#151 = EDGE_LOOP ( 'NONE', ( #245, #117 ) ) ;
#152 = EDGE_CURVE ( 'NONE', #170, #19, #203, .T. ) ;
#153 = AXIS2_PLACEMENT_3D ( 'NONE', #178, #102, #62 ) ;
#154 = EDGE_CURVE ( 'NONE', #226, #58, #166, .T. ) ;
#155 = FILL_AREA_STYLE_COLOUR ( '', #108 ) ;
#156 =( LENGTH_UNIT ( ) NAMED_UNIT ( * ) SI_UNIT ( $, .METRE. ) );
#157 = VERTEX_POINT ( 'NONE', #186 ) ;
#158 = PRODUCT_DEFINITION_SHAPE ( 'NONE', 'NONE',  #241 ) ;
#159 =( CONVERSION_BASED_UNIT ( 'INCH', #176 ) LENGTH_UNIT ( ) NAMED_UNIT ( #87 ) );
#160 = CONICAL_SURFACE ( 'NONE', #215, 0.04750000000000063893, 0.7853981633974453924 ) ;
#161 = EDGE_LOOP ( 'NONE', ( #39, #94, #173, #222 ) ) ;
#162 = CIRCLE ( 'NONE', #7, 0.003999999999999999216 ) ;
#163 = CARTESIAN_POINT ( 'NONE',  ( 0.0000000000000000000, 0.0000000000000000000, 1.485000000000000764 ) ) ;
#164 = CARTESIAN_POINT ( 'NONE',  ( -0.003999999999999999216, 4.898587196589411612E-19, 0.0000000000000000000 ) ) ;
#165 = ADVANCED_BREP_SHAPE_REPRESENTATION ( 'Micro_RSC-125-1X', ( #110, #56 ), #97 ) ;
#166 = LINE ( 'NONE', #141, #181 ) ;
#167 = CARTESIAN_POINT ( 'NONE',  ( 0.0000000000000000000, 0.0000000000000000000, 0.1013249722427790322 ) ) ;
#168 = PRODUCT_DEFINITION_CONTEXT ( 'detailed design', #201, 'design' ) ;
#169 = AXIS2_PLACEMENT_3D ( 'NONE', #200, #234, #55 ) ;
#170 = VERTEX_POINT ( 'NONE', #8 ) ;
#171 = EDGE_CURVE ( 'NONE', #75, #170, #162, .T. ) ;
#172 = VERTEX_POINT ( 'NONE', #22 ) ;
#173 = ORIENTED_EDGE ( 'NONE', *, *, #83, .F. ) ;
#174 = ADVANCED_FACE ( 'NONE', ( #16 ), #23, .T. ) ;
#175 = PLANE ( 'NONE',  #218 ) ;
#176 = LENGTH_MEASURE_WITH_UNIT ( LENGTH_MEASURE( 0.02539999999999999897 ), #156 );
#177 = AXIS2_PLACEMENT_3D ( 'NONE', #107, #71, #185 ) ;
#178 = CARTESIAN_POINT ( 'NONE',  ( 0.0000000000000000000, 0.0000000000000000000, 1.500000000000000222 ) ) ;
#179 = EDGE_LOOP ( 'NONE', ( #238, #225, #59, #148 ) ) ;
#180 = CYLINDRICAL_SURFACE ( 'NONE', #77, 0.06249999999999997918 ) ;
#181 = VECTOR ( 'NONE', #47, 39.37007874015748143 ) ;
#182 = ORIENTED_EDGE ( 'NONE', *, *, #154, .F. ) ;
#183 = VECTOR ( 'NONE', #18, 39.37007874015748143 ) ;
#184 = CIRCLE ( 'NONE', #177, 0.003999999999999999216 ) ;
#185 = DIRECTION ( 'NONE',  ( -1.000000000000000000, 0.0000000000000000000, 0.0000000000000000000 ) ) ;
#186 = CARTESIAN_POINT ( 'NONE',  ( 0.04750000000000063893, 6.735557395310480881E-18, 1.500000000000000222 ) ) ;
#187 = EDGE_CURVE ( 'NONE', #75, #58, #247, .T. ) ;
#188 = AXIS2_PLACEMENT_3D ( 'NONE', #28, #144, #217 ) ;
#189 = PRESENTATION_STYLE_ASSIGNMENT (( #20 ) ) ;
#190 = ORIENTED_EDGE ( 'NONE', *, *, #228, .F. ) ;
#191 = ADVANCED_FACE ( 'NONE', ( #101 ), #43, .T. ) ;
#192 = PRODUCT_DEFINITION_FORMATION_WITH_SPECIFIED_SOURCE ( 'ANY', '', #194, .NOT_KNOWN. ) ;
#193 =( NAMED_UNIT ( * ) SI_UNIT ( $, .STERADIAN. ) SOLID_ANGLE_UNIT ( ) );
#194 = PRODUCT ( 'Micro_RSC-125-1X', 'Micro_RSC-125-1X', '', ( #105 ) ) ;
#195 = ADVANCED_FACE ( 'NONE', ( #1 ), #180, .T. ) ;
#196 = DIRECTION ( 'NONE',  ( -0.0000000000000000000, -0.0000000000000000000, -1.000000000000000000 ) ) ;
#197 = AXIS2_PLACEMENT_3D ( 'NONE', #163, #69, #9 ) ;
#198 = CARTESIAN_POINT ( 'NONE',  ( 0.0000000000000000000, 0.0000000000000000000, 0.0000000000000000000 ) ) ;
#199 = PRODUCT_RELATED_PRODUCT_CATEGORY ( 'part', '', ( #194 ) ) ;
#200 = CARTESIAN_POINT ( 'NONE',  ( 0.0000000000000000000, 0.0000000000000000000, 0.0000000000000000000 ) ) ;
#201 = APPLICATION_CONTEXT ( 'automotive_design' ) ;
#202 = PRESENTATION_LAYER_ASSIGNMENT (  '', '', ( #240 ) ) ;
#203 = LINE ( 'NONE', #164, #120 ) ;
#204 = DIRECTION ( 'NONE',  ( 0.0000000000000000000, 0.0000000000000000000, -1.000000000000000000 ) ) ;
#205 = ORIENTED_EDGE ( 'NONE', *, *, #152, .T. ) ;
#206 = AXIS2_PLACEMENT_3D ( 'NONE', #99, #85, #76 ) ;
#207 = CARTESIAN_POINT ( 'NONE',  ( 0.0000000000000000000, 0.0000000000000000000, 0.0000000000000000000 ) ) ;
#208 = DIRECTION ( 'NONE',  ( -1.000000000000000000, 0.0000000000000000000, 0.0000000000000000000 ) ) ;
#209 = ORIENTED_EDGE ( 'NONE', *, *, #29, .T. ) ;
#210 = ORIENTED_EDGE ( 'NONE', *, *, #228, .T. ) ;
#211 = APPLICATION_PROTOCOL_DEFINITION ( 'draft international standard', 'automotive_design', 1998, #129 ) ;
#212 = DIRECTION ( 'NONE',  ( 0.0000000000000000000, 0.0000000000000000000, 1.000000000000000000 ) ) ;
#213 = EDGE_CURVE ( 'NONE', #58, #19, #72, .T. ) ;
#214 =( LENGTH_UNIT ( ) NAMED_UNIT ( * ) SI_UNIT ( $, .METRE. ) );
#215 = AXIS2_PLACEMENT_3D ( 'NONE', #121, #204, #138 ) ;
#216 = LINE ( 'NONE', #6, #93 ) ;
#217 = DIRECTION ( 'NONE',  ( 1.000000000000000000, 0.0000000000000000000, 0.0000000000000000000 ) ) ;
#218 = AXIS2_PLACEMENT_3D ( 'NONE', #207, #73, #149 ) ;
#219 = DIRECTION ( 'NONE',  ( 1.000000000000000000, 0.0000000000000000000, 0.0000000000000000000 ) ) ;
#220 = VECTOR ( 'NONE', #236, 39.37007874015748143 ) ;
#221 = ORIENTED_EDGE ( 'NONE', *, *, #152, .F. ) ;
#222 = ORIENTED_EDGE ( 'NONE', *, *, #147, .F. ) ;
#223 = DIRECTION ( 'NONE',  ( -1.000000000000000000, 0.0000000000000000000, 0.0000000000000000000 ) ) ;
#224 = UNCERTAINTY_MEASURE_WITH_UNIT (LENGTH_MEASURE( 1.000000000000000082E-05 ), #159, 'distance_accuracy_value', 'NONE');
#225 = ORIENTED_EDGE ( 'NONE', *, *, #154, .T. ) ;
#226 = VERTEX_POINT ( 'NONE', #112 ) ;
#227 = DIRECTION ( 'NONE',  ( 1.000000000000000000, 0.0000000000000000000, 0.0000000000000000000 ) ) ;
#228 = EDGE_CURVE ( 'NONE', #38, #157, #30, .T. ) ;
#229 = CIRCLE ( 'NONE', #82, 0.04750000000000063893 ) ;
#230 =( NAMED_UNIT ( * ) PLANE_ANGLE_UNIT ( ) SI_UNIT ( $, .RADIAN. ) );
#231 = SHAPE_DEFINITION_REPRESENTATION ( #158, #165 ) ;
#232 = PRESENTATION_LAYER_ASSIGNMENT (  '', '', ( #52 ) ) ;
#233 = DIMENSIONAL_EXPONENTS ( 1.000000000000000000, 0.0000000000000000000, 0.0000000000000000000, 0.0000000000000000000, 0.0000000000000000000, 0.0000000000000000000, 0.0000000000000000000 ) ;
#234 = DIRECTION ( 'NONE',  ( 0.0000000000000000000, 0.0000000000000000000, 1.000000000000000000 ) ) ;
#235 = DIRECTION ( 'NONE',  ( 1.000000000000000000, 0.0000000000000000000, 0.0000000000000000000 ) ) ;
#236 = DIRECTION ( 'NONE',  ( -0.0000000000000000000, -0.0000000000000000000, -1.000000000000000000 ) ) ;
#237 = LINE ( 'NONE', #90, #220 ) ;
#238 = ORIENTED_EDGE ( 'NONE', *, *, #83, .T. ) ;
#239 = ORIENTED_EDGE ( 'NONE', *, *, #187, .F. ) ;
#240 = STYLED_ITEM ( 'NONE', ( #50 ), #110 ) ;
#241 = PRODUCT_DEFINITION ( 'UNKNOWN', '', #192, #168 ) ;
#242 = ORIENTED_EDGE ( 'NONE', *, *, #4, .T. ) ;
#243 =( CONVERSION_BASED_UNIT ( 'INCH', #92 ) LENGTH_UNIT ( ) NAMED_UNIT ( #233 ) );
#244 = DIRECTION ( 'NONE',  ( -0.0000000000000000000, -0.0000000000000000000, -1.000000000000000000 ) ) ;
#245 = ORIENTED_EDGE ( 'NONE', *, *, #171, .T. ) ;
#246 = SURFACE_STYLE_FILL_AREA ( #65 ) ;
#247 = LINE ( 'NONE', #130, #183 ) ;
#248 = SURFACE_STYLE_USAGE ( .BOTH. , #113 ) ;
#249 = VECTOR ( 'NONE', #111, 39.37007874015748143 ) ;
ENDSEC;
END-ISO-10303-21;
