ISO-10303-21;
HEADER;
FILE_DESCRIPTION (( 'STEP AP214' ),
    '1' );
FILE_NAME ('Micro_RDB-40.STEP',
    '2021-08-31T16:59:57',
    ( '' ),
    ( '' ),
    'SwSTEP 2.0',
    'SolidWorks 2020',
    '' );
FILE_SCHEMA (( 'AUTOMOTIVE_DESIGN' ));
ENDSEC;

DATA;
#1 = EDGE_LOOP ( 'NONE', ( #13, #293, #198, #245 ) ) ;
#2 = ADVANCED_FACE ( 'NONE', ( #228 ), #184, .F. ) ;
#3 = EDGE_LOOP ( 'NONE', ( #65, #295 ) ) ;
#4 = DIRECTION ( 'NONE',  ( -1.224646799147353207E-16, -0.0000000000000000000, -1.000000000000000000 ) ) ;
#5 = EDGE_CURVE ( 'NONE', #130, #148, #139, .T. ) ;
#6 = DIRECTION ( 'NONE',  ( -0.0000000000000000000, -0.0000000000000000000, -1.000000000000000000 ) ) ;
#7 = AXIS2_PLACEMENT_3D ( 'NONE', #254, #4, #182 ) ;
#8 = CIRCLE ( 'NONE', #7, 0.09365624999999999645 ) ;
#9 = DIRECTION ( 'NONE',  ( 1.224646799147353207E-16, 0.0000000000000000000, 1.000000000000000000 ) ) ;
#10 = FACE_OUTER_BOUND ( 'NONE', #85, .T. ) ;
#11 = EDGE_CURVE ( 'NONE', #290, #131, #274, .T. ) ;
#12 = DIRECTION ( 'NONE',  ( -1.000000000000000000, 0.0000000000000000000, 0.0000000000000000000 ) ) ;
#13 = ORIENTED_EDGE ( 'NONE', *, *, #189, .F. ) ;
#14 = ADVANCED_FACE ( 'NONE', ( #68 ), #261, .T. ) ;
#15 =( LENGTH_UNIT ( ) NAMED_UNIT ( * ) SI_UNIT ( $, .METRE. ) );
#16 = CARTESIAN_POINT ( 'NONE',  ( 0.0000000000000000000, 0.0000000000000000000, 2.000000000000000000 ) ) ;
#17 = CYLINDRICAL_SURFACE ( 'NONE', #234, 0.09365624999999999645 ) ;
#18 =( GEOMETRIC_REPRESENTATION_CONTEXT ( 3 ) GLOBAL_UNCERTAINTY_ASSIGNED_CONTEXT ( ( #144 ) ) GLOBAL_UNIT_ASSIGNED_CONTEXT ( ( #248, #38, #64 ) ) REPRESENTATION_CONTEXT ( 'NONE', 'WORKASPACE' ) );
#19 =( CONVERSION_BASED_UNIT ( 'INCH', #45 ) LENGTH_UNIT ( ) NAMED_UNIT ( #105 ) );
#20 = ORIENTED_EDGE ( 'NONE', *, *, #189, .T. ) ;
#21 = DIRECTION ( 'NONE',  ( -0.0000000000000000000, -0.0000000000000000000, -1.000000000000000000 ) ) ;
#22 = CARTESIAN_POINT ( 'NONE',  ( 7.654042494670957853E-17, 0.0000000000000000000, 0.6250000000000000000 ) ) ;
#23 = DIRECTION ( 'NONE',  ( -1.224646799147353207E-16, -0.0000000000000000000, -1.000000000000000000 ) ) ;
#24 = DIRECTION ( 'NONE',  ( -1.000000000000000000, 0.0000000000000000000, 0.0000000000000000000 ) ) ;
#25 = AXIS2_PLACEMENT_3D ( 'NONE', #262, #264, #12 ) ;
#26 = PRODUCT ( 'Micro_RDB-40', 'Micro_RDB-40', '', ( #208 ) ) ;
#27 = EDGE_CURVE ( 'NONE', #158, #268, #252, .T. ) ;
#28 = MECHANICAL_DESIGN_GEOMETRIC_PRESENTATION_REPRESENTATION (  '', ( #108 ), #52 ) ;
#29 = FACE_OUTER_BOUND ( 'NONE', #178, .T. ) ;
#30 = EDGE_CURVE ( 'NONE', #148, #130, #8, .T. ) ;
#31 = DIRECTION ( 'NONE',  ( -1.000000000000000000, 0.0000000000000000000, 1.224646799147352961E-16 ) ) ;
#32 = DIRECTION ( 'NONE',  ( -1.224646799147353207E-16, -0.0000000000000000000, -1.000000000000000000 ) ) ;
#33 =( NAMED_UNIT ( * ) SI_UNIT ( $, .STERADIAN. ) SOLID_ANGLE_UNIT ( ) );
#34 = FACE_OUTER_BOUND ( 'NONE', #3, .T. ) ;
#35 =( NAMED_UNIT ( * ) SI_UNIT ( $, .STERADIAN. ) SOLID_ANGLE_UNIT ( ) );
#36 =( NAMED_UNIT ( * ) PLANE_ANGLE_UNIT ( ) SI_UNIT ( $, .RADIAN. ) );
#37 = EDGE_LOOP ( 'NONE', ( #20, #255, #226, #140 ) ) ;
#38 =( NAMED_UNIT ( * ) PLANE_ANGLE_UNIT ( ) SI_UNIT ( $, .RADIAN. ) );
#39 = AXIS2_PLACEMENT_3D ( 'NONE', #214, #163, #49 ) ;
#40 = EDGE_LOOP ( 'NONE', ( #73, #209, #102, #87 ) ) ;
#41 = EDGE_CURVE ( 'NONE', #176, #131, #210, .T. ) ;
#42 = DIMENSIONAL_EXPONENTS ( 1.000000000000000000, 0.0000000000000000000, 0.0000000000000000000, 0.0000000000000000000, 0.0000000000000000000, 0.0000000000000000000, 0.0000000000000000000 ) ;
#43 = ORIENTED_EDGE ( 'NONE', *, *, #51, .F. ) ;
#44 = ORIENTED_EDGE ( 'NONE', *, *, #27, .F. ) ;
#45 = LENGTH_MEASURE_WITH_UNIT ( LENGTH_MEASURE( 0.02539999999999999897 ), #196 );
#46 = CARTESIAN_POINT ( 'NONE',  ( 7.660553729477951550E-17, 0.0000000000000000000, 0.6255316826705894506 ) ) ;
#47 = CIRCLE ( 'NONE', #291, 0.09375000000000001388 ) ;
#48 = DIRECTION ( 'NONE',  ( 1.000000000000000000, 0.0000000000000000000, -0.0000000000000000000 ) ) ;
#49 = DIRECTION ( 'NONE',  ( -1.000000000000000000, 0.0000000000000000000, 1.224646799147352961E-16 ) ) ;
#50 = DIRECTION ( 'NONE',  ( 1.000000000000000000, 0.0000000000000000000, 0.0000000000000000000 ) ) ;
#51 = EDGE_CURVE ( 'NONE', #268, #290, #231, .T. ) ;
#52 =( GEOMETRIC_REPRESENTATION_CONTEXT ( 3 ) GLOBAL_UNCERTAINTY_ASSIGNED_CONTEXT ( ( #95 ) ) GLOBAL_UNIT_ASSIGNED_CONTEXT ( ( #287, #36, #33 ) ) REPRESENTATION_CONTEXT ( 'NONE', 'WORKASPACE' ) );
#53 = CARTESIAN_POINT ( 'NONE',  ( 0.0000000000000000000, 0.0000000000000000000, 0.0000000000000000000 ) ) ;
#54 = APPLICATION_PROTOCOL_DEFINITION ( 'draft international standard', 'automotive_design', 1998, #212 ) ;
#55 = CARTESIAN_POINT ( 'NONE',  ( 7.654042494670957853E-17, 0.0000000000000000000, 0.6250000000000000000 ) ) ;
#56 = FACE_OUTER_BOUND ( 'NONE', #179, .T. ) ;
#57 = ADVANCED_FACE ( 'NONE', ( #205 ), #71, .T. ) ;
#58 = SURFACE_STYLE_USAGE ( .BOTH. , #126 ) ;
#59 = ORIENTED_EDGE ( 'NONE', *, *, #206, .T. ) ;
#60 = LINE ( 'NONE', #149, #265 ) ;
#61 = CYLINDRICAL_SURFACE ( 'NONE', #120, 0.09375000000000001388 ) ;
#62 = DIRECTION ( 'NONE',  ( -1.000000000000000000, 0.0000000000000000000, 0.0000000000000000000 ) ) ;
#63 = CARTESIAN_POINT ( 'NONE',  ( -0.09365624999999999645, 0.0000000000000000000, 1.146958267826442798E-17 ) ) ;
#64 =( NAMED_UNIT ( * ) SI_UNIT ( $, .STERADIAN. ) SOLID_ANGLE_UNIT ( ) );
#65 = ORIENTED_EDGE ( 'NONE', *, *, #72, .T. ) ;
#66 = CARTESIAN_POINT ( 'NONE',  ( -0.09375000000000001388, 0.0000000000000000000, 1.984999999999999654 ) ) ;
#67 = CARTESIAN_POINT ( 'NONE',  ( 0.0000000000000000000, 0.0000000000000000000, 1.984999999999999654 ) ) ;
#68 = FACE_OUTER_BOUND ( 'NONE', #151, .T. ) ;
#69 = AXIS2_PLACEMENT_3D ( 'NONE', #119, #211, #50 ) ;
#70 = ORIENTED_EDGE ( 'NONE', *, *, #288, .T. ) ;
#71 = CYLINDRICAL_SURFACE ( 'NONE', #171, 0.09365624999999999645 ) ;
#72 = EDGE_CURVE ( 'NONE', #268, #158, #154, .T. ) ;
#73 = ORIENTED_EDGE ( 'NONE', *, *, #206, .F. ) ;
#74 = CIRCLE ( 'NONE', #25, 0.09365624999999996869 ) ;
#75 = CARTESIAN_POINT ( 'NONE',  ( -0.09365624999999991318, 1.147532321013543099E-17, 0.6250000000000000000 ) ) ;
#76 = DIRECTION ( 'NONE',  ( -0.0000000000000000000, -0.0000000000000000000, -1.000000000000000000 ) ) ;
#77 = ORIENTED_EDGE ( 'NONE', *, *, #93, .F. ) ;
#78 = DIRECTION ( 'NONE',  ( 1.000000000000000000, 0.0000000000000000000, 0.0000000000000000000 ) ) ;
#79 = VECTOR ( 'NONE', #229, 39.37007874015747433 ) ;
#80 = VECTOR ( 'NONE', #278, 39.37007874015748143 ) ;
#81 = DIRECTION ( 'NONE',  ( 0.0000000000000000000, 0.0000000000000000000, 1.000000000000000000 ) ) ;
#82 = ADVANCED_FACE ( 'NONE', ( #29 ), #122, .T. ) ;
#83 = SURFACE_SIDE_STYLE ('',( #172 ) ) ;
#84 = FILL_AREA_STYLE_COLOUR ( '', #190 ) ;
#85 = EDGE_LOOP ( 'NONE', ( #276, #203, #77, #111 ) ) ;
#86 = CARTESIAN_POINT ( 'NONE',  ( 7.654042494670957853E-17, 0.0000000000000000000, 0.6250000000000000000 ) ) ;
#87 = ORIENTED_EDGE ( 'NONE', *, *, #91, .F. ) ;
#88 = VERTEX_POINT ( 'NONE', #273 ) ;
#89 = AXIS2_PLACEMENT_3D ( 'NONE', #292, #81, #169 ) ;
#90 = ORIENTED_EDGE ( 'NONE', *, *, #11, .T. ) ;
#91 = EDGE_CURVE ( 'NONE', #259, #290, #199, .T. ) ;
#92 = AXIS2_PLACEMENT_3D ( 'NONE', #141, #162, #24 ) ;
#93 = EDGE_CURVE ( 'NONE', #131, #176, #47, .T. ) ;
#94 = AXIS2_PLACEMENT_3D ( 'NONE', #53, #166, #48 ) ;
#95 = UNCERTAINTY_MEASURE_WITH_UNIT (LENGTH_MEASURE( 1.000000000000000082E-05 ), #287, 'distance_accuracy_value', 'NONE');
#96 = DIRECTION ( 'NONE',  ( 1.000000000000000000, 0.0000000000000000000, 0.0000000000000000000 ) ) ;
#97 = CYLINDRICAL_SURFACE ( 'NONE', #98, 0.09375000000000001388 ) ;
#98 = AXIS2_PLACEMENT_3D ( 'NONE', #125, #194, #284 ) ;
#99 = DIRECTION ( 'NONE',  ( 0.7071067811865463515, 8.659560562354916834E-17, -0.7071067811865486830 ) ) ;
#100 = VECTOR ( 'NONE', #99, 39.37007874015748143 ) ;
#101 = CARTESIAN_POINT ( 'NONE',  ( -0.09365624999999999645, 0.0000000000000000000, 2.293916535652885596E-17 ) ) ;
#102 = ORIENTED_EDGE ( 'NONE', *, *, #51, .T. ) ;
#103 = CARTESIAN_POINT ( 'NONE',  ( 0.0000000000000000000, 0.0000000000000000000, 1.984999999999999654 ) ) ;
#104 = LINE ( 'NONE', #127, #223 ) ;
#105 = DIMENSIONAL_EXPONENTS ( 1.000000000000000000, 0.0000000000000000000, 0.0000000000000000000, 0.0000000000000000000, 0.0000000000000000000, 0.0000000000000000000, 0.0000000000000000000 ) ;
#106 = PRESENTATION_STYLE_ASSIGNMENT (( #113 ) ) ;
#107 = CARTESIAN_POINT ( 'NONE',  ( 0.07874999999999980627, 1.056257864264590573E-17, 2.000000000000000000 ) ) ;
#108 = STYLED_ITEM ( 'NONE', ( #246 ), #136 ) ;
#109 = EDGE_CURVE ( 'NONE', #88, #249, #239, .T. ) ;
#110 = VECTOR ( 'NONE', #6, 39.37007874015748143 ) ;
#111 = ORIENTED_EDGE ( 'NONE', *, *, #11, .F. ) ;
#112 = APPLICATION_PROTOCOL_DEFINITION ( 'draft international standard', 'automotive_design', 1998, #260 ) ;
#113 = SURFACE_STYLE_USAGE ( .BOTH. , #83 ) ;
#114 = ORIENTED_EDGE ( 'NONE', *, *, #272, .F. ) ;
#115 = CARTESIAN_POINT ( 'NONE',  ( 0.0000000000000000000, 0.0000000000000000000, 0.0000000000000000000 ) ) ;
#116 = CARTESIAN_POINT ( 'NONE',  ( -0.07874999999999980627, 0.0000000000000000000, 2.000000000000000000 ) ) ;
#117 = DIRECTION ( 'NONE',  ( -1.224646799147353207E-16, -0.0000000000000000000, -1.000000000000000000 ) ) ;
#118 = ORIENTED_EDGE ( 'NONE', *, *, #30, .T. ) ;
#119 = CARTESIAN_POINT ( 'NONE',  ( 0.0000000000000000000, 0.0000000000000000000, 2.000000000000000000 ) ) ;
#120 = AXIS2_PLACEMENT_3D ( 'NONE', #285, #76, #145 ) ;
#121 = PRESENTATION_LAYER_ASSIGNMENT (  '', '', ( #282 ) ) ;
#122 = CONICAL_SURFACE ( 'NONE', #161, 0.09365624999999996869, 0.1745329251994338915 ) ;
#123 = DIRECTION ( 'NONE',  ( -1.000000000000000000, 0.0000000000000000000, 1.224646799147352961E-16 ) ) ;
#124 = FILL_AREA_STYLE ('',( #150 ) ) ;
#125 = CARTESIAN_POINT ( 'NONE',  ( 0.0000000000000000000, 0.0000000000000000000, 2.000000000000000000 ) ) ;
#126 = SURFACE_SIDE_STYLE ('',( #240 ) ) ;
#127 = CARTESIAN_POINT ( 'NONE',  ( 0.09365625000000003808, 0.0000000000000000000, 0.6250000000000000000 ) ) ;
#128 = CARTESIAN_POINT ( 'NONE',  ( -0.09374999999999994449, 0.0000000000000000000, 0.6255316826705894506 ) ) ;
#129 = COLOUR_RGB ( '',0.7921568627450980005, 0.8196078431372548767, 0.9333333333333333481 ) ;
#130 = VERTEX_POINT ( 'NONE', #177 ) ;
#131 = VERTEX_POINT ( 'NONE', #128 ) ;
#132 = CARTESIAN_POINT ( 'NONE',  ( -0.09365624999999991318, 1.146958267826442644E-17, 0.6250000000000000000 ) ) ;
#133 = ORIENTED_EDGE ( 'NONE', *, *, #157, .T. ) ;
#134 = FACE_OUTER_BOUND ( 'NONE', #40, .T. ) ;
#135 = CLOSED_SHELL ( 'NONE', ( #57, #202, #14, #263, #183, #242, #279, #82, #258, #2 ) ) ;
#136 = MANIFOLD_SOLID_BREP ( 'Cut-Revolve1', #135 ) ;
#137 = CIRCLE ( 'NONE', #253, 0.09375000000000001388 ) ;
#138 = DIRECTION ( 'NONE',  ( -1.224646799147353207E-16, -0.0000000000000000000, -1.000000000000000000 ) ) ;
#139 = CIRCLE ( 'NONE', #39, 0.09365624999999999645 ) ;
#140 = ORIENTED_EDGE ( 'NONE', *, *, #288, .F. ) ;
#141 = CARTESIAN_POINT ( 'NONE',  ( 0.0000000000000000000, 0.0000000000000000000, 2.000000000000000000 ) ) ;
#142 = DIRECTION ( 'NONE',  ( 0.0000000000000000000, 0.0000000000000000000, 1.000000000000000000 ) ) ;
#143 = CARTESIAN_POINT ( 'NONE',  ( 0.0000000000000000000, 0.0000000000000000000, 0.0000000000000000000 ) ) ;
#144 = UNCERTAINTY_MEASURE_WITH_UNIT (LENGTH_MEASURE( 1.000000000000000082E-05 ), #248, 'distance_accuracy_value', 'NONE');
#145 = DIRECTION ( 'NONE',  ( -1.000000000000000000, 0.0000000000000000000, 0.0000000000000000000 ) ) ;
#146 = LENGTH_MEASURE_WITH_UNIT ( LENGTH_MEASURE( 0.02539999999999999897 ), #15 );
#147 = PRODUCT_DEFINITION ( 'UNKNOWN', '', #257, #165 ) ;
#148 = VERTEX_POINT ( 'NONE', #101 ) ;
#149 = CARTESIAN_POINT ( 'NONE',  ( 0.09365624999999999645, 1.146958267826442798E-17, -1.146958267826442798E-17 ) ) ;
#150 = FILL_AREA_STYLE_COLOUR ( '', #129 ) ;
#151 = EDGE_LOOP ( 'NONE', ( #44, #59, #250, #43 ) ) ;
#152 =( LENGTH_UNIT ( ) NAMED_UNIT ( * ) SI_UNIT ( $, .METRE. ) );
#153 =( NAMED_UNIT ( * ) PLANE_ANGLE_UNIT ( ) SI_UNIT ( $, .RADIAN. ) );
#154 = CIRCLE ( 'NONE', #213, 0.07874999999999980627 ) ;
#155 = ORIENTED_EDGE ( 'NONE', *, *, #5, .F. ) ;
#156 = DIRECTION ( 'NONE',  ( 1.000000000000000000, 0.0000000000000000000, 0.0000000000000000000 ) ) ;
#157 = EDGE_CURVE ( 'NONE', #88, #176, #104, .T. ) ;
#158 = VERTEX_POINT ( 'NONE', #107 ) ;
#159 = DIRECTION ( 'NONE',  ( -1.224646799147353207E-16, -0.0000000000000000000, -1.000000000000000000 ) ) ;
#160 = DIRECTION ( 'NONE',  ( 0.0000000000000000000, 0.0000000000000000000, -1.000000000000000000 ) ) ;
#161 = AXIS2_PLACEMENT_3D ( 'NONE', #86, #9, #96 ) ;
#162 = DIRECTION ( 'NONE',  ( 0.0000000000000000000, 0.0000000000000000000, -1.000000000000000000 ) ) ;
#163 = DIRECTION ( 'NONE',  ( -1.224646799147353207E-16, -0.0000000000000000000, -1.000000000000000000 ) ) ;
#164 = CARTESIAN_POINT ( 'NONE',  ( 0.0000000000000000000, 0.0000000000000000000, 0.0000000000000000000 ) ) ;
#165 = PRODUCT_DEFINITION_CONTEXT ( 'detailed design', #212, 'design' ) ;
#166 = DIRECTION ( 'NONE',  ( 0.0000000000000000000, 0.0000000000000000000, 1.000000000000000000 ) ) ;
#167 =( GEOMETRIC_REPRESENTATION_CONTEXT ( 3 ) GLOBAL_UNCERTAINTY_ASSIGNED_CONTEXT ( ( #192 ) ) GLOBAL_UNIT_ASSIGNED_CONTEXT ( ( #19, #153, #35 ) ) REPRESENTATION_CONTEXT ( 'NONE', 'WORKASPACE' ) );
#168 = CARTESIAN_POINT ( 'NONE',  ( 0.07874999999999980627, 9.644093543285380530E-18, 2.000000000000000000 ) ) ;
#169 = DIRECTION ( 'NONE',  ( 1.000000000000000000, 0.0000000000000000000, -0.0000000000000000000 ) ) ;
#170 = ORIENTED_EDGE ( 'NONE', *, *, #283, .F. ) ;
#171 = AXIS2_PLACEMENT_3D ( 'NONE', #164, #256, #123 ) ;
#172 = SURFACE_STYLE_FILL_AREA ( #294 ) ;
#173 = AXIS2_PLACEMENT_3D ( 'NONE', #115, #204, #237 ) ;
#174 = LINE ( 'NONE', #168, #100 ) ;
#175 = AXIS2_PLACEMENT_3D ( 'NONE', #67, #160, #251 ) ;
#176 = VERTEX_POINT ( 'NONE', #197 ) ;
#177 = CARTESIAN_POINT ( 'NONE',  ( 0.09365624999999999645, 1.146958267826442798E-17, 0.0000000000000000000 ) ) ;
#178 = EDGE_LOOP ( 'NONE', ( #114, #191, #133, #247 ) ) ;
#179 = EDGE_LOOP ( 'NONE', ( #200, #227, #90, #232 ) ) ;
#180 = LENGTH_MEASURE_WITH_UNIT ( LENGTH_MEASURE( 0.02539999999999999897 ), #152 );
#181 = DIRECTION ( 'NONE',  ( 0.0000000000000000000, 0.0000000000000000000, -1.000000000000000000 ) ) ;
#182 = DIRECTION ( 'NONE',  ( -1.000000000000000000, 0.0000000000000000000, 1.224646799147352961E-16 ) ) ;
#183 = ADVANCED_FACE ( 'NONE', ( #56 ), #61, .T. ) ;
#184 = PLANE ( 'NONE',  #94 ) ;
#185 = AXIS2_PLACEMENT_3D ( 'NONE', #280, #23, #188 ) ;
#186 = EDGE_LOOP ( 'NONE', ( #170, #286, #70, #155 ) ) ;
#187 = CARTESIAN_POINT ( 'NONE',  ( 0.09375000000000001388, 1.148106374200643863E-17, 2.000000000000000000 ) ) ;
#188 = DIRECTION ( 'NONE',  ( 1.000000000000000000, 0.0000000000000000000, 0.0000000000000000000 ) ) ;
#189 = EDGE_CURVE ( 'NONE', #249, #88, #74, .T. ) ;
#190 = COLOUR_RGB ( '',0.7921568627450980005, 0.8196078431372548767, 0.9333333333333333481 ) ;
#191 = ORIENTED_EDGE ( 'NONE', *, *, #109, .F. ) ;
#192 = UNCERTAINTY_MEASURE_WITH_UNIT (LENGTH_MEASURE( 1.000000000000000082E-05 ), #19, 'distance_accuracy_value', 'NONE');
#193 = CONICAL_SURFACE ( 'NONE', #270, 0.07874999999999980627, 0.7853981633974466137 ) ;
#194 = DIRECTION ( 'NONE',  ( -0.0000000000000000000, -0.0000000000000000000, -1.000000000000000000 ) ) ;
#195 = DIRECTION ( 'NONE',  ( 0.1736481776669313859, 0.0000000000000000000, 0.9848077530122077983 ) ) ;
#196 =( LENGTH_UNIT ( ) NAMED_UNIT ( * ) SI_UNIT ( $, .METRE. ) );
#197 = CARTESIAN_POINT ( 'NONE',  ( 0.09375000000000006939, 1.148106374200644633E-17, 0.6255316826705894506 ) ) ;
#198 = ORIENTED_EDGE ( 'NONE', *, *, #93, .T. ) ;
#199 = CIRCLE ( 'NONE', #175, 0.09375000000000001388 ) ;
#200 = ORIENTED_EDGE ( 'NONE', *, *, #267, .F. ) ;
#201 = LINE ( 'NONE', #132, #79 ) ;
#202 = ADVANCED_FACE ( 'NONE', ( #244 ), #243, .T. ) ;
#203 = ORIENTED_EDGE ( 'NONE', *, *, #267, .T. ) ;
#204 = DIRECTION ( 'NONE',  ( 0.0000000000000000000, 0.0000000000000000000, 1.000000000000000000 ) ) ;
#205 = FACE_OUTER_BOUND ( 'NONE', #37, .T. ) ;
#206 = EDGE_CURVE ( 'NONE', #158, #259, #174, .T. ) ;
#207 = CARTESIAN_POINT ( 'NONE',  ( -0.09375000000000001388, 0.0000000000000000000, 2.000000000000000000 ) ) ;
#208 = PRODUCT_CONTEXT ( 'NONE', #260, 'mechanical' ) ;
#209 = ORIENTED_EDGE ( 'NONE', *, *, #72, .F. ) ;
#210 = CIRCLE ( 'NONE', #185, 0.09375000000000001388 ) ;
#211 = DIRECTION ( 'NONE',  ( 0.0000000000000000000, 0.0000000000000000000, 1.000000000000000000 ) ) ;
#212 = APPLICATION_CONTEXT ( 'automotive_design' ) ;
#213 = AXIS2_PLACEMENT_3D ( 'NONE', #299, #142, #236 ) ;
#214 = CARTESIAN_POINT ( 'NONE',  ( 1.404618771449245766E-33, 0.0000000000000000000, 1.146958267826442798E-17 ) ) ;
#215 = SHAPE_DEFINITION_REPRESENTATION ( #218, #217 ) ;
#216 = CARTESIAN_POINT ( 'NONE',  ( 0.09375000000000001388, 1.148106374200643863E-17, 1.984999999999999654 ) ) ;
#217 = ADVANCED_BREP_SHAPE_REPRESENTATION ( 'Micro_RDB-40', ( #136, #173 ), #167 ) ;
#218 = PRODUCT_DEFINITION_SHAPE ( 'NONE', 'NONE',  #147 ) ;
#219 = MECHANICAL_DESIGN_GEOMETRIC_PRESENTATION_REPRESENTATION (  '', ( #282 ), #18 ) ;
#220 = DIRECTION ( 'NONE',  ( -1.000000000000000000, 0.0000000000000000000, 0.0000000000000000000 ) ) ;
#221 = FACE_OUTER_BOUND ( 'NONE', #186, .T. ) ;
#222 = DIMENSIONAL_EXPONENTS ( 1.000000000000000000, 0.0000000000000000000, 0.0000000000000000000, 0.0000000000000000000, 0.0000000000000000000, 0.0000000000000000000, 0.0000000000000000000 ) ;
#223 = VECTOR ( 'NONE', #195, 39.37007874015748143 ) ;
#224 = LINE ( 'NONE', #63, #225 ) ;
#225 = VECTOR ( 'NONE', #159, 39.37007874015748143 ) ;
#226 = ORIENTED_EDGE ( 'NONE', *, *, #30, .F. ) ;
#227 = ORIENTED_EDGE ( 'NONE', *, *, #91, .T. ) ;
#228 = FACE_OUTER_BOUND ( 'NONE', #296, .T. ) ;
#229 = DIRECTION ( 'NONE',  ( -0.1736481776669311916, 2.126576849575783316E-17, 0.9848077530122080203 ) ) ;
#230 = DIRECTION ( 'NONE',  ( 1.000000000000000000, 0.0000000000000000000, 0.0000000000000000000 ) ) ;
#231 = LINE ( 'NONE', #116, #80 ) ;
#232 = ORIENTED_EDGE ( 'NONE', *, *, #41, .F. ) ;
#233 = LINE ( 'NONE', #187, #110 ) ;
#234 = AXIS2_PLACEMENT_3D ( 'NONE', #143, #32, #31 ) ;
#235 = PRODUCT_RELATED_PRODUCT_CATEGORY ( 'part', '', ( #26 ) ) ;
#236 = DIRECTION ( 'NONE',  ( 1.000000000000000000, 0.0000000000000000000, 0.0000000000000000000 ) ) ;
#237 = DIRECTION ( 'NONE',  ( 1.000000000000000000, 0.0000000000000000000, 0.0000000000000000000 ) ) ;
#238 = AXIS2_PLACEMENT_3D ( 'NONE', #55, #241, #78 ) ;
#239 = CIRCLE ( 'NONE', #275, 0.09365624999999996869 ) ;
#240 = SURFACE_STYLE_FILL_AREA ( #124 ) ;
#241 = DIRECTION ( 'NONE',  ( 1.224646799147353207E-16, 0.0000000000000000000, 1.000000000000000000 ) ) ;
#242 = ADVANCED_FACE ( 'NONE', ( #34 ), #266, .T. ) ;
#243 = CONICAL_SURFACE ( 'NONE', #238, 0.09365624999999996869, 0.1745329251994338915 ) ;
#244 = FACE_OUTER_BOUND ( 'NONE', #1, .T. ) ;
#245 = ORIENTED_EDGE ( 'NONE', *, *, #157, .F. ) ;
#246 = PRESENTATION_STYLE_ASSIGNMENT (( #58 ) ) ;
#247 = ORIENTED_EDGE ( 'NONE', *, *, #41, .T. ) ;
#248 =( CONVERSION_BASED_UNIT ( 'INCH', #180 ) LENGTH_UNIT ( ) NAMED_UNIT ( #222 ) );
#249 = VERTEX_POINT ( 'NONE', #75 ) ;
#250 = ORIENTED_EDGE ( 'NONE', *, *, #297, .F. ) ;
#251 = DIRECTION ( 'NONE',  ( 1.000000000000000000, 0.0000000000000000000, 0.0000000000000000000 ) ) ;
#252 = CIRCLE ( 'NONE', #69, 0.07874999999999980627 ) ;
#253 = AXIS2_PLACEMENT_3D ( 'NONE', #103, #271, #156 ) ;
#254 = CARTESIAN_POINT ( 'NONE',  ( 1.404618771449245766E-33, 0.0000000000000000000, 1.146958267826442798E-17 ) ) ;
#255 = ORIENTED_EDGE ( 'NONE', *, *, #283, .T. ) ;
#256 = DIRECTION ( 'NONE',  ( -1.224646799147353207E-16, -0.0000000000000000000, -1.000000000000000000 ) ) ;
#257 = PRODUCT_DEFINITION_FORMATION_WITH_SPECIFIED_SOURCE ( 'ANY', '', #26, .NOT_KNOWN. ) ;
#258 = ADVANCED_FACE ( 'NONE', ( #221 ), #17, .T. ) ;
#259 = VERTEX_POINT ( 'NONE', #216 ) ;
#260 = APPLICATION_CONTEXT ( 'automotive_design' ) ;
#261 = CONICAL_SURFACE ( 'NONE', #92, 0.07874999999999980627, 0.7853981633974466137 ) ;
#262 = CARTESIAN_POINT ( 'NONE',  ( 7.654042494670957853E-17, 0.0000000000000000000, 0.6250000000000000000 ) ) ;
#263 = ADVANCED_FACE ( 'NONE', ( #10 ), #97, .T. ) ;
#264 = DIRECTION ( 'NONE',  ( -1.224646799147353207E-16, -0.0000000000000000000, -1.000000000000000000 ) ) ;
#265 = VECTOR ( 'NONE', #298, 39.37007874015748143 ) ;
#266 = PLANE ( 'NONE',  #89 ) ;
#267 = EDGE_CURVE ( 'NONE', #259, #176, #233, .T. ) ;
#268 = VERTEX_POINT ( 'NONE', #277 ) ;
#269 = ORIENTED_EDGE ( 'NONE', *, *, #5, .T. ) ;
#270 = AXIS2_PLACEMENT_3D ( 'NONE', #16, #181, #62 ) ;
#271 = DIRECTION ( 'NONE',  ( 0.0000000000000000000, 0.0000000000000000000, -1.000000000000000000 ) ) ;
#272 = EDGE_CURVE ( 'NONE', #249, #131, #201, .T. ) ;
#273 = CARTESIAN_POINT ( 'NONE',  ( 0.09365625000000003808, 0.0000000000000000000, 0.6250000000000000000 ) ) ;
#274 = LINE ( 'NONE', #207, #289 ) ;
#275 = AXIS2_PLACEMENT_3D ( 'NONE', #22, #117, #220 ) ;
#276 = ORIENTED_EDGE ( 'NONE', *, *, #297, .T. ) ;
#277 = CARTESIAN_POINT ( 'NONE',  ( -0.07874999999999980627, 0.0000000000000000000, 2.000000000000000000 ) ) ;
#278 = DIRECTION ( 'NONE',  ( -0.7071067811865463515, 0.0000000000000000000, -0.7071067811865486830 ) ) ;
#279 = ADVANCED_FACE ( 'NONE', ( #134 ), #193, .T. ) ;
#280 = CARTESIAN_POINT ( 'NONE',  ( 7.660553729477951550E-17, 0.0000000000000000000, 0.6255316826705894506 ) ) ;
#281 = PRESENTATION_LAYER_ASSIGNMENT (  '', '', ( #108 ) ) ;
#282 = STYLED_ITEM ( 'NONE', ( #106 ), #217 ) ;
#283 = EDGE_CURVE ( 'NONE', #88, #130, #60, .T. ) ;
#284 = DIRECTION ( 'NONE',  ( -1.000000000000000000, 0.0000000000000000000, 0.0000000000000000000 ) ) ;
#285 = CARTESIAN_POINT ( 'NONE',  ( 0.0000000000000000000, 0.0000000000000000000, 2.000000000000000000 ) ) ;
#286 = ORIENTED_EDGE ( 'NONE', *, *, #109, .T. ) ;
#287 =( CONVERSION_BASED_UNIT ( 'INCH', #146 ) LENGTH_UNIT ( ) NAMED_UNIT ( #42 ) );
#288 = EDGE_CURVE ( 'NONE', #249, #148, #224, .T. ) ;
#289 = VECTOR ( 'NONE', #21, 39.37007874015748143 ) ;
#290 = VERTEX_POINT ( 'NONE', #66 ) ;
#291 = AXIS2_PLACEMENT_3D ( 'NONE', #46, #138, #230 ) ;
#292 = CARTESIAN_POINT ( 'NONE',  ( 0.0000000000000000000, 0.0000000000000000000, 2.000000000000000000 ) ) ;
#293 = ORIENTED_EDGE ( 'NONE', *, *, #272, .T. ) ;
#294 = FILL_AREA_STYLE ('',( #84 ) ) ;
#295 = ORIENTED_EDGE ( 'NONE', *, *, #27, .T. ) ;
#296 = EDGE_LOOP ( 'NONE', ( #118, #269 ) ) ;
#297 = EDGE_CURVE ( 'NONE', #290, #259, #137, .T. ) ;
#298 = DIRECTION ( 'NONE',  ( -1.224646799147353207E-16, -0.0000000000000000000, -1.000000000000000000 ) ) ;
#299 = CARTESIAN_POINT ( 'NONE',  ( 0.0000000000000000000, 0.0000000000000000000, 2.000000000000000000 ) ) ;
ENDSEC;
END-ISO-10303-21;
