ISO-10303-21;
HEADER;
FILE_DESCRIPTION (( 'STEP AP214' ),
    '1' );
FILE_NAME ('Micro_GEM-250-4X.STEP',
    '2021-09-01T20:20:43',
    ( '' ),
    ( '' ),
    'SwSTEP 2.0',
    'SolidWorks 2020',
    '' );
FILE_SCHEMA (( 'AUTOMOTIVE_DESIGN' ));
ENDSEC;

DATA;
#1 = ADVANCED_FACE ( 'NONE', ( #141 ), #95, .F. ) ;
#2 = CARTESIAN_POINT ( 'NONE',  ( -0.1248749999999999166, 1.529277690435257475E-17, 0.7500000000000001110 ) ) ;
#3 = AXIS2_PLACEMENT_3D ( 'NONE', #32, #76, #57 ) ;
#4 = ORIENTED_EDGE ( 'NONE', *, *, #145, .T. ) ;
#5 = LINE ( 'NONE', #170, #77 ) ;
#6 = ORIENTED_EDGE ( 'NONE', *, *, #99, .F. ) ;
#7 = ADVANCED_FACE ( 'NONE', ( #229 ), #20, .T. ) ;
#8 = CARTESIAN_POINT ( 'NONE',  ( 0.0000000000000000000, 0.0000000000000000000, 2.485000000000000320 ) ) ;
#9 = ORIENTED_EDGE ( 'NONE', *, *, #39, .F. ) ;
#10 = PRODUCT_DEFINITION_SHAPE ( 'NONE', 'NONE',  #187 ) ;
#11 = FACE_OUTER_BOUND ( 'NONE', #129, .T. ) ;
#12 = MANIFOLD_SOLID_BREP ( 'Cut-Revolve1', #161 ) ;
#13 = ORIENTED_EDGE ( 'NONE', *, *, #145, .F. ) ;
#14 =( CONVERSION_BASED_UNIT ( 'INCH', #176 ) LENGTH_UNIT ( ) NAMED_UNIT ( #120 ) );
#15 = ORIENTED_EDGE ( 'NONE', *, *, #29, .T. ) ;
#16 = PLANE ( 'NONE',  #234 ) ;
#17 = FILL_AREA_STYLE_COLOUR ( '', #128 ) ;
#18 = CARTESIAN_POINT ( 'NONE',  ( 1.872825028598994811E-33, 0.0000000000000000000, 1.529277690435257475E-17 ) ) ;
#19 = CIRCLE ( 'NONE', #259, 0.1248749999999999999 ) ;
#20 = CYLINDRICAL_SURFACE ( 'NONE', #94, 0.1250000000000000000 ) ;
#21 =( NAMED_UNIT ( * ) PLANE_ANGLE_UNIT ( ) SI_UNIT ( $, .RADIAN. ) );
#22 = CARTESIAN_POINT ( 'NONE',  ( 0.0000000000000000000, 0.0000000000000000000, 0.0000000000000000000 ) ) ;
#23 = AXIS2_PLACEMENT_3D ( 'NONE', #68, #163, #201 ) ;
#24 = EDGE_CURVE ( 'NONE', #241, #164, #42, .T. ) ;
#25 = CARTESIAN_POINT ( 'NONE',  ( 9.193532640014472135E-17, 0.0000000000000000000, 0.7507089102274522308 ) ) ;
#26 = CIRCLE ( 'NONE', #191, 0.1248749999999999999 ) ;
#27 = CYLINDRICAL_SURFACE ( 'NONE', #86, 0.1248749999999999999 ) ;
#28 = UNCERTAINTY_MEASURE_WITH_UNIT (LENGTH_MEASURE( 1.000000000000000082E-05 ), #294, 'distance_accuracy_value', 'NONE');
#29 = EDGE_CURVE ( 'NONE', #220, #62, #273, .T. ) ;
#30 = DIRECTION ( 'NONE',  ( 1.000000000000000000, 0.0000000000000000000, 0.0000000000000000000 ) ) ;
#31 = ORIENTED_EDGE ( 'NONE', *, *, #214, .F. ) ;
#32 = CARTESIAN_POINT ( 'NONE',  ( 0.0000000000000000000, 0.0000000000000000000, 0.0000000000000000000 ) ) ;
#33 = ADVANCED_FACE ( 'NONE', ( #211 ), #282, .T. ) ;
#34 = AXIS2_PLACEMENT_3D ( 'NONE', #298, #167, #257 ) ;
#35 = CARTESIAN_POINT ( 'NONE',  ( 9.193532640014472135E-17, 0.0000000000000000000, 0.7507089102274522308 ) ) ;
#36 = ORIENTED_EDGE ( 'NONE', *, *, #154, .T. ) ;
#37 = CYLINDRICAL_SURFACE ( 'NONE', #168, 0.1250000000000000000 ) ;
#38 = ORIENTED_EDGE ( 'NONE', *, *, #87, .F. ) ;
#39 = EDGE_CURVE ( 'NONE', #80, #194, #19, .T. ) ;
#40 = EDGE_LOOP ( 'NONE', ( #106, #54, #6, #151 ) ) ;
#41 = CIRCLE ( 'NONE', #297, 0.1100000000000001948 ) ;
#42 = CIRCLE ( 'NONE', #116, 0.1248749999999999999 ) ;
#43 = SURFACE_STYLE_FILL_AREA ( #289 ) ;
#44 = DIRECTION ( 'NONE',  ( 0.0000000000000000000, 0.0000000000000000000, -1.000000000000000000 ) ) ;
#45 = CARTESIAN_POINT ( 'NONE',  ( 1.872825028598994811E-33, 0.0000000000000000000, 1.529277690435257475E-17 ) ) ;
#46 = EDGE_CURVE ( 'NONE', #202, #220, #70, .T. ) ;
#47 = LENGTH_MEASURE_WITH_UNIT ( LENGTH_MEASURE( 0.02539999999999999897 ), #249 );
#48 = EDGE_LOOP ( 'NONE', ( #111, #59, #36, #13 ) ) ;
#49 = EDGE_CURVE ( 'NONE', #164, #241, #26, .T. ) ;
#50 = FACE_OUTER_BOUND ( 'NONE', #175, .T. ) ;
#51 = CONICAL_SURFACE ( 'NONE', #34, 0.1248749999999999999, 0.1745329251994339192 ) ;
#52 = LINE ( 'NONE', #186, #58 ) ;
#53 = DIRECTION ( 'NONE',  ( 1.000000000000000000, 0.0000000000000000000, 0.0000000000000000000 ) ) ;
#54 = ORIENTED_EDGE ( 'NONE', *, *, #46, .T. ) ;
#55 = CARTESIAN_POINT ( 'NONE',  ( 0.0000000000000000000, 0.0000000000000000000, 2.500000000000000000 ) ) ;
#56 = ORIENTED_EDGE ( 'NONE', *, *, #99, .T. ) ;
#57 = DIRECTION ( 'NONE',  ( -1.000000000000000000, 0.0000000000000000000, 1.224646799147353454E-16 ) ) ;
#58 = VECTOR ( 'NONE', #196, 39.37007874015748143 ) ;
#59 = ORIENTED_EDGE ( 'NONE', *, *, #91, .T. ) ;
#60 = PRESENTATION_STYLE_ASSIGNMENT (( #66 ) ) ;
#61 = PRODUCT ( 'Micro_GEM-250-4X', 'Micro_GEM-250-4X', '', ( #272 ) ) ;
#62 = VERTEX_POINT ( 'NONE', #140 ) ;
#63 = VERTEX_POINT ( 'NONE', #208 ) ;
#64 = EDGE_LOOP ( 'NONE', ( #56, #15, #292, #125 ) ) ;
#65 = CIRCLE ( 'NONE', #159, 0.1250000000000000000 ) ;
#66 = SURFACE_STYLE_USAGE ( .BOTH. , #221 ) ;
#67 = CARTESIAN_POINT ( 'NONE',  ( 0.1250000000000000000, 1.530808498934191509E-17, 2.500000000000000000 ) ) ;
#68 = CARTESIAN_POINT ( 'NONE',  ( 0.0000000000000000000, 0.0000000000000000000, 0.0000000000000000000 ) ) ;
#69 = EDGE_CURVE ( 'NONE', #80, #164, #295, .T. ) ;
#70 = LINE ( 'NONE', #252, #223 ) ;
#71 = SURFACE_STYLE_FILL_AREA ( #206 ) ;
#72 = CARTESIAN_POINT ( 'NONE',  ( 0.0000000000000000000, 0.0000000000000000000, 2.500000000000000000 ) ) ;
#73 = DIRECTION ( 'NONE',  ( 0.0000000000000000000, 0.0000000000000000000, -1.000000000000000000 ) ) ;
#74 = CARTESIAN_POINT ( 'NONE',  ( -0.1250000000000000000, 0.0000000000000000000, 2.485000000000000320 ) ) ;
#75 = CIRCLE ( 'NONE', #210, 0.1250000000000000000 ) ;
#76 = DIRECTION ( 'NONE',  ( -1.224646799147353207E-16, -0.0000000000000000000, -1.000000000000000000 ) ) ;
#77 = VECTOR ( 'NONE', #262, 39.37007874015748143 ) ;
#78 = STYLED_ITEM ( 'NONE', ( #92 ), #12 ) ;
#79 = DIRECTION ( 'NONE',  ( -1.224646799147353207E-16, -0.0000000000000000000, -1.000000000000000000 ) ) ;
#80 = VERTEX_POINT ( 'NONE', #130 ) ;
#81 = DIRECTION ( 'NONE',  ( -1.224646799147353207E-16, -0.0000000000000000000, -1.000000000000000000 ) ) ;
#82 =( NAMED_UNIT ( * ) PLANE_ANGLE_UNIT ( ) SI_UNIT ( $, .RADIAN. ) );
#83 = ORIENTED_EDGE ( 'NONE', *, *, #29, .F. ) ;
#84 = CARTESIAN_POINT ( 'NONE',  ( 0.0000000000000000000, 0.0000000000000000000, 2.500000000000000000 ) ) ;
#85 = DIRECTION ( 'NONE',  ( -1.224646799147353207E-16, -0.0000000000000000000, -1.000000000000000000 ) ) ;
#86 = AXIS2_PLACEMENT_3D ( 'NONE', #122, #213, #98 ) ;
#87 = EDGE_CURVE ( 'NONE', #220, #185, #127, .T. ) ;
#88 = DIRECTION ( 'NONE',  ( 0.0000000000000000000, 0.0000000000000000000, 1.000000000000000000 ) ) ;
#89 = DIRECTION ( 'NONE',  ( -1.000000000000000000, 0.0000000000000000000, 1.224646799147353454E-16 ) ) ;
#90 = DIRECTION ( 'NONE',  ( -1.000000000000000000, 0.0000000000000000000, 0.0000000000000000000 ) ) ;
#91 = EDGE_CURVE ( 'NONE', #194, #63, #239, .T. ) ;
#92 = PRESENTATION_STYLE_ASSIGNMENT (( #296 ) ) ;
#93 = VECTOR ( 'NONE', #124, 39.37007874015748143 ) ;
#94 = AXIS2_PLACEMENT_3D ( 'NONE', #72, #276, #230 ) ;
#95 = PLANE ( 'NONE',  #107 ) ;
#96 = DIMENSIONAL_EXPONENTS ( 1.000000000000000000, 0.0000000000000000000, 0.0000000000000000000, 0.0000000000000000000, 0.0000000000000000000, 0.0000000000000000000, 0.0000000000000000000 ) ;
#97 = CARTESIAN_POINT ( 'NONE',  ( 0.0000000000000000000, 0.0000000000000000000, 2.485000000000000320 ) ) ;
#98 = DIRECTION ( 'NONE',  ( -1.000000000000000000, 0.0000000000000000000, 1.224646799147353454E-16 ) ) ;
#99 = EDGE_CURVE ( 'NONE', #185, #220, #65, .T. ) ;
#100 = PRESENTATION_LAYER_ASSIGNMENT (  '', '', ( #169 ) ) ;
#101 = EDGE_CURVE ( 'NONE', #247, #185, #5, .T. ) ;
#102 = PRODUCT_DEFINITION_CONTEXT ( 'detailed design', #137, 'design' ) ;
#103 = CARTESIAN_POINT ( 'NONE',  ( -0.1248749999999999166, 1.530043094684724646E-17, 0.7500000000000001110 ) ) ;
#104 = CIRCLE ( 'NONE', #143, 0.1100000000000001948 ) ;
#105 = VECTOR ( 'NONE', #152, 39.37007874015748143 ) ;
#106 = ORIENTED_EDGE ( 'NONE', *, *, #238, .F. ) ;
#107 = AXIS2_PLACEMENT_3D ( 'NONE', #22, #274, #254 ) ;
#108 = CARTESIAN_POINT ( 'NONE',  ( 0.0000000000000000000, 0.0000000000000000000, 2.500000000000000000 ) ) ;
#109 = ORIENTED_EDGE ( 'NONE', *, *, #91, .F. ) ;
#110 = FACE_OUTER_BOUND ( 'NONE', #48, .T. ) ;
#111 = ORIENTED_EDGE ( 'NONE', *, *, #195, .F. ) ;
#112 = CARTESIAN_POINT ( 'NONE',  ( 0.0000000000000000000, 0.0000000000000000000, 2.500000000000000000 ) ) ;
#113 = ORIENTED_EDGE ( 'NONE', *, *, #24, .T. ) ;
#114 = LENGTH_MEASURE_WITH_UNIT ( LENGTH_MEASURE( 0.02539999999999999897 ), #136 );
#115 = AXIS2_PLACEMENT_3D ( 'NONE', #8, #280, #263 ) ;
#116 = AXIS2_PLACEMENT_3D ( 'NONE', #45, #165, #135 ) ;
#117 = SURFACE_SIDE_STYLE ('',( #71 ) ) ;
#118 = ORIENTED_EDGE ( 'NONE', *, *, #148, .T. ) ;
#119 = CONICAL_SURFACE ( 'NONE', #193, 0.1100000000000001948, 0.7853981633974517207 ) ;
#120 = DIMENSIONAL_EXPONENTS ( 1.000000000000000000, 0.0000000000000000000, 0.0000000000000000000, 0.0000000000000000000, 0.0000000000000000000, 0.0000000000000000000, 0.0000000000000000000 ) ;
#121 = FACE_OUTER_BOUND ( 'NONE', #269, .T. ) ;
#122 = CARTESIAN_POINT ( 'NONE',  ( 0.0000000000000000000, 0.0000000000000000000, 0.0000000000000000000 ) ) ;
#123 = EDGE_CURVE ( 'NONE', #247, #202, #104, .T. ) ;
#124 = DIRECTION ( 'NONE',  ( -1.224646799147353207E-16, -0.0000000000000000000, -1.000000000000000000 ) ) ;
#125 = ORIENTED_EDGE ( 'NONE', *, *, #148, .F. ) ;
#126 = CARTESIAN_POINT ( 'NONE',  ( 0.0000000000000000000, 0.0000000000000000000, 2.500000000000000000 ) ) ;
#127 = CIRCLE ( 'NONE', #115, 0.1250000000000000000 ) ;
#128 = COLOUR_RGB ( '',0.7921568627450980005, 0.8196078431372548767, 0.9333333333333333481 ) ;
#129 = EDGE_LOOP ( 'NONE', ( #209, #225 ) ) ;
#130 = CARTESIAN_POINT ( 'NONE',  ( 0.1248750000000000970, 0.0000000000000000000, 0.7500000000000001110 ) ) ;
#131 =( NAMED_UNIT ( * ) SI_UNIT ( $, .STERADIAN. ) SOLID_ANGLE_UNIT ( ) );
#132 = ORIENTED_EDGE ( 'NONE', *, *, #87, .T. ) ;
#133 = ORIENTED_EDGE ( 'NONE', *, *, #177, .T. ) ;
#134 =( NAMED_UNIT ( * ) SI_UNIT ( $, .STERADIAN. ) SOLID_ANGLE_UNIT ( ) );
#135 = DIRECTION ( 'NONE',  ( -1.000000000000000000, 0.0000000000000000000, 1.224646799147353454E-16 ) ) ;
#136 =( LENGTH_UNIT ( ) NAMED_UNIT ( * ) SI_UNIT ( $, .METRE. ) );
#137 = APPLICATION_CONTEXT ( 'automotive_design' ) ;
#138 = DIRECTION ( 'NONE',  ( 0.7071067811865499042, 8.659560562354961208E-17, -0.7071067811865451302 ) ) ;
#139 = APPLICATION_PROTOCOL_DEFINITION ( 'draft international standard', 'automotive_design', 1998, #240 ) ;
#140 = CARTESIAN_POINT ( 'NONE',  ( 0.1250000000000000833, 1.530808498934192433E-17, 0.7507089102274522308 ) ) ;
#141 = FACE_OUTER_BOUND ( 'NONE', #253, .T. ) ;
#142 = DIRECTION ( 'NONE',  ( 0.0000000000000000000, 0.0000000000000000000, 1.000000000000000000 ) ) ;
#143 = AXIS2_PLACEMENT_3D ( 'NONE', #108, #153, #212 ) ;
#144 = CONICAL_SURFACE ( 'NONE', #205, 0.1248749999999999999, 0.1745329251994339192 ) ;
#145 = EDGE_CURVE ( 'NONE', #80, #62, #188, .T. ) ;
#146 = LINE ( 'NONE', #166, #228 ) ;
#147 = UNCERTAINTY_MEASURE_WITH_UNIT (LENGTH_MEASURE( 1.000000000000000082E-05 ), #250, 'distance_accuracy_value', 'NONE');
#148 = EDGE_CURVE ( 'NONE', #185, #63, #52, .T. ) ;
#149 = MECHANICAL_DESIGN_GEOMETRIC_PRESENTATION_REPRESENTATION (  '', ( #78 ), #260 ) ;
#150 = DIRECTION ( 'NONE',  ( -1.000000000000000000, 0.0000000000000000000, 0.0000000000000000000 ) ) ;
#151 = ORIENTED_EDGE ( 'NONE', *, *, #101, .F. ) ;
#152 = DIRECTION ( 'NONE',  ( 0.1736481776669314137, 0.0000000000000000000, 0.9848077530122077983 ) ) ;
#153 = DIRECTION ( 'NONE',  ( 0.0000000000000000000, 0.0000000000000000000, 1.000000000000000000 ) ) ;
#154 = EDGE_CURVE ( 'NONE', #63, #62, #256, .T. ) ;
#155 = ORIENTED_EDGE ( 'NONE', *, *, #101, .T. ) ;
#156 = ORIENTED_EDGE ( 'NONE', *, *, #69, .F. ) ;
#157 = MECHANICAL_DESIGN_GEOMETRIC_PRESENTATION_REPRESENTATION (  '', ( #169 ), #265 ) ;
#158 = ORIENTED_EDGE ( 'NONE', *, *, #69, .T. ) ;
#159 = AXIS2_PLACEMENT_3D ( 'NONE', #97, #174, #217 ) ;
#160 =( LENGTH_UNIT ( ) NAMED_UNIT ( * ) SI_UNIT ( $, .METRE. ) );
#161 = CLOSED_SHELL ( 'NONE', ( #258, #286, #33, #266, #7, #291, #173, #251, #236, #1 ) ) ;
#162 = DIRECTION ( 'NONE',  ( -0.0000000000000000000, -0.0000000000000000000, -1.000000000000000000 ) ) ;
#163 = DIRECTION ( 'NONE',  ( 0.0000000000000000000, 0.0000000000000000000, 1.000000000000000000 ) ) ;
#164 = VERTEX_POINT ( 'NONE', #284 ) ;
#165 = DIRECTION ( 'NONE',  ( -1.224646799147353207E-16, -0.0000000000000000000, -1.000000000000000000 ) ) ;
#166 = CARTESIAN_POINT ( 'NONE',  ( -0.1248749999999999999, 0.0000000000000000000, 1.529277690435257475E-17 ) ) ;
#167 = DIRECTION ( 'NONE',  ( 1.224646799147353207E-16, 0.0000000000000000000, 1.000000000000000000 ) ) ;
#168 = AXIS2_PLACEMENT_3D ( 'NONE', #84, #226, #224 ) ;
#169 = STYLED_ITEM ( 'NONE', ( #60 ), #267 ) ;
#170 = CARTESIAN_POINT ( 'NONE',  ( -0.1100000000000001948, 0.0000000000000000000, 2.500000000000000000 ) ) ;
#171 = DIRECTION ( 'NONE',  ( -0.1736481776669312194, 2.126576849575783625E-17, 0.9848077530122080203 ) ) ;
#172 = ORIENTED_EDGE ( 'NONE', *, *, #24, .F. ) ;
#173 = ADVANCED_FACE ( 'NONE', ( #192 ), #119, .T. ) ;
#174 = DIRECTION ( 'NONE',  ( 0.0000000000000000000, 0.0000000000000000000, -1.000000000000000000 ) ) ;
#175 = EDGE_LOOP ( 'NONE', ( #156, #246, #133, #290 ) ) ;
#176 = LENGTH_MEASURE_WITH_UNIT ( LENGTH_MEASURE( 0.02539999999999999897 ), #160 );
#177 = EDGE_CURVE ( 'NONE', #194, #241, #146, .T. ) ;
#178 = EDGE_LOOP ( 'NONE', ( #245, #158, #172, #222 ) ) ;
#179 = DIRECTION ( 'NONE',  ( 1.000000000000000000, 0.0000000000000000000, -0.0000000000000000000 ) ) ;
#180 = CIRCLE ( 'NONE', #279, 0.1248749999999999999 ) ;
#181 = DIRECTION ( 'NONE',  ( -1.000000000000000000, 0.0000000000000000000, 0.0000000000000000000 ) ) ;
#182 = PRODUCT_DEFINITION_FORMATION_WITH_SPECIFIED_SOURCE ( 'ANY', '', #61, .NOT_KNOWN. ) ;
#183 = PRODUCT_RELATED_PRODUCT_CATEGORY ( 'part', '', ( #61 ) ) ;
#184 = DIRECTION ( 'NONE',  ( -1.224646799147353207E-16, -0.0000000000000000000, -1.000000000000000000 ) ) ;
#185 = VERTEX_POINT ( 'NONE', #74 ) ;
#186 = CARTESIAN_POINT ( 'NONE',  ( -0.1250000000000000000, 0.0000000000000000000, 2.500000000000000000 ) ) ;
#187 = PRODUCT_DEFINITION ( 'UNKNOWN', '', #182, #102 ) ;
#188 = LINE ( 'NONE', #215, #105 ) ;
#189 = FACE_OUTER_BOUND ( 'NONE', #64, .T. ) ;
#190 = COLOUR_RGB ( '',0.7921568627450980005, 0.8196078431372548767, 0.9333333333333333481 ) ;
#191 = AXIS2_PLACEMENT_3D ( 'NONE', #18, #184, #89 ) ;
#192 = FACE_OUTER_BOUND ( 'NONE', #288, .T. ) ;
#193 = AXIS2_PLACEMENT_3D ( 'NONE', #55, #73, #278 ) ;
#194 = VERTEX_POINT ( 'NONE', #103 ) ;
#195 = EDGE_CURVE ( 'NONE', #194, #80, #180, .T. ) ;
#196 = DIRECTION ( 'NONE',  ( -0.0000000000000000000, -0.0000000000000000000, -1.000000000000000000 ) ) ;
#197 = ORIENTED_EDGE ( 'NONE', *, *, #123, .F. ) ;
#198 = APPLICATION_PROTOCOL_DEFINITION ( 'draft international standard', 'automotive_design', 1998, #137 ) ;
#199 = ORIENTED_EDGE ( 'NONE', *, *, #49, .T. ) ;
#200 =( NAMED_UNIT ( * ) PLANE_ANGLE_UNIT ( ) SI_UNIT ( $, .RADIAN. ) );
#201 = DIRECTION ( 'NONE',  ( 1.000000000000000000, 0.0000000000000000000, 0.0000000000000000000 ) ) ;
#202 = VERTEX_POINT ( 'NONE', #264 ) ;
#203 = CARTESIAN_POINT ( 'NONE',  ( 9.184850993605150903E-17, 0.0000000000000000000, 0.7500000000000001110 ) ) ;
#204 = CARTESIAN_POINT ( 'NONE',  ( 9.184850993605150903E-17, 0.0000000000000000000, 0.7500000000000001110 ) ) ;
#205 = AXIS2_PLACEMENT_3D ( 'NONE', #203, #268, #293 ) ;
#206 = FILL_AREA_STYLE ('',( #17 ) ) ;
#207 = PRESENTATION_LAYER_ASSIGNMENT (  '', '', ( #78 ) ) ;
#208 = CARTESIAN_POINT ( 'NONE',  ( -0.1249999999999999167, 0.0000000000000000000, 0.7507089102274522308 ) ) ;
#209 = ORIENTED_EDGE ( 'NONE', *, *, #123, .T. ) ;
#210 = AXIS2_PLACEMENT_3D ( 'NONE', #25, #79, #30 ) ;
#211 = FACE_OUTER_BOUND ( 'NONE', #40, .T. ) ;
#212 = DIRECTION ( 'NONE',  ( 1.000000000000000000, 0.0000000000000000000, 0.0000000000000000000 ) ) ;
#213 = DIRECTION ( 'NONE',  ( -1.224646799147353207E-16, -0.0000000000000000000, -1.000000000000000000 ) ) ;
#214 = EDGE_CURVE ( 'NONE', #62, #63, #75, .T. ) ;
#215 = CARTESIAN_POINT ( 'NONE',  ( 0.1248750000000000970, 0.0000000000000000000, 0.7500000000000001110 ) ) ;
#216 = ORIENTED_EDGE ( 'NONE', *, *, #214, .T. ) ;
#217 = DIRECTION ( 'NONE',  ( 1.000000000000000000, 0.0000000000000000000, 0.0000000000000000000 ) ) ;
#218 = EDGE_LOOP ( 'NONE', ( #83, #132, #118, #31 ) ) ;
#219 = CARTESIAN_POINT ( 'NONE',  ( -0.1248749999999999999, 0.0000000000000000000, 3.058555380870514950E-17 ) ) ;
#220 = VERTEX_POINT ( 'NONE', #255 ) ;
#221 = SURFACE_SIDE_STYLE ('',( #43 ) ) ;
#222 = ORIENTED_EDGE ( 'NONE', *, *, #177, .F. ) ;
#223 = VECTOR ( 'NONE', #138, 39.37007874015748143 ) ;
#224 = DIRECTION ( 'NONE',  ( -1.000000000000000000, 0.0000000000000000000, 0.0000000000000000000 ) ) ;
#225 = ORIENTED_EDGE ( 'NONE', *, *, #238, .T. ) ;
#226 = DIRECTION ( 'NONE',  ( -0.0000000000000000000, -0.0000000000000000000, -1.000000000000000000 ) ) ;
#227 = CARTESIAN_POINT ( 'NONE',  ( 0.0000000000000000000, 0.0000000000000000000, 2.500000000000000000 ) ) ;
#228 = VECTOR ( 'NONE', #81, 39.37007874015748143 ) ;
#229 = FACE_OUTER_BOUND ( 'NONE', #218, .T. ) ;
#230 = DIRECTION ( 'NONE',  ( -1.000000000000000000, 0.0000000000000000000, 0.0000000000000000000 ) ) ;
#231 =( NAMED_UNIT ( * ) SI_UNIT ( $, .STERADIAN. ) SOLID_ANGLE_UNIT ( ) );
#232 = AXIS2_PLACEMENT_3D ( 'NONE', #227, #44, #90 ) ;
#233 = CARTESIAN_POINT ( 'NONE',  ( -0.1100000000000001948, 0.0000000000000000000, 2.500000000000000000 ) ) ;
#234 = AXIS2_PLACEMENT_3D ( 'NONE', #112, #88, #179 ) ;
#235 = FACE_OUTER_BOUND ( 'NONE', #178, .T. ) ;
#236 = ADVANCED_FACE ( 'NONE', ( #50 ), #242, .T. ) ;
#237 = DIMENSIONAL_EXPONENTS ( 1.000000000000000000, 0.0000000000000000000, 0.0000000000000000000, 0.0000000000000000000, 0.0000000000000000000, 0.0000000000000000000, 0.0000000000000000000 ) ;
#238 = EDGE_CURVE ( 'NONE', #202, #247, #41, .T. ) ;
#239 = LINE ( 'NONE', #2, #271 ) ;
#240 = APPLICATION_CONTEXT ( 'automotive_design' ) ;
#241 = VERTEX_POINT ( 'NONE', #219 ) ;
#242 = CYLINDRICAL_SURFACE ( 'NONE', #3, 0.1248749999999999999 ) ;
#243 = AXIS2_PLACEMENT_3D ( 'NONE', #35, #277, #53 ) ;
#244 = DIRECTION ( 'NONE',  ( 1.000000000000000000, 0.0000000000000000000, 0.0000000000000000000 ) ) ;
#245 = ORIENTED_EDGE ( 'NONE', *, *, #195, .T. ) ;
#246 = ORIENTED_EDGE ( 'NONE', *, *, #39, .T. ) ;
#247 = VERTEX_POINT ( 'NONE', #233 ) ;
#248 =( GEOMETRIC_REPRESENTATION_CONTEXT ( 3 ) GLOBAL_UNCERTAINTY_ASSIGNED_CONTEXT ( ( #147 ) ) GLOBAL_UNIT_ASSIGNED_CONTEXT ( ( #250, #200, #131 ) ) REPRESENTATION_CONTEXT ( 'NONE', 'WORKASPACE' ) );
#249 =( LENGTH_UNIT ( ) NAMED_UNIT ( * ) SI_UNIT ( $, .METRE. ) );
#250 =( CONVERSION_BASED_UNIT ( 'INCH', #114 ) LENGTH_UNIT ( ) NAMED_UNIT ( #237 ) );
#251 = ADVANCED_FACE ( 'NONE', ( #121 ), #51, .T. ) ;
#252 = CARTESIAN_POINT ( 'NONE',  ( 0.1100000000000001948, 1.347111479062090784E-17, 2.500000000000000000 ) ) ;
#253 = EDGE_LOOP ( 'NONE', ( #113, #199 ) ) ;
#254 = DIRECTION ( 'NONE',  ( 1.000000000000000000, 0.0000000000000000000, -0.0000000000000000000 ) ) ;
#255 = CARTESIAN_POINT ( 'NONE',  ( 0.1250000000000000000, 1.530808498934191509E-17, 2.485000000000000320 ) ) ;
#256 = CIRCLE ( 'NONE', #243, 0.1250000000000000000 ) ;
#257 = DIRECTION ( 'NONE',  ( 1.000000000000000000, 0.0000000000000000000, 0.0000000000000000000 ) ) ;
#258 = ADVANCED_FACE ( 'NONE', ( #235 ), #27, .T. ) ;
#259 = AXIS2_PLACEMENT_3D ( 'NONE', #204, #85, #181 ) ;
#260 =( GEOMETRIC_REPRESENTATION_CONTEXT ( 3 ) GLOBAL_UNCERTAINTY_ASSIGNED_CONTEXT ( ( #28 ) ) GLOBAL_UNIT_ASSIGNED_CONTEXT ( ( #294, #21, #231 ) ) REPRESENTATION_CONTEXT ( 'NONE', 'WORKASPACE' ) );
#261 = UNCERTAINTY_MEASURE_WITH_UNIT (LENGTH_MEASURE( 1.000000000000000082E-05 ), #14, 'distance_accuracy_value', 'NONE');
#262 = DIRECTION ( 'NONE',  ( -0.7071067811865499042, 0.0000000000000000000, -0.7071067811865451302 ) ) ;
#263 = DIRECTION ( 'NONE',  ( 1.000000000000000000, 0.0000000000000000000, 0.0000000000000000000 ) ) ;
#264 = CARTESIAN_POINT ( 'NONE',  ( 0.1100000000000001948, 1.438959988998141146E-17, 2.500000000000000000 ) ) ;
#265 =( GEOMETRIC_REPRESENTATION_CONTEXT ( 3 ) GLOBAL_UNCERTAINTY_ASSIGNED_CONTEXT ( ( #261 ) ) GLOBAL_UNIT_ASSIGNED_CONTEXT ( ( #14, #82, #134 ) ) REPRESENTATION_CONTEXT ( 'NONE', 'WORKASPACE' ) );
#266 = ADVANCED_FACE ( 'NONE', ( #189 ), #37, .T. ) ;
#267 = ADVANCED_BREP_SHAPE_REPRESENTATION ( 'Micro_GEM-250-4X', ( #12, #23 ), #248 ) ;
#268 = DIRECTION ( 'NONE',  ( 1.224646799147353207E-16, 0.0000000000000000000, 1.000000000000000000 ) ) ;
#269 = EDGE_LOOP ( 'NONE', ( #109, #9, #4, #216 ) ) ;
#270 = FILL_AREA_STYLE_COLOUR ( '', #190 ) ;
#271 = VECTOR ( 'NONE', #171, 39.37007874015747433 ) ;
#272 = PRODUCT_CONTEXT ( 'NONE', #240, 'mechanical' ) ;
#273 = LINE ( 'NONE', #67, #281 ) ;
#274 = DIRECTION ( 'NONE',  ( 0.0000000000000000000, 0.0000000000000000000, 1.000000000000000000 ) ) ;
#275 = CARTESIAN_POINT ( 'NONE',  ( 0.1248749999999999999, 1.529277690435257475E-17, -1.529277690435257475E-17 ) ) ;
#276 = DIRECTION ( 'NONE',  ( -0.0000000000000000000, -0.0000000000000000000, -1.000000000000000000 ) ) ;
#277 = DIRECTION ( 'NONE',  ( -1.224646799147353207E-16, -0.0000000000000000000, -1.000000000000000000 ) ) ;
#278 = DIRECTION ( 'NONE',  ( -1.000000000000000000, 0.0000000000000000000, 0.0000000000000000000 ) ) ;
#279 = AXIS2_PLACEMENT_3D ( 'NONE', #283, #299, #150 ) ;
#280 = DIRECTION ( 'NONE',  ( 0.0000000000000000000, 0.0000000000000000000, -1.000000000000000000 ) ) ;
#281 = VECTOR ( 'NONE', #162, 39.37007874015748143 ) ;
#282 = CONICAL_SURFACE ( 'NONE', #232, 0.1100000000000001948, 0.7853981633974517207 ) ;
#283 = CARTESIAN_POINT ( 'NONE',  ( 9.184850993605150903E-17, 0.0000000000000000000, 0.7500000000000001110 ) ) ;
#284 = CARTESIAN_POINT ( 'NONE',  ( 0.1248749999999999999, 1.529277690435257475E-17, 0.0000000000000000000 ) ) ;
#285 = ORIENTED_EDGE ( 'NONE', *, *, #46, .F. ) ;
#286 = ADVANCED_FACE ( 'NONE', ( #110 ), #144, .T. ) ;
#287 = SHAPE_DEFINITION_REPRESENTATION ( #10, #267 ) ;
#288 = EDGE_LOOP ( 'NONE', ( #285, #197, #155, #38 ) ) ;
#289 = FILL_AREA_STYLE ('',( #270 ) ) ;
#290 = ORIENTED_EDGE ( 'NONE', *, *, #49, .F. ) ;
#291 = ADVANCED_FACE ( 'NONE', ( #11 ), #16, .T. ) ;
#292 = ORIENTED_EDGE ( 'NONE', *, *, #154, .F. ) ;
#293 = DIRECTION ( 'NONE',  ( 1.000000000000000000, 0.0000000000000000000, 0.0000000000000000000 ) ) ;
#294 =( CONVERSION_BASED_UNIT ( 'INCH', #47 ) LENGTH_UNIT ( ) NAMED_UNIT ( #96 ) );
#295 = LINE ( 'NONE', #275, #93 ) ;
#296 = SURFACE_STYLE_USAGE ( .BOTH. , #117 ) ;
#297 = AXIS2_PLACEMENT_3D ( 'NONE', #126, #142, #244 ) ;
#298 = CARTESIAN_POINT ( 'NONE',  ( 9.184850993605150903E-17, 0.0000000000000000000, 0.7500000000000001110 ) ) ;
#299 = DIRECTION ( 'NONE',  ( -1.224646799147353207E-16, -0.0000000000000000000, -1.000000000000000000 ) ) ;
ENDSEC;
END-ISO-10303-21;
