ISO-10303-21;
HEADER;
FILE_DESCRIPTION (( 'STEP AP214' ),
    '1' );
FILE_NAME ('Micro_SFL-062-42.STEP',
    '2021-09-02T04:34:33',
    ( '' ),
    ( '' ),
    'SwSTEP 2.0',
    'SolidWorks 2020',
    '' );
FILE_SCHEMA (( 'AUTOMOTIVE_DESIGN' ));
ENDSEC;

DATA;
#1 = ORIENTED_EDGE ( 'NONE', *, *, #87, .F. ) ;
#2 = EDGE_CURVE ( 'NONE', #165, #59, #281, .T. ) ;
#3 = CIRCLE ( 'NONE', #79, 0.03121874999999999997 ) ;
#4 = ORIENTED_EDGE ( 'NONE', *, *, #2, .T. ) ;
#5 = AXIS2_PLACEMENT_3D ( 'NONE', #241, #35, #34 ) ;
#6 = EDGE_LOOP ( 'NONE', ( #147, #166 ) ) ;
#7 = EDGE_LOOP ( 'NONE', ( #187, #205, #126, #57 ) ) ;
#8 = DIRECTION ( 'NONE',  ( -1.000000000000000000, 0.0000000000000000000, 0.0000000000000000000 ) ) ;
#9 = DIRECTION ( 'NONE',  ( 0.0000000000000000000, 0.0000000000000000000, 1.000000000000000000 ) ) ;
#10 = AXIS2_PLACEMENT_3D ( 'NONE', #172, #195, #284 ) ;
#11 = FACE_OUTER_BOUND ( 'NONE', #6, .T. ) ;
#12 = CYLINDRICAL_SURFACE ( 'NONE', #268, 0.1250000000000000000 ) ;
#13 = CARTESIAN_POINT ( 'NONE',  ( 0.1250000000000001110, 1.530808498934192742E-17, 0.7818598981460205266 ) ) ;
#14 = COLOUR_RGB ( '',0.7921568627450980005, 0.8196078431372548767, 0.9333333333333333481 ) ;
#15 = AXIS2_PLACEMENT_3D ( 'NONE', #85, #61, #8 ) ;
#16 =( GEOMETRIC_REPRESENTATION_CONTEXT ( 3 ) GLOBAL_UNCERTAINTY_ASSIGNED_CONTEXT ( ( #216 ) ) GLOBAL_UNIT_ASSIGNED_CONTEXT ( ( #37, #22, #228 ) ) REPRESENTATION_CONTEXT ( 'NONE', 'WORKASPACE' ) );
#17 = DIRECTION ( 'NONE',  ( -1.224646799147353207E-16, -0.0000000000000000000, -1.000000000000000000 ) ) ;
#18 = MANIFOLD_SOLID_BREP ( 'Cut-Revolve1', #206 ) ;
#19 = FACE_OUTER_BOUND ( 'NONE', #256, .T. ) ;
#20 = FACE_OUTER_BOUND ( 'NONE', #103, .T. ) ;
#21 = AXIS2_PLACEMENT_3D ( 'NONE', #252, #237, #273 ) ;
#22 =( NAMED_UNIT ( * ) PLANE_ANGLE_UNIT ( ) SI_UNIT ( $, .RADIAN. ) );
#23 =( GEOMETRIC_REPRESENTATION_CONTEXT ( 3 ) GLOBAL_UNCERTAINTY_ASSIGNED_CONTEXT ( ( #253 ) ) GLOBAL_UNIT_ASSIGNED_CONTEXT ( ( #243, #60, #245 ) ) REPRESENTATION_CONTEXT ( 'NONE', 'WORKASPACE' ) );
#24 = ORIENTED_EDGE ( 'NONE', *, *, #58, .F. ) ;
#25 =( LENGTH_UNIT ( ) NAMED_UNIT ( * ) SI_UNIT ( $, .METRE. ) );
#26 = ORIENTED_EDGE ( 'NONE', *, *, #152, .F. ) ;
#27 = EDGE_CURVE ( 'NONE', #59, #100, #298, .T. ) ;
#28 = ORIENTED_EDGE ( 'NONE', *, *, #152, .T. ) ;
#29 = CARTESIAN_POINT ( 'NONE',  ( 0.1250000000000000000, 1.530808498934191509E-17, 1.984999999999999432 ) ) ;
#30 = EDGE_LOOP ( 'NONE', ( #1, #279, #4, #208 ) ) ;
#31 = ORIENTED_EDGE ( 'NONE', *, *, #270, .T. ) ;
#32 = CONICAL_SURFACE ( 'NONE', #10, 0.1099999999999996397, 0.7853981633974426169 ) ;
#33 = ADVANCED_FACE ( 'NONE', ( #106 ), #117, .T. ) ;
#34 = DIRECTION ( 'NONE',  ( 1.000000000000000000, 0.0000000000000000000, 0.0000000000000000000 ) ) ;
#35 = DIRECTION ( 'NONE',  ( 0.0000000000000000000, 0.0000000000000000000, 1.000000000000000000 ) ) ;
#36 = CARTESIAN_POINT ( 'NONE',  ( -0.1250000000000000000, 0.0000000000000000000, 1.984999999999999432 ) ) ;
#37 =( CONVERSION_BASED_UNIT ( 'INCH', #234 ) LENGTH_UNIT ( ) NAMED_UNIT ( #84 ) );
#38 = VECTOR ( 'NONE', #276, 39.37007874015748143 ) ;
#39 = PRODUCT_CONTEXT ( 'NONE', #73, 'mechanical' ) ;
#40 = AXIS2_PLACEMENT_3D ( 'NONE', #138, #224, #294 ) ;
#41 = COLOUR_RGB ( '',0.7921568627450980005, 0.8196078431372548767, 0.9333333333333333481 ) ;
#42 = PRODUCT_RELATED_PRODUCT_CATEGORY ( 'part', '', ( #95 ) ) ;
#43 = DIRECTION ( 'NONE',  ( -1.000000000000000000, 0.0000000000000000000, 0.0000000000000000000 ) ) ;
#44 = DIRECTION ( 'NONE',  ( 1.000000000000000000, 0.0000000000000000000, -0.0000000000000000000 ) ) ;
#45 = CARTESIAN_POINT ( 'NONE',  ( 3.061616997868383634E-17, 0.0000000000000000000, 0.2500000000000000555 ) ) ;
#46 = DIRECTION ( 'NONE',  ( 1.224646799147353207E-16, 0.0000000000000000000, 1.000000000000000000 ) ) ;
#47 = ADVANCED_FACE ( 'NONE', ( #288 ), #32, .T. ) ;
#48 = SURFACE_SIDE_STYLE ('',( #140 ) ) ;
#49 = CYLINDRICAL_SURFACE ( 'NONE', #215, 0.03121875000000001385 ) ;
#50 = DIRECTION ( 'NONE',  ( -0.7071067811865434649, 0.0000000000000000000, -0.7071067811865515695 ) ) ;
#51 = VECTOR ( 'NONE', #265, 39.37007874015747433 ) ;
#52 = ORIENTED_EDGE ( 'NONE', *, *, #27, .F. ) ;
#53 = VERTEX_POINT ( 'NONE', #264 ) ;
#54 = ORIENTED_EDGE ( 'NONE', *, *, #58, .T. ) ;
#55 = APPLICATION_CONTEXT ( 'automotive_design' ) ;
#56 = CIRCLE ( 'NONE', #198, 0.1250000000000000000 ) ;
#57 = ORIENTED_EDGE ( 'NONE', *, *, #290, .F. ) ;
#58 = EDGE_CURVE ( 'NONE', #165, #76, #124, .T. ) ;
#59 = VERTEX_POINT ( 'NONE', #127 ) ;
#60 =( NAMED_UNIT ( * ) PLANE_ANGLE_UNIT ( ) SI_UNIT ( $, .RADIAN. ) );
#61 = DIRECTION ( 'NONE',  ( -1.224646799147353207E-16, -0.0000000000000000000, -1.000000000000000000 ) ) ;
#62 = DIRECTION ( 'NONE',  ( 0.0000000000000000000, 0.0000000000000000000, 1.000000000000000000 ) ) ;
#63 = PRESENTATION_LAYER_ASSIGNMENT (  '', '', ( #248 ) ) ;
#64 = PRODUCT_DEFINITION ( 'UNKNOWN', '', #292, #66 ) ;
#65 = CARTESIAN_POINT ( 'NONE',  ( 0.0000000000000000000, 0.0000000000000000000, 0.0000000000000000000 ) ) ;
#66 = PRODUCT_DEFINITION_CONTEXT ( 'detailed design', #55, 'design' ) ;
#67 = PLANE ( 'NONE',  #105 ) ;
#68 = CARTESIAN_POINT ( 'NONE',  ( -0.1099999999999996397, 0.0000000000000000000, 2.000000000000000000 ) ) ;
#69 = DIRECTION ( 'NONE',  ( 0.0000000000000000000, 0.0000000000000000000, 1.000000000000000000 ) ) ;
#70 = CONICAL_SURFACE ( 'NONE', #192, 0.03121874999999999997, 0.1745329251994338637 ) ;
#71 = APPLICATION_PROTOCOL_DEFINITION ( 'draft international standard', 'automotive_design', 1998, #73 ) ;
#72 = LINE ( 'NONE', #251, #278 ) ;
#73 = APPLICATION_CONTEXT ( 'automotive_design' ) ;
#74 = CARTESIAN_POINT ( 'NONE',  ( -0.03121875000000001385, 0.0000000000000000000, 3.823194226088145228E-18 ) ) ;
#75 = EDGE_LOOP ( 'NONE', ( #54, #191, #52, #80 ) ) ;
#76 = VERTEX_POINT ( 'NONE', #104 ) ;
#77 = SHAPE_DEFINITION_REPRESENTATION ( #199, #159 ) ;
#78 = DIRECTION ( 'NONE',  ( -1.224646799147353207E-16, -0.0000000000000000000, -1.000000000000000000 ) ) ;
#79 = AXIS2_PLACEMENT_3D ( 'NONE', #220, #196, #157 ) ;
#80 = ORIENTED_EDGE ( 'NONE', *, *, #2, .F. ) ;
#81 = MECHANICAL_DESIGN_GEOMETRIC_PRESENTATION_REPRESENTATION (  '', ( #142 ), #23 ) ;
#82 = SURFACE_STYLE_USAGE ( .BOTH. , #286 ) ;
#83 = LENGTH_MEASURE_WITH_UNIT ( LENGTH_MEASURE( 0.02539999999999999897 ), #150 );
#84 = DIMENSIONAL_EXPONENTS ( 1.000000000000000000, 0.0000000000000000000, 0.0000000000000000000, 0.0000000000000000000, 0.0000000000000000000, 0.0000000000000000000, 0.0000000000000000000 ) ;
#85 = CARTESIAN_POINT ( 'NONE',  ( 3.061616997868383634E-17, 0.0000000000000000000, 0.2500000000000000555 ) ) ;
#86 = CARTESIAN_POINT ( 'NONE',  ( 0.0000000000000000000, 0.0000000000000000000, 2.000000000000000000 ) ) ;
#87 = EDGE_CURVE ( 'NONE', #76, #100, #212, .T. ) ;
#88 = CARTESIAN_POINT ( 'NONE',  ( 0.0000000000000000000, 0.0000000000000000000, 2.000000000000000000 ) ) ;
#89 = AXIS2_PLACEMENT_3D ( 'NONE', #182, #197, #271 ) ;
#90 = PRESENTATION_LAYER_ASSIGNMENT (  '', '', ( #142 ) ) ;
#91 = CARTESIAN_POINT ( 'NONE',  ( 0.0000000000000000000, 0.0000000000000000000, 0.0000000000000000000 ) ) ;
#92 = EDGE_CURVE ( 'NONE', #277, #101, #56, .T. ) ;
#93 = LINE ( 'NONE', #274, #275 ) ;
#94 = CARTESIAN_POINT ( 'NONE',  ( 0.1099999999999996397, 1.347111479062084158E-17, 2.000000000000000000 ) ) ;
#95 = PRODUCT ( 'Micro_SFL-062-42', 'Micro_SFL-062-42', '', ( #39 ) ) ;
#96 = PRESENTATION_STYLE_ASSIGNMENT (( #226 ) ) ;
#97 = FACE_OUTER_BOUND ( 'NONE', #75, .T. ) ;
#98 = FILL_AREA_STYLE_COLOUR ( '', #41 ) ;
#99 = ORIENTED_EDGE ( 'NONE', *, *, #92, .T. ) ;
#100 = VERTEX_POINT ( 'NONE', #260 ) ;
#101 = VERTEX_POINT ( 'NONE', #36 ) ;
#102 = ORIENTED_EDGE ( 'NONE', *, *, #266, .T. ) ;
#103 = EDGE_LOOP ( 'NONE', ( #259, #99, #282, #26 ) ) ;
#104 = CARTESIAN_POINT ( 'NONE',  ( 0.03121875000000003120, 0.0000000000000000000, 0.2500000000000000555 ) ) ;
#105 = AXIS2_PLACEMENT_3D ( 'NONE', #269, #69, #44 ) ;
#106 = FACE_OUTER_BOUND ( 'NONE', #143, .T. ) ;
#107 = ADVANCED_FACE ( 'NONE', ( #11 ), #176, .F. ) ;
#108 = LENGTH_MEASURE_WITH_UNIT ( LENGTH_MEASURE( 0.02539999999999999897 ), #25 );
#109 = DIRECTION ( 'NONE',  ( -1.224646799147353207E-16, -0.0000000000000000000, -1.000000000000000000 ) ) ;
#110 = LINE ( 'NONE', #178, #161 ) ;
#111 = CIRCLE ( 'NONE', #40, 0.1099999999999996397 ) ;
#112 = CARTESIAN_POINT ( 'NONE',  ( 3.061616997868383634E-17, 0.0000000000000000000, 0.2500000000000000555 ) ) ;
#113 = UNCERTAINTY_MEASURE_WITH_UNIT (LENGTH_MEASURE( 1.000000000000000082E-05 ), #238, 'distance_accuracy_value', 'NONE');
#114 = FACE_OUTER_BOUND ( 'NONE', #30, .T. ) ;
#115 = DIMENSIONAL_EXPONENTS ( 1.000000000000000000, 0.0000000000000000000, 0.0000000000000000000, 0.0000000000000000000, 0.0000000000000000000, 0.0000000000000000000, 0.0000000000000000000 ) ;
#116 = CARTESIAN_POINT ( 'NONE',  ( 0.0000000000000000000, 0.0000000000000000000, 2.000000000000000000 ) ) ;
#117 = CONICAL_SURFACE ( 'NONE', #129, 0.1099999999999996397, 0.7853981633974426169 ) ;
#118 = ADVANCED_FACE ( 'NONE', ( #114 ), #49, .T. ) ;
#119 = ORIENTED_EDGE ( 'NONE', *, *, #92, .F. ) ;
#120 = VECTOR ( 'NONE', #78, 39.37007874015748143 ) ;
#121 = ORIENTED_EDGE ( 'NONE', *, *, #266, .F. ) ;
#122 = EDGE_LOOP ( 'NONE', ( #125, #144, #190, #28 ) ) ;
#123 = ADVANCED_FACE ( 'NONE', ( #202 ), #70, .T. ) ;
#124 = CIRCLE ( 'NONE', #15, 0.03121874999999999997 ) ;
#125 = ORIENTED_EDGE ( 'NONE', *, *, #270, .F. ) ;
#126 = ORIENTED_EDGE ( 'NONE', *, *, #169, .F. ) ;
#127 = CARTESIAN_POINT ( 'NONE',  ( -0.03121875000000003120, 0.0000000000000000000, 7.646388452176293538E-18 ) ) ;
#128 = ADVANCED_FACE ( 'NONE', ( #19 ), #12, .T. ) ;
#129 = AXIS2_PLACEMENT_3D ( 'NONE', #86, #213, #174 ) ;
#130 =( NAMED_UNIT ( * ) SI_UNIT ( $, .STERADIAN. ) SOLID_ANGLE_UNIT ( ) );
#131 = PRESENTATION_STYLE_ASSIGNMENT (( #82 ) ) ;
#132 = DIRECTION ( 'NONE',  ( -1.000000000000000000, 0.0000000000000000000, 1.224646799147353207E-16 ) ) ;
#133 = DIRECTION ( 'NONE',  ( -1.224646799147353207E-16, -0.0000000000000000000, -1.000000000000000000 ) ) ;
#134 = CYLINDRICAL_SURFACE ( 'NONE', #262, 0.1250000000000000000 ) ;
#135 = AXIS2_PLACEMENT_3D ( 'NONE', #218, #109, #247 ) ;
#136 = VECTOR ( 'NONE', #50, 39.37007874015748143 ) ;
#137 = DIRECTION ( 'NONE',  ( 1.000000000000000000, 0.0000000000000000000, 0.0000000000000000000 ) ) ;
#138 = CARTESIAN_POINT ( 'NONE',  ( 0.0000000000000000000, 0.0000000000000000000, 2.000000000000000000 ) ) ;
#139 = ADVANCED_FACE ( 'NONE', ( #221 ), #250, .T. ) ;
#140 = SURFACE_STYLE_FILL_AREA ( #296 ) ;
#141 = CIRCLE ( 'NONE', #179, 0.1099999999999996397 ) ;
#142 = STYLED_ITEM ( 'NONE', ( #96 ), #159 ) ;
#143 = EDGE_LOOP ( 'NONE', ( #229, #121, #211, #119 ) ) ;
#144 = ORIENTED_EDGE ( 'NONE', *, *, #227, .F. ) ;
#145 = EDGE_CURVE ( 'NONE', #53, #231, #111, .T. ) ;
#146 = ORIENTED_EDGE ( 'NONE', *, *, #148, .F. ) ;
#147 = ORIENTED_EDGE ( 'NONE', *, *, #27, .T. ) ;
#148 = EDGE_CURVE ( 'NONE', #76, #255, #110, .T. ) ;
#149 = VERTEX_POINT ( 'NONE', #200 ) ;
#150 =( LENGTH_UNIT ( ) NAMED_UNIT ( * ) SI_UNIT ( $, .METRE. ) );
#151 = AXIS2_PLACEMENT_3D ( 'NONE', #65, #133, #244 ) ;
#152 = EDGE_CURVE ( 'NONE', #255, #149, #209, .T. ) ;
#153 = DIRECTION ( 'NONE',  ( -1.224646799147353207E-16, -0.0000000000000000000, -1.000000000000000000 ) ) ;
#154 = DIRECTION ( 'NONE',  ( -0.0000000000000000000, -0.0000000000000000000, -1.000000000000000000 ) ) ;
#155 = CIRCLE ( 'NONE', #21, 0.03121875000000003120 ) ;
#156 = EDGE_CURVE ( 'NONE', #53, #277, #246, .T. ) ;
#157 = DIRECTION ( 'NONE',  ( -1.000000000000000000, 0.0000000000000000000, 0.0000000000000000000 ) ) ;
#158 = DIRECTION ( 'NONE',  ( -1.224646799147353207E-16, -0.0000000000000000000, -1.000000000000000000 ) ) ;
#159 = ADVANCED_BREP_SHAPE_REPRESENTATION ( 'Micro_SFL-062-42', ( #18, #5 ), #16 ) ;
#160 = CYLINDRICAL_SURFACE ( 'NONE', #151, 0.03121875000000001385 ) ;
#161 = VECTOR ( 'NONE', #295, 39.37007874015748143 ) ;
#162 = CARTESIAN_POINT ( 'NONE',  ( 9.575022216461996437E-17, 0.0000000000000000000, 0.7818598981460205266 ) ) ;
#163 = LINE ( 'NONE', #235, #51 ) ;
#164 = CARTESIAN_POINT ( 'NONE',  ( 4.682062571497491304E-34, 0.0000000000000000000, 3.823194226088146769E-18 ) ) ;
#165 = VERTEX_POINT ( 'NONE', #181 ) ;
#166 = ORIENTED_EDGE ( 'NONE', *, *, #257, .T. ) ;
#167 = FILL_AREA_STYLE_COLOUR ( '', #14 ) ;
#168 = EDGE_LOOP ( 'NONE', ( #24, #31, #280, #146 ) ) ;
#169 = EDGE_CURVE ( 'NONE', #101, #277, #171, .T. ) ;
#170 = CARTESIAN_POINT ( 'NONE',  ( 0.0000000000000000000, 0.0000000000000000000, 1.984999999999999432 ) ) ;
#171 = CIRCLE ( 'NONE', #89, 0.1250000000000000000 ) ;
#172 = CARTESIAN_POINT ( 'NONE',  ( 0.0000000000000000000, 0.0000000000000000000, 2.000000000000000000 ) ) ;
#173 = EDGE_CURVE ( 'NONE', #101, #149, #93, .T. ) ;
#174 = DIRECTION ( 'NONE',  ( -1.000000000000000000, 0.0000000000000000000, 0.0000000000000000000 ) ) ;
#175 = DIMENSIONAL_EXPONENTS ( 1.000000000000000000, 0.0000000000000000000, 0.0000000000000000000, 0.0000000000000000000, 0.0000000000000000000, 0.0000000000000000000, 0.0000000000000000000 ) ;
#176 = PLANE ( 'NONE',  #287 ) ;
#177 = ADVANCED_FACE ( 'NONE', ( #272 ), #67, .T. ) ;
#178 = CARTESIAN_POINT ( 'NONE',  ( 0.03121875000000003120, 0.0000000000000000000, 0.2500000000000000555 ) ) ;
#179 = AXIS2_PLACEMENT_3D ( 'NONE', #207, #9, #180 ) ;
#180 = DIRECTION ( 'NONE',  ( 1.000000000000000000, 0.0000000000000000000, 0.0000000000000000000 ) ) ;
#181 = CARTESIAN_POINT ( 'NONE',  ( -0.03121874999999997222, 9.565639607715030159E-18, 0.2500000000000000555 ) ) ;
#182 = CARTESIAN_POINT ( 'NONE',  ( 0.0000000000000000000, 0.0000000000000000000, 1.984999999999999432 ) ) ;
#183 = DIRECTION ( 'NONE',  ( -1.000000000000000000, 0.0000000000000000000, 0.0000000000000000000 ) ) ;
#184 = EDGE_CURVE ( 'NONE', #277, #255, #72, .T. ) ;
#185 = AXIS2_PLACEMENT_3D ( 'NONE', #164, #239, #193 ) ;
#186 = DIRECTION ( 'NONE',  ( -0.0000000000000000000, -0.0000000000000000000, -1.000000000000000000 ) ) ;
#187 = ORIENTED_EDGE ( 'NONE', *, *, #145, .F. ) ;
#188 = SURFACE_STYLE_FILL_AREA ( #254 ) ;
#189 = ORIENTED_EDGE ( 'NONE', *, *, #184, .T. ) ;
#190 = ORIENTED_EDGE ( 'NONE', *, *, #148, .T. ) ;
#191 = ORIENTED_EDGE ( 'NONE', *, *, #87, .T. ) ;
#192 = AXIS2_PLACEMENT_3D ( 'NONE', #112, #46, #137 ) ;
#193 = DIRECTION ( 'NONE',  ( -1.000000000000000000, 0.0000000000000000000, 1.224646799147353207E-16 ) ) ;
#194 =( GEOMETRIC_REPRESENTATION_CONTEXT ( 3 ) GLOBAL_UNCERTAINTY_ASSIGNED_CONTEXT ( ( #113 ) ) GLOBAL_UNIT_ASSIGNED_CONTEXT ( ( #238, #240, #130 ) ) REPRESENTATION_CONTEXT ( 'NONE', 'WORKASPACE' ) );
#195 = DIRECTION ( 'NONE',  ( 0.0000000000000000000, 0.0000000000000000000, -1.000000000000000000 ) ) ;
#196 = DIRECTION ( 'NONE',  ( -1.224646799147353207E-16, -0.0000000000000000000, -1.000000000000000000 ) ) ;
#197 = DIRECTION ( 'NONE',  ( 0.0000000000000000000, 0.0000000000000000000, -1.000000000000000000 ) ) ;
#198 = AXIS2_PLACEMENT_3D ( 'NONE', #170, #242, #261 ) ;
#199 = PRODUCT_DEFINITION_SHAPE ( 'NONE', 'NONE',  #64 ) ;
#200 = CARTESIAN_POINT ( 'NONE',  ( -0.1249999999999999029, 0.0000000000000000000, 0.7818598981460205266 ) ) ;
#201 = ADVANCED_FACE ( 'NONE', ( #97 ), #160, .T. ) ;
#202 = FACE_OUTER_BOUND ( 'NONE', #122, .T. ) ;
#203 = DIRECTION ( 'NONE',  ( -0.0000000000000000000, -0.0000000000000000000, -1.000000000000000000 ) ) ;
#204 = AXIS2_PLACEMENT_3D ( 'NONE', #162, #17, #293 ) ;
#205 = ORIENTED_EDGE ( 'NONE', *, *, #156, .T. ) ;
#206 = CLOSED_SHELL ( 'NONE', ( #201, #139, #47, #128, #219, #177, #33, #123, #118, #107 ) ) ;
#207 = CARTESIAN_POINT ( 'NONE',  ( 0.0000000000000000000, 0.0000000000000000000, 2.000000000000000000 ) ) ;
#208 = ORIENTED_EDGE ( 'NONE', *, *, #257, .F. ) ;
#209 = CIRCLE ( 'NONE', #204, 0.1250000000000000000 ) ;
#210 = ORIENTED_EDGE ( 'NONE', *, *, #145, .T. ) ;
#211 = ORIENTED_EDGE ( 'NONE', *, *, #290, .T. ) ;
#212 = LINE ( 'NONE', #217, #291 ) ;
#213 = DIRECTION ( 'NONE',  ( 0.0000000000000000000, 0.0000000000000000000, -1.000000000000000000 ) ) ;
#214 = APPLICATION_PROTOCOL_DEFINITION ( 'draft international standard', 'automotive_design', 1998, #55 ) ;
#215 = AXIS2_PLACEMENT_3D ( 'NONE', #91, #158, #132 ) ;
#216 = UNCERTAINTY_MEASURE_WITH_UNIT (LENGTH_MEASURE( 1.000000000000000082E-05 ), #37, 'distance_accuracy_value', 'NONE');
#217 = CARTESIAN_POINT ( 'NONE',  ( 0.03121875000000001385, 3.823194226088145228E-18, -3.823194226088145228E-18 ) ) ;
#218 = CARTESIAN_POINT ( 'NONE',  ( 9.575022216461996437E-17, 0.0000000000000000000, 0.7818598981460205266 ) ) ;
#219 = ADVANCED_FACE ( 'NONE', ( #20 ), #134, .T. ) ;
#220 = CARTESIAN_POINT ( 'NONE',  ( 3.061616997868383634E-17, 0.0000000000000000000, 0.2500000000000000555 ) ) ;
#221 = FACE_OUTER_BOUND ( 'NONE', #168, .T. ) ;
#222 = CIRCLE ( 'NONE', #135, 0.1250000000000000000 ) ;
#223 = EDGE_CURVE ( 'NONE', #149, #255, #222, .T. ) ;
#224 = DIRECTION ( 'NONE',  ( 0.0000000000000000000, 0.0000000000000000000, 1.000000000000000000 ) ) ;
#225 = DIRECTION ( 'NONE',  ( -0.0000000000000000000, -0.0000000000000000000, -1.000000000000000000 ) ) ;
#226 = SURFACE_STYLE_USAGE ( .BOTH. , #48 ) ;
#227 = EDGE_CURVE ( 'NONE', #76, #165, #3, .T. ) ;
#228 =( NAMED_UNIT ( * ) SI_UNIT ( $, .STERADIAN. ) SOLID_ANGLE_UNIT ( ) );
#229 = ORIENTED_EDGE ( 'NONE', *, *, #156, .F. ) ;
#230 = ORIENTED_EDGE ( 'NONE', *, *, #173, .F. ) ;
#231 = VERTEX_POINT ( 'NONE', #289 ) ;
#232 = MECHANICAL_DESIGN_GEOMETRIC_PRESENTATION_REPRESENTATION (  '', ( #248 ), #194 ) ;
#233 = EDGE_LOOP ( 'NONE', ( #102, #210 ) ) ;
#234 = LENGTH_MEASURE_WITH_UNIT ( LENGTH_MEASURE( 0.02539999999999999897 ), #285 );
#235 = CARTESIAN_POINT ( 'NONE',  ( -0.03121874999999997222, 3.823194226088143687E-18, 0.2500000000000000555 ) ) ;
#236 = DIRECTION ( 'NONE',  ( 1.000000000000000000, 0.0000000000000000000, -0.0000000000000000000 ) ) ;
#237 = DIRECTION ( 'NONE',  ( -1.224646799147353207E-16, -0.0000000000000000000, -1.000000000000000000 ) ) ;
#238 =( CONVERSION_BASED_UNIT ( 'INCH', #83 ) LENGTH_UNIT ( ) NAMED_UNIT ( #115 ) );
#239 = DIRECTION ( 'NONE',  ( -1.224646799147353207E-16, -0.0000000000000000000, -1.000000000000000000 ) ) ;
#240 =( NAMED_UNIT ( * ) PLANE_ANGLE_UNIT ( ) SI_UNIT ( $, .RADIAN. ) );
#241 = CARTESIAN_POINT ( 'NONE',  ( 0.0000000000000000000, 0.0000000000000000000, 0.0000000000000000000 ) ) ;
#242 = DIRECTION ( 'NONE',  ( 0.0000000000000000000, 0.0000000000000000000, -1.000000000000000000 ) ) ;
#243 =( CONVERSION_BASED_UNIT ( 'INCH', #108 ) LENGTH_UNIT ( ) NAMED_UNIT ( #175 ) );
#244 = DIRECTION ( 'NONE',  ( -1.000000000000000000, 0.0000000000000000000, 1.224646799147353207E-16 ) ) ;
#245 =( NAMED_UNIT ( * ) SI_UNIT ( $, .STERADIAN. ) SOLID_ANGLE_UNIT ( ) );
#246 = LINE ( 'NONE', #94, #38 ) ;
#247 = DIRECTION ( 'NONE',  ( 1.000000000000000000, 0.0000000000000000000, 0.0000000000000000000 ) ) ;
#248 = STYLED_ITEM ( 'NONE', ( #131 ), #18 ) ;
#249 = DIRECTION ( 'NONE',  ( 1.224646799147353207E-16, 0.0000000000000000000, 1.000000000000000000 ) ) ;
#250 = CONICAL_SURFACE ( 'NONE', #283, 0.03121874999999999997, 0.1745329251994338637 ) ;
#251 = CARTESIAN_POINT ( 'NONE',  ( 0.1250000000000000000, 1.530808498934191509E-17, 2.000000000000000000 ) ) ;
#252 = CARTESIAN_POINT ( 'NONE',  ( 4.682062571497491304E-34, 0.0000000000000000000, 3.823194226088146769E-18 ) ) ;
#253 = UNCERTAINTY_MEASURE_WITH_UNIT (LENGTH_MEASURE( 1.000000000000000082E-05 ), #243, 'distance_accuracy_value', 'NONE');
#254 = FILL_AREA_STYLE ('',( #167 ) ) ;
#255 = VERTEX_POINT ( 'NONE', #13 ) ;
#256 = EDGE_LOOP ( 'NONE', ( #299, #189, #258, #230 ) ) ;
#257 = EDGE_CURVE ( 'NONE', #100, #59, #155, .T. ) ;
#258 = ORIENTED_EDGE ( 'NONE', *, *, #223, .F. ) ;
#259 = ORIENTED_EDGE ( 'NONE', *, *, #184, .F. ) ;
#260 = CARTESIAN_POINT ( 'NONE',  ( 0.03121875000000003120, 3.823194226088145998E-18, 0.0000000000000000000 ) ) ;
#261 = DIRECTION ( 'NONE',  ( 1.000000000000000000, 0.0000000000000000000, 0.0000000000000000000 ) ) ;
#262 = AXIS2_PLACEMENT_3D ( 'NONE', #116, #203, #43 ) ;
#263 = LINE ( 'NONE', #68, #136 ) ;
#264 = CARTESIAN_POINT ( 'NONE',  ( 0.1099999999999996397, 1.438959988998137757E-17, 2.000000000000000000 ) ) ;
#265 = DIRECTION ( 'NONE',  ( -0.1736481776669311639, 2.126576849575783008E-17, 0.9848077530122080203 ) ) ;
#266 = EDGE_CURVE ( 'NONE', #231, #53, #141, .T. ) ;
#267 = CARTESIAN_POINT ( 'NONE',  ( 0.0000000000000000000, 0.0000000000000000000, 0.0000000000000000000 ) ) ;
#268 = AXIS2_PLACEMENT_3D ( 'NONE', #88, #186, #183 ) ;
#269 = CARTESIAN_POINT ( 'NONE',  ( 0.0000000000000000000, 0.0000000000000000000, 2.000000000000000000 ) ) ;
#270 = EDGE_CURVE ( 'NONE', #165, #149, #163, .T. ) ;
#271 = DIRECTION ( 'NONE',  ( 1.000000000000000000, 0.0000000000000000000, 0.0000000000000000000 ) ) ;
#272 = FACE_OUTER_BOUND ( 'NONE', #233, .T. ) ;
#273 = DIRECTION ( 'NONE',  ( -1.000000000000000000, 0.0000000000000000000, 1.224646799147353207E-16 ) ) ;
#274 = CARTESIAN_POINT ( 'NONE',  ( -0.1250000000000000000, 0.0000000000000000000, 2.000000000000000000 ) ) ;
#275 = VECTOR ( 'NONE', #154, 39.37007874015748143 ) ;
#276 = DIRECTION ( 'NONE',  ( 0.7071067811865434649, 8.659560562354883554E-17, -0.7071067811865515695 ) ) ;
#277 = VERTEX_POINT ( 'NONE', #29 ) ;
#278 = VECTOR ( 'NONE', #225, 39.37007874015748143 ) ;
#279 = ORIENTED_EDGE ( 'NONE', *, *, #227, .T. ) ;
#280 = ORIENTED_EDGE ( 'NONE', *, *, #223, .T. ) ;
#281 = LINE ( 'NONE', #74, #120 ) ;
#282 = ORIENTED_EDGE ( 'NONE', *, *, #173, .T. ) ;
#283 = AXIS2_PLACEMENT_3D ( 'NONE', #45, #249, #297 ) ;
#284 = DIRECTION ( 'NONE',  ( -1.000000000000000000, 0.0000000000000000000, 0.0000000000000000000 ) ) ;
#285 =( LENGTH_UNIT ( ) NAMED_UNIT ( * ) SI_UNIT ( $, .METRE. ) );
#286 = SURFACE_SIDE_STYLE ('',( #188 ) ) ;
#287 = AXIS2_PLACEMENT_3D ( 'NONE', #267, #62, #236 ) ;
#288 = FACE_OUTER_BOUND ( 'NONE', #7, .T. ) ;
#289 = CARTESIAN_POINT ( 'NONE',  ( -0.1099999999999996397, 0.0000000000000000000, 2.000000000000000000 ) ) ;
#290 = EDGE_CURVE ( 'NONE', #231, #101, #263, .T. ) ;
#291 = VECTOR ( 'NONE', #153, 39.37007874015748143 ) ;
#292 = PRODUCT_DEFINITION_FORMATION_WITH_SPECIFIED_SOURCE ( 'ANY', '', #95, .NOT_KNOWN. ) ;
#293 = DIRECTION ( 'NONE',  ( 1.000000000000000000, 0.0000000000000000000, 0.0000000000000000000 ) ) ;
#294 = DIRECTION ( 'NONE',  ( 1.000000000000000000, 0.0000000000000000000, 0.0000000000000000000 ) ) ;
#295 = DIRECTION ( 'NONE',  ( 0.1736481776669313581, 0.0000000000000000000, 0.9848077530122077983 ) ) ;
#296 = FILL_AREA_STYLE ('',( #98 ) ) ;
#297 = DIRECTION ( 'NONE',  ( 1.000000000000000000, 0.0000000000000000000, 0.0000000000000000000 ) ) ;
#298 = CIRCLE ( 'NONE', #185, 0.03121875000000003120 ) ;
#299 = ORIENTED_EDGE ( 'NONE', *, *, #169, .T. ) ;
ENDSEC;
END-ISO-10303-21;
