ISO-10303-21;
HEADER;
FILE_DESCRIPTION (( 'STEP AP214' ),
    '1' );
FILE_NAME ('Micro_GLRM-040-2X.STEP',
    '2021-09-03T16:18:52',
    ( '' ),
    ( '' ),
    'SwSTEP 2.0',
    'SolidWorks 2020',
    '' );
FILE_SCHEMA (( 'AUTOMOTIVE_DESIGN' ));
ENDSEC;

DATA;
#1 = FILL_AREA_STYLE_COLOUR ( '', #282 ) ;
#2 = APPLICATION_CONTEXT ( 'automotive_design' ) ;
#3 = ORIENTED_EDGE ( 'NONE', *, *, #296, .T. ) ;
#4 = APPLICATION_PROTOCOL_DEFINITION ( 'draft international standard', 'automotive_design', 1998, #2 ) ;
#5 = ADVANCED_FACE ( 'NONE', ( #87 ), #257, .T. ) ;
#6 = DIRECTION ( 'NONE',  ( -1.000000000000000000, 0.0000000000000000000, 0.0000000000000000000 ) ) ;
#7 = VECTOR ( 'NONE', #205, 39.37007874015748143 ) ;
#8 = DIRECTION ( 'NONE',  ( 0.0000000000000000000, 0.0000000000000000000, 1.000000000000000000 ) ) ;
#9 = AXIS2_PLACEMENT_3D ( 'NONE', #239, #362, #359 ) ;
#10 =( NAMED_UNIT ( * ) SI_UNIT ( $, .STERADIAN. ) SOLID_ANGLE_UNIT ( ) );
#11 = DIRECTION ( 'NONE',  ( -1.000000000000000000, 0.0000000000000000000, 0.0000000000000000000 ) ) ;
#12 = DIMENSIONAL_EXPONENTS ( 1.000000000000000000, 0.0000000000000000000, 0.0000000000000000000, 0.0000000000000000000, 0.0000000000000000000, 0.0000000000000000000, 0.0000000000000000000 ) ;
#13 = DIRECTION ( 'NONE',  ( 1.000000000000000000, 0.0000000000000000000, -0.0000000000000000000 ) ) ;
#14 = CARTESIAN_POINT ( 'NONE',  ( 0.0000000000000000000, 0.0000000000000000000, 0.0000000000000000000 ) ) ;
#15 = CIRCLE ( 'NONE', #127, 0.07873212600000002725 ) ;
#16 = ORIENTED_EDGE ( 'NONE', *, *, #140, .T. ) ;
#17 = VECTOR ( 'NONE', #354, 39.37007874015748143 ) ;
#18 = DIRECTION ( 'NONE',  ( -0.0000000000000000000, -0.0000000000000000000, -1.000000000000000000 ) ) ;
#19 = VERTEX_POINT ( 'NONE', #25 ) ;
#20 = ADVANCED_FACE ( 'NONE', ( #199 ), #272, .T. ) ;
#21 = DIRECTION ( 'NONE',  ( -0.0000000000000000000, -0.0000000000000000000, -1.000000000000000000 ) ) ;
#22 = VERTEX_POINT ( 'NONE', #233 ) ;
#23 = AXIS2_PLACEMENT_3D ( 'NONE', #158, #223, #75 ) ;
#24 = DIRECTION ( 'NONE',  ( -0.0000000000000000000, -0.0000000000000000000, -1.000000000000000000 ) ) ;
#25 = CARTESIAN_POINT ( 'NONE',  ( 0.1181100000000000066, 1.446430334472939084E-17, 2.937755999999999368 ) ) ;
#26 = CARTESIAN_POINT ( 'NONE',  ( 0.0000000000000000000, 0.0000000000000000000, 0.0000000000000000000 ) ) ;
#27 = EDGE_CURVE ( 'NONE', #283, #19, #81, .T. ) ;
#28 = DIRECTION ( 'NONE',  ( 0.0000000000000000000, 0.0000000000000000000, 1.000000000000000000 ) ) ;
#29 =( GEOMETRIC_REPRESENTATION_CONTEXT ( 3 ) GLOBAL_UNCERTAINTY_ASSIGNED_CONTEXT ( ( #305 ) ) GLOBAL_UNIT_ASSIGNED_CONTEXT ( ( #88, #258, #329 ) ) REPRESENTATION_CONTEXT ( 'NONE', 'WORKASPACE' ) );
#30 = PRODUCT_DEFINITION_CONTEXT ( 'detailed design', #2, 'design' ) ;
#31 = CARTESIAN_POINT ( 'NONE',  ( 0.07873212600000002725, 9.641904609596614675E-18, 0.3149609999999999910 ) ) ;
#32 = AXIS2_PLACEMENT_3D ( 'NONE', #109, #49, #343 ) ;
#33 = DIRECTION ( 'NONE',  ( -1.000000000000000000, 0.0000000000000000000, 0.0000000000000000000 ) ) ;
#34 = CARTESIAN_POINT ( 'NONE',  ( 0.0000000000000000000, 0.0000000000000000000, 0.3707359356365394487 ) ) ;
#35 = CARTESIAN_POINT ( 'NONE',  ( 0.0000000000000000000, 0.0000000000000000000, 0.0000000000000000000 ) ) ;
#36 = ORIENTED_EDGE ( 'NONE', *, *, #146, .T. ) ;
#37 = CARTESIAN_POINT ( 'NONE',  ( 0.0000000000000000000, 0.0000000000000000000, 0.3149609999999999910 ) ) ;
#38 = UNCERTAINTY_MEASURE_WITH_UNIT (LENGTH_MEASURE( 1.000000000000000082E-05 ), #63, 'distance_accuracy_value', 'NONE');
#39 = CIRCLE ( 'NONE', #192, 0.06889750000000004204 ) ;
#40 = CARTESIAN_POINT ( 'NONE',  ( -0.06889750000000004204, 0.0000000000000000000, 0.3707359356365394487 ) ) ;
#41 = EDGE_LOOP ( 'NONE', ( #264, #46, #47, #344 ) ) ;
#42 = DIRECTION ( 'NONE',  ( -1.000000000000000000, 0.0000000000000000000, 0.0000000000000000000 ) ) ;
#43 = CIRCLE ( 'NONE', #245, 0.1031099999999991607 ) ;
#44 = VERTEX_POINT ( 'NONE', #349 ) ;
#45 = CIRCLE ( 'NONE', #289, 0.1031099999999991607 ) ;
#46 = ORIENTED_EDGE ( 'NONE', *, *, #89, .T. ) ;
#47 = ORIENTED_EDGE ( 'NONE', *, *, #216, .T. ) ;
#48 = CARTESIAN_POINT ( 'NONE',  ( -0.1031099999999991607, 0.0000000000000000000, 2.952755999999999936 ) ) ;
#49 = DIRECTION ( 'NONE',  ( 0.0000000000000000000, 0.0000000000000000000, -1.000000000000000000 ) ) ;
#50 = ORIENTED_EDGE ( 'NONE', *, *, #128, .T. ) ;
#51 =( NAMED_UNIT ( * ) PLANE_ANGLE_UNIT ( ) SI_UNIT ( $, .RADIAN. ) );
#52 = CARTESIAN_POINT ( 'NONE',  ( 0.0000000000000000000, 0.0000000000000000000, 0.0000000000000000000 ) ) ;
#53 = CIRCLE ( 'NONE', #215, 0.1181100000000000066 ) ;
#54 = CYLINDRICAL_SURFACE ( 'NONE', #369, 0.1181100000000000066 ) ;
#55 = EDGE_CURVE ( 'NONE', #156, #190, #320, .T. ) ;
#56 = DIRECTION ( 'NONE',  ( -0.0000000000000000000, -0.0000000000000000000, -1.000000000000000000 ) ) ;
#57 = FACE_OUTER_BOUND ( 'NONE', #243, .T. ) ;
#58 = DIRECTION ( 'NONE',  ( -1.000000000000000000, 0.0000000000000000000, 0.0000000000000000000 ) ) ;
#59 = CARTESIAN_POINT ( 'NONE',  ( 0.07873212600000002725, 9.641904609596614675E-18, 0.0000000000000000000 ) ) ;
#60 = PRODUCT_CONTEXT ( 'NONE', #77, 'mechanical' ) ;
#61 =( LENGTH_UNIT ( ) NAMED_UNIT ( * ) SI_UNIT ( $, .METRE. ) );
#62 = SURFACE_SIDE_STYLE ('',( #176 ) ) ;
#63 =( CONVERSION_BASED_UNIT ( 'INCH', #179 ) LENGTH_UNIT ( ) NAMED_UNIT ( #12 ) );
#64 = EDGE_CURVE ( 'NONE', #132, #308, #335, .T. ) ;
#65 = CONICAL_SURFACE ( 'NONE', #23, 0.07873212600000002725, 0.1745329251994332254 ) ;
#66 = DIRECTION ( 'NONE',  ( -1.000000000000000000, 0.0000000000000000000, 0.0000000000000000000 ) ) ;
#67 = VERTEX_POINT ( 'NONE', #135 ) ;
#68 = DIRECTION ( 'NONE',  ( -0.0000000000000000000, -0.0000000000000000000, -1.000000000000000000 ) ) ;
#69 = DIRECTION ( 'NONE',  ( -0.0000000000000000000, -0.0000000000000000000, -1.000000000000000000 ) ) ;
#70 = CIRCLE ( 'NONE', #332, 0.07873212600000002725 ) ;
#71 = ORIENTED_EDGE ( 'NONE', *, *, #55, .F. ) ;
#72 = ORIENTED_EDGE ( 'NONE', *, *, #284, .T. ) ;
#73 = ORIENTED_EDGE ( 'NONE', *, *, #173, .T. ) ;
#74 = ADVANCED_FACE ( 'NONE', ( #142 ), #54, .T. ) ;
#75 = DIRECTION ( 'NONE',  ( -1.000000000000000000, 0.0000000000000000000, 0.0000000000000000000 ) ) ;
#76 = EDGE_LOOP ( 'NONE', ( #220, #101, #3, #374 ) ) ;
#77 = APPLICATION_CONTEXT ( 'automotive_design' ) ;
#78 = EDGE_LOOP ( 'NONE', ( #363, #96 ) ) ;
#79 = CARTESIAN_POINT ( 'NONE',  ( -0.1181100000000000066, 0.0000000000000000000, 1.181102000000000096 ) ) ;
#80 = DIRECTION ( 'NONE',  ( -1.000000000000000000, 0.0000000000000000000, 0.0000000000000000000 ) ) ;
#81 = LINE ( 'NONE', #327, #293 ) ;
#82 = CONICAL_SURFACE ( 'NONE', #32, 0.1031099999999991607, 0.7853981633974500554 ) ;
#83 = CARTESIAN_POINT ( 'NONE',  ( -0.06889750000000008368, 0.0000000000000000000, 0.0000000000000000000 ) ) ;
#84 = DIRECTION ( 'NONE',  ( 0.0000000000000000000, 0.0000000000000000000, -1.000000000000000000 ) ) ;
#85 = CIRCLE ( 'NONE', #273, 0.06889750000000013919 ) ;
#86 = CARTESIAN_POINT ( 'NONE',  ( -0.06889750000000013919, 0.0000000000000000000, 1.181102000000000096 ) ) ;
#87 = FACE_OUTER_BOUND ( 'NONE', #333, .T. ) ;
#88 =( CONVERSION_BASED_UNIT ( 'INCH', #92 ) LENGTH_UNIT ( ) NAMED_UNIT ( #236 ) );
#89 = EDGE_CURVE ( 'NONE', #276, #186, #39, .T. ) ;
#90 = FACE_OUTER_BOUND ( 'NONE', #145, .T. ) ;
#91 = ORIENTED_EDGE ( 'NONE', *, *, #89, .F. ) ;
#92 = LENGTH_MEASURE_WITH_UNIT ( LENGTH_MEASURE( 0.02539999999999999897 ), #260 );
#93 = DIRECTION ( 'NONE',  ( -0.0000000000000000000, -0.0000000000000000000, -1.000000000000000000 ) ) ;
#94 = ADVANCED_FACE ( 'NONE', ( #57 ), #169, .T. ) ;
#95 = COLOUR_RGB ( '',0.7921568627450980005, 0.8196078431372548767, 0.9333333333333333481 ) ;
#96 = ORIENTED_EDGE ( 'NONE', *, *, #187, .F. ) ;
#97 = AXIS2_PLACEMENT_3D ( 'NONE', #250, #172, #326 ) ;
#98 = DIRECTION ( 'NONE',  ( 0.0000000000000000000, 0.0000000000000000000, 1.000000000000000000 ) ) ;
#99 = VERTEX_POINT ( 'NONE', #86 ) ;
#100 = PRESENTATION_LAYER_ASSIGNMENT (  '', '', ( #137 ) ) ;
#101 = ORIENTED_EDGE ( 'NONE', *, *, #146, .F. ) ;
#102 = EDGE_LOOP ( 'NONE', ( #125, #129, #134, #241 ) ) ;
#103 = ORIENTED_EDGE ( 'NONE', *, *, #234, .T. ) ;
#104 = DIRECTION ( 'NONE',  ( -0.0000000000000000000, -0.0000000000000000000, -1.000000000000000000 ) ) ;
#105 = AXIS2_PLACEMENT_3D ( 'NONE', #52, #165, #33 ) ;
#106 =( NAMED_UNIT ( * ) SI_UNIT ( $, .STERADIAN. ) SOLID_ANGLE_UNIT ( ) );
#107 = PRODUCT ( 'Micro_GLRM-040-2X', 'Micro_GLRM-040-2X', '', ( #60 ) ) ;
#108 = CARTESIAN_POINT ( 'NONE',  ( 0.0000000000000000000, 0.0000000000000000000, 1.181102000000000096 ) ) ;
#109 = CARTESIAN_POINT ( 'NONE',  ( 0.0000000000000000000, 0.0000000000000000000, 2.952755999999999936 ) ) ;
#110 = CARTESIAN_POINT ( 'NONE',  ( 0.0000000000000000000, 0.0000000000000000000, 0.3149609999999999910 ) ) ;
#111 = FILL_AREA_STYLE ('',( #1 ) ) ;
#112 = DIRECTION ( 'NONE',  ( -1.000000000000000000, 0.0000000000000000000, 0.0000000000000000000 ) ) ;
#113 = CLOSED_SHELL ( 'NONE', ( #94, #226, #286, #147, #373, #74, #166, #342, #357, #20, #168, #5, #331 ) ) ;
#114 =( GEOMETRIC_REPRESENTATION_CONTEXT ( 3 ) GLOBAL_UNCERTAINTY_ASSIGNED_CONTEXT ( ( #38 ) ) GLOBAL_UNIT_ASSIGNED_CONTEXT ( ( #63, #116, #10 ) ) REPRESENTATION_CONTEXT ( 'NONE', 'WORKASPACE' ) );
#115 = AXIS2_PLACEMENT_3D ( 'NONE', #298, #93, #178 ) ;
#116 =( NAMED_UNIT ( * ) PLANE_ANGLE_UNIT ( ) SI_UNIT ( $, .RADIAN. ) );
#117 = CARTESIAN_POINT ( 'NONE',  ( 0.0000000000000000000, 0.0000000000000000000, 0.3707359356365394487 ) ) ;
#118 = ORIENTED_EDGE ( 'NONE', *, *, #337, .F. ) ;
#119 = FACE_OUTER_BOUND ( 'NONE', #274, .T. ) ;
#120 = DIRECTION ( 'NONE',  ( -0.1736481776669306087, 0.0000000000000000000, -0.9848077530122080203 ) ) ;
#121 = PRESENTATION_STYLE_ASSIGNMENT (( #292 ) ) ;
#122 = LINE ( 'NONE', #83, #150 ) ;
#123 = EDGE_LOOP ( 'NONE', ( #36, #159 ) ) ;
#124 = CIRCLE ( 'NONE', #115, 0.06889750000000013919 ) ;
#125 = ORIENTED_EDGE ( 'NONE', *, *, #303, .T. ) ;
#126 = AXIS2_PLACEMENT_3D ( 'NONE', #37, #207, #66 ) ;
#127 = AXIS2_PLACEMENT_3D ( 'NONE', #330, #183, #42 ) ;
#128 = EDGE_CURVE ( 'NONE', #67, #308, #138, .T. ) ;
#129 = ORIENTED_EDGE ( 'NONE', *, *, #196, .T. ) ;
#130 = ADVANCED_BREP_SHAPE_REPRESENTATION ( 'Micro_GLRM-040-2X', ( #157, #269 ), #203 ) ;
#131 = DIRECTION ( 'NONE',  ( -0.7071067811865486830, 0.0000000000000000000, -0.7071067811865462405 ) ) ;
#132 = VERTEX_POINT ( 'NONE', #376 ) ;
#133 =( CONVERSION_BASED_UNIT ( 'INCH', #191 ) LENGTH_UNIT ( ) NAMED_UNIT ( #184 ) );
#134 = ORIENTED_EDGE ( 'NONE', *, *, #252, .F. ) ;
#135 = CARTESIAN_POINT ( 'NONE',  ( -0.1181100000000000066, 0.0000000000000000000, 2.937755999999999368 ) ) ;
#136 = LINE ( 'NONE', #244, #247 ) ;
#137 = STYLED_ITEM ( 'NONE', ( #206 ), #130 ) ;
#138 = LINE ( 'NONE', #139, #306 ) ;
#139 = CARTESIAN_POINT ( 'NONE',  ( -0.1181100000000000066, 0.0000000000000000000, 2.952755999999999936 ) ) ;
#140 = EDGE_CURVE ( 'NONE', #99, #44, #85, .T. ) ;
#141 = DIRECTION ( 'NONE',  ( 1.000000000000000000, 0.0000000000000000000, 0.0000000000000000000 ) ) ;
#142 = FACE_OUTER_BOUND ( 'NONE', #367, .T. ) ;
#143 = VECTOR ( 'NONE', #291, 39.37007874015748143 ) ;
#144 = CYLINDRICAL_SURFACE ( 'NONE', #164, 0.06889750000000008368 ) ;
#145 = EDGE_LOOP ( 'NONE', ( #16, #340, #248, #162 ) ) ;
#146 = EDGE_CURVE ( 'NONE', #22, #283, #45, .T. ) ;
#147 = ADVANCED_FACE ( 'NONE', ( #253 ), #161, .T. ) ;
#148 = LINE ( 'NONE', #334, #7 ) ;
#149 = CARTESIAN_POINT ( 'NONE',  ( 0.06889750000000004204, 9.039707447011048131E-18, 0.3707359356365394487 ) ) ;
#150 = VECTOR ( 'NONE', #310, 39.37007874015748143 ) ;
#151 = PLANE ( 'NONE',  #339 ) ;
#152 = ORIENTED_EDGE ( 'NONE', *, *, #303, .F. ) ;
#153 = EDGE_LOOP ( 'NONE', ( #336, #313, #152, #307 ) ) ;
#154 = EDGE_CURVE ( 'NONE', #276, #156, #323, .T. ) ;
#155 = EDGE_LOOP ( 'NONE', ( #214, #278 ) ) ;
#156 = VERTEX_POINT ( 'NONE', #31 ) ;
#157 = MANIFOLD_SOLID_BREP ( 'Cut-Revolve1', #113 ) ;
#158 = CARTESIAN_POINT ( 'NONE',  ( 0.0000000000000000000, 0.0000000000000000000, 0.3149609999999999910 ) ) ;
#159 = ORIENTED_EDGE ( 'NONE', *, *, #163, .T. ) ;
#160 = DIRECTION ( 'NONE',  ( 0.0000000000000000000, 0.0000000000000000000, 1.000000000000000000 ) ) ;
#161 = CONICAL_SURFACE ( 'NONE', #211, 0.1031099999999991607, 0.7853981633974500554 ) ;
#162 = ORIENTED_EDGE ( 'NONE', *, *, #360, .F. ) ;
#163 = EDGE_CURVE ( 'NONE', #283, #22, #43, .T. ) ;
#164 = AXIS2_PLACEMENT_3D ( 'NONE', #361, #237, #6 ) ;
#165 = DIRECTION ( 'NONE',  ( -0.0000000000000000000, -0.0000000000000000000, -1.000000000000000000 ) ) ;
#166 = ADVANCED_FACE ( 'NONE', ( #235 ), #151, .T. ) ;
#167 = PLANE ( 'NONE',  #356 ) ;
#168 = ADVANCED_FACE ( 'NONE', ( #119 ), #144, .T. ) ;
#169 = CYLINDRICAL_SURFACE ( 'NONE', #105, 0.07873212600000002725 ) ;
#170 = CARTESIAN_POINT ( 'NONE',  ( 0.07873212600000002725, 9.641904609596614675E-18, 0.3149609999999999910 ) ) ;
#171 = SURFACE_STYLE_FILL_AREA ( #111 ) ;
#172 = DIRECTION ( 'NONE',  ( -0.0000000000000000000, -0.0000000000000000000, -1.000000000000000000 ) ) ;
#173 = EDGE_CURVE ( 'NONE', #193, #156, #301, .T. ) ;
#174 = DIRECTION ( 'NONE',  ( 1.000000000000000000, 0.0000000000000000000, 0.0000000000000000000 ) ) ;
#175 = PRODUCT_DEFINITION_SHAPE ( 'NONE', 'NONE',  #275 ) ;
#176 = SURFACE_STYLE_FILL_AREA ( #265 ) ;
#177 = MECHANICAL_DESIGN_GEOMETRIC_PRESENTATION_REPRESENTATION (  '', ( #212 ), #114 ) ;
#178 = DIRECTION ( 'NONE',  ( -1.000000000000000000, 0.0000000000000000000, 0.0000000000000000000 ) ) ;
#179 = LENGTH_MEASURE_WITH_UNIT ( LENGTH_MEASURE( 0.02539999999999999897 ), #61 );
#180 = ORIENTED_EDGE ( 'NONE', *, *, #337, .T. ) ;
#181 = DIRECTION ( 'NONE',  ( -1.000000000000000000, 0.0000000000000000000, 0.0000000000000000000 ) ) ;
#182 = UNCERTAINTY_MEASURE_WITH_UNIT (LENGTH_MEASURE( 1.000000000000000082E-05 ), #133, 'distance_accuracy_value', 'NONE');
#183 = DIRECTION ( 'NONE',  ( -0.0000000000000000000, -0.0000000000000000000, -1.000000000000000000 ) ) ;
#184 = DIMENSIONAL_EXPONENTS ( 1.000000000000000000, 0.0000000000000000000, 0.0000000000000000000, 0.0000000000000000000, 0.0000000000000000000, 0.0000000000000000000, 0.0000000000000000000 ) ;
#185 = ORIENTED_EDGE ( 'NONE', *, *, #64, .F. ) ;
#186 = VERTEX_POINT ( 'NONE', #40 ) ;
#187 = EDGE_CURVE ( 'NONE', #44, #99, #124, .T. ) ;
#188 = FACE_BOUND ( 'NONE', #78, .T. ) ;
#189 = CIRCLE ( 'NONE', #9, 0.1181100000000000066 ) ;
#190 = VERTEX_POINT ( 'NONE', #302 ) ;
#191 = LENGTH_MEASURE_WITH_UNIT ( LENGTH_MEASURE( 0.02539999999999999897 ), #221 );
#192 = AXIS2_PLACEMENT_3D ( 'NONE', #34, #104, #224 ) ;
#193 = VERTEX_POINT ( 'NONE', #210 ) ;
#194 = DIRECTION ( 'NONE',  ( -0.0000000000000000000, -0.0000000000000000000, -1.000000000000000000 ) ) ;
#195 = CARTESIAN_POINT ( 'NONE',  ( 0.0000000000000000000, 0.0000000000000000000, 2.952755999999999936 ) ) ;
#196 = EDGE_CURVE ( 'NONE', #19, #132, #148, .T. ) ;
#197 = CYLINDRICAL_SURFACE ( 'NONE', #309, 0.1181100000000000066 ) ;
#198 = AXIS2_PLACEMENT_3D ( 'NONE', #35, #262, #11 ) ;
#199 = FACE_OUTER_BOUND ( 'NONE', #41, .T. ) ;
#200 = FACE_OUTER_BOUND ( 'NONE', #242, .T. ) ;
#201 = DIRECTION ( 'NONE',  ( -1.000000000000000000, 0.0000000000000000000, 0.0000000000000000000 ) ) ;
#202 = ORIENTED_EDGE ( 'NONE', *, *, #55, .T. ) ;
#203 =( GEOMETRIC_REPRESENTATION_CONTEXT ( 3 ) GLOBAL_UNCERTAINTY_ASSIGNED_CONTEXT ( ( #182 ) ) GLOBAL_UNIT_ASSIGNED_CONTEXT ( ( #133, #51, #106 ) ) REPRESENTATION_CONTEXT ( 'NONE', 'WORKASPACE' ) );
#204 = DIRECTION ( 'NONE',  ( -1.000000000000000000, 0.0000000000000000000, 0.0000000000000000000 ) ) ;
#205 = DIRECTION ( 'NONE',  ( -0.0000000000000000000, -0.0000000000000000000, -1.000000000000000000 ) ) ;
#206 = PRESENTATION_STYLE_ASSIGNMENT (( #379 ) ) ;
#207 = DIRECTION ( 'NONE',  ( -0.0000000000000000000, -0.0000000000000000000, -1.000000000000000000 ) ) ;
#208 = CIRCLE ( 'NONE', #263, 0.1181100000000000066 ) ;
#209 = ORIENTED_EDGE ( 'NONE', *, *, #290, .F. ) ;
#210 = CARTESIAN_POINT ( 'NONE',  ( -0.07873212600000002725, 0.0000000000000000000, 0.3149609999999999910 ) ) ;
#211 = AXIS2_PLACEMENT_3D ( 'NONE', #378, #84, #201 ) ;
#212 = STYLED_ITEM ( 'NONE', ( #121 ), #157 ) ;
#213 = VECTOR ( 'NONE', #120, 39.37007874015748143 ) ;
#214 = ORIENTED_EDGE ( 'NONE', *, *, #252, .T. ) ;
#215 = AXIS2_PLACEMENT_3D ( 'NONE', #338, #68, #181 ) ;
#216 = EDGE_CURVE ( 'NONE', #186, #193, #358, .T. ) ;
#217 = ORIENTED_EDGE ( 'NONE', *, *, #266, .T. ) ;
#218 = ORIENTED_EDGE ( 'NONE', *, *, #325, .F. ) ;
#219 = FACE_OUTER_BOUND ( 'NONE', #76, .T. ) ;
#220 = ORIENTED_EDGE ( 'NONE', *, *, #27, .F. ) ;
#221 =( LENGTH_UNIT ( ) NAMED_UNIT ( * ) SI_UNIT ( $, .METRE. ) );
#222 = ORIENTED_EDGE ( 'NONE', *, *, #187, .T. ) ;
#223 = DIRECTION ( 'NONE',  ( -0.0000000000000000000, -0.0000000000000000000, -1.000000000000000000 ) ) ;
#224 = DIRECTION ( 'NONE',  ( -1.000000000000000000, 0.0000000000000000000, 0.0000000000000000000 ) ) ;
#225 = DIRECTION ( 'NONE',  ( -0.0000000000000000000, -0.0000000000000000000, -1.000000000000000000 ) ) ;
#226 = ADVANCED_FACE ( 'NONE', ( #90 ), #300, .T. ) ;
#227 = FACE_OUTER_BOUND ( 'NONE', #155, .T. ) ;
#228 = AXIS2_PLACEMENT_3D ( 'NONE', #117, #69, #204 ) ;
#229 = CARTESIAN_POINT ( 'NONE',  ( 0.0000000000000000000, 0.0000000000000000000, 0.0000000000000000000 ) ) ;
#230 = FILL_AREA_STYLE_COLOUR ( '', #95 ) ;
#231 = SURFACE_SIDE_STYLE ('',( #171 ) ) ;
#232 = PRODUCT_DEFINITION_FORMATION_WITH_SPECIFIED_SOURCE ( 'ANY', '', #107, .NOT_KNOWN. ) ;
#233 = CARTESIAN_POINT ( 'NONE',  ( -0.1031099999999991607, 0.0000000000000000000, 2.952755999999999936 ) ) ;
#234 = EDGE_CURVE ( 'NONE', #19, #67, #189, .T. ) ;
#235 = FACE_OUTER_BOUND ( 'NONE', #123, .T. ) ;
#236 = DIMENSIONAL_EXPONENTS ( 1.000000000000000000, 0.0000000000000000000, 0.0000000000000000000, 0.0000000000000000000, 0.0000000000000000000, 0.0000000000000000000, 0.0000000000000000000 ) ;
#237 = DIRECTION ( 'NONE',  ( -0.0000000000000000000, -0.0000000000000000000, -1.000000000000000000 ) ) ;
#238 = ORIENTED_EDGE ( 'NONE', *, *, #173, .F. ) ;
#239 = CARTESIAN_POINT ( 'NONE',  ( 0.0000000000000000000, 0.0000000000000000000, 2.937755999999999368 ) ) ;
#240 = CARTESIAN_POINT ( 'NONE',  ( -0.07873212600000002725, 0.0000000000000000000, 0.0000000000000000000 ) ) ;
#241 = ORIENTED_EDGE ( 'NONE', *, *, #128, .F. ) ;
#242 = EDGE_LOOP ( 'NONE', ( #311, #370, #238, #341 ) ) ;
#243 = EDGE_LOOP ( 'NONE', ( #73, #202, #366, #218 ) ) ;
#244 = CARTESIAN_POINT ( 'NONE',  ( 0.06889750000000008368, 8.437510284425487751E-18, 0.0000000000000000000 ) ) ;
#245 = AXIS2_PLACEMENT_3D ( 'NONE', #256, #267, #174 ) ;
#246 = DIRECTION ( 'NONE',  ( -1.000000000000000000, 0.0000000000000000000, 0.0000000000000000000 ) ) ;
#247 = VECTOR ( 'NONE', #21, 39.37007874015748143 ) ;
#248 = ORIENTED_EDGE ( 'NONE', *, *, #261, .F. ) ;
#249 = LINE ( 'NONE', #48, #319 ) ;
#250 = CARTESIAN_POINT ( 'NONE',  ( 0.0000000000000000000, 0.0000000000000000000, 1.181102000000000096 ) ) ;
#251 = CARTESIAN_POINT ( 'NONE',  ( 0.0000000000000000000, 0.0000000000000000000, 2.937755999999999368 ) ) ;
#252 = EDGE_CURVE ( 'NONE', #308, #132, #53, .T. ) ;
#253 = FACE_OUTER_BOUND ( 'NONE', #153, .T. ) ;
#254 = APPLICATION_PROTOCOL_DEFINITION ( 'draft international standard', 'automotive_design', 1998, #77 ) ;
#255 = AXIS2_PLACEMENT_3D ( 'NONE', #14, #24, #246 ) ;
#256 = CARTESIAN_POINT ( 'NONE',  ( 0.0000000000000000000, 0.0000000000000000000, 2.952755999999999936 ) ) ;
#257 = CYLINDRICAL_SURFACE ( 'NONE', #321, 0.07873212600000002725 ) ;
#258 =( NAMED_UNIT ( * ) PLANE_ANGLE_UNIT ( ) SI_UNIT ( $, .RADIAN. ) );
#259 = DIRECTION ( 'NONE',  ( -0.0000000000000000000, -0.0000000000000000000, -1.000000000000000000 ) ) ;
#260 =( LENGTH_UNIT ( ) NAMED_UNIT ( * ) SI_UNIT ( $, .METRE. ) );
#261 = EDGE_CURVE ( 'NONE', #186, #276, #304, .T. ) ;
#262 = DIRECTION ( 'NONE',  ( -0.0000000000000000000, -0.0000000000000000000, -1.000000000000000000 ) ) ;
#263 = AXIS2_PLACEMENT_3D ( 'NONE', #251, #347, #345 ) ;
#264 = ORIENTED_EDGE ( 'NONE', *, *, #154, .F. ) ;
#265 = FILL_AREA_STYLE ('',( #230 ) ) ;
#266 = EDGE_CURVE ( 'NONE', #156, #193, #15, .T. ) ;
#267 = DIRECTION ( 'NONE',  ( 0.0000000000000000000, 0.0000000000000000000, 1.000000000000000000 ) ) ;
#268 = ORIENTED_EDGE ( 'NONE', *, *, #196, .F. ) ;
#269 = AXIS2_PLACEMENT_3D ( 'NONE', #353, #8, #324 ) ;
#270 = CARTESIAN_POINT ( 'NONE',  ( 0.0000000000000000000, 0.0000000000000000000, 2.952755999999999936 ) ) ;
#271 = CARTESIAN_POINT ( 'NONE',  ( 0.06889750000000013919, 0.0000000000000000000, 1.181102000000000096 ) ) ;
#272 = CONICAL_SURFACE ( 'NONE', #299, 0.07873212600000002725, 0.1745329251994332254 ) ;
#273 = AXIS2_PLACEMENT_3D ( 'NONE', #108, #225, #58 ) ;
#274 = EDGE_LOOP ( 'NONE', ( #209, #222, #346, #91 ) ) ;
#275 = PRODUCT_DEFINITION ( 'UNKNOWN', '', #232, #30 ) ;
#276 = VERTEX_POINT ( 'NONE', #149 ) ;
#277 = AXIS2_PLACEMENT_3D ( 'NONE', #26, #160, #315 ) ;
#278 = ORIENTED_EDGE ( 'NONE', *, *, #64, .T. ) ;
#279 = CARTESIAN_POINT ( 'NONE',  ( 0.0000000000000000000, 0.0000000000000000000, 2.952755999999999936 ) ) ;
#280 = ORIENTED_EDGE ( 'NONE', *, *, #325, .T. ) ;
#281 = DIRECTION ( 'NONE',  ( -1.000000000000000000, 0.0000000000000000000, 0.0000000000000000000 ) ) ;
#282 = COLOUR_RGB ( '',0.7921568627450980005, 0.8196078431372548767, 0.9333333333333333481 ) ;
#283 = VERTEX_POINT ( 'NONE', #297 ) ;
#284 = EDGE_CURVE ( 'NONE', #371, #190, #351, .T. ) ;
#285 = EDGE_LOOP ( 'NONE', ( #72, #180 ) ) ;
#286 = ADVANCED_FACE ( 'NONE', ( #200 ), #65, .T. ) ;
#287 = DIRECTION ( 'NONE',  ( -0.0000000000000000000, 0.0000000000000000000, -1.000000000000000000 ) ) ;
#288 = CARTESIAN_POINT ( 'NONE',  ( 0.0000000000000000000, 0.0000000000000000000, 2.952755999999999936 ) ) ;
#289 = AXIS2_PLACEMENT_3D ( 'NONE', #288, #28, #141 ) ;
#290 = EDGE_CURVE ( 'NONE', #44, #276, #136, .T. ) ;
#291 = DIRECTION ( 'NONE',  ( 0.1736481776669306087, 2.126576849575774688E-17, -0.9848077530122080203 ) ) ;
#292 = SURFACE_STYLE_USAGE ( .BOTH. , #231 ) ;
#293 = VECTOR ( 'NONE', #317, 39.37007874015748854 ) ;
#294 = DIRECTION ( 'NONE',  ( -0.0000000000000000000, -0.0000000000000000000, -1.000000000000000000 ) ) ;
#295 = CARTESIAN_POINT ( 'NONE',  ( -0.07873212600000002725, 0.0000000000000000000, 0.3149609999999999910 ) ) ;
#296 = EDGE_CURVE ( 'NONE', #22, #67, #249, .T. ) ;
#297 = CARTESIAN_POINT ( 'NONE',  ( 0.1031099999999991607, 1.354581824536882251E-17, 2.952755999999999936 ) ) ;
#298 = CARTESIAN_POINT ( 'NONE',  ( 0.0000000000000000000, 0.0000000000000000000, 1.181102000000000096 ) ) ;
#299 = AXIS2_PLACEMENT_3D ( 'NONE', #110, #259, #80 ) ;
#300 = CYLINDRICAL_SURFACE ( 'NONE', #198, 0.06889750000000008368 ) ;
#301 = CIRCLE ( 'NONE', #126, 0.07873212600000002725 ) ;
#302 = CARTESIAN_POINT ( 'NONE',  ( 0.07873212600000002725, 9.641904609596614675E-18, 0.0000000000000000000 ) ) ;
#303 = EDGE_CURVE ( 'NONE', #67, #19, #208, .T. ) ;
#304 = CIRCLE ( 'NONE', #228, 0.06889750000000004204 ) ;
#305 = UNCERTAINTY_MEASURE_WITH_UNIT (LENGTH_MEASURE( 1.000000000000000082E-05 ), #88, 'distance_accuracy_value', 'NONE');
#306 = VECTOR ( 'NONE', #348, 39.37007874015748143 ) ;
#307 = ORIENTED_EDGE ( 'NONE', *, *, #296, .F. ) ;
#308 = VERTEX_POINT ( 'NONE', #79 ) ;
#309 = AXIS2_PLACEMENT_3D ( 'NONE', #279, #18, #281 ) ;
#310 = DIRECTION ( 'NONE',  ( -0.0000000000000000000, -0.0000000000000000000, -1.000000000000000000 ) ) ;
#311 = ORIENTED_EDGE ( 'NONE', *, *, #261, .T. ) ;
#312 = FACE_OUTER_BOUND ( 'NONE', #285, .T. ) ;
#313 = ORIENTED_EDGE ( 'NONE', *, *, #27, .T. ) ;
#314 = MECHANICAL_DESIGN_GEOMETRIC_PRESENTATION_REPRESENTATION (  '', ( #137 ), #29 ) ;
#315 = DIRECTION ( 'NONE',  ( 1.000000000000000000, 0.0000000000000000000, -0.0000000000000000000 ) ) ;
#316 = PRESENTATION_LAYER_ASSIGNMENT (  '', '', ( #212 ) ) ;
#317 = DIRECTION ( 'NONE',  ( 0.7071067811865486830, 8.659560562354947649E-17, -0.7071067811865462405 ) ) ;
#318 = CARTESIAN_POINT ( 'NONE',  ( 0.0000000000000000000, 0.0000000000000000000, 0.0000000000000000000 ) ) ;
#319 = VECTOR ( 'NONE', #131, 39.37007874015748854 ) ;
#320 = LINE ( 'NONE', #59, #17 ) ;
#321 = AXIS2_PLACEMENT_3D ( 'NONE', #229, #355, #112 ) ;
#322 = PLANE ( 'NONE',  #277 ) ;
#323 = LINE ( 'NONE', #170, #143 ) ;
#324 = DIRECTION ( 'NONE',  ( 1.000000000000000000, 0.0000000000000000000, 0.0000000000000000000 ) ) ;
#325 = EDGE_CURVE ( 'NONE', #193, #371, #377, .T. ) ;
#326 = DIRECTION ( 'NONE',  ( -1.000000000000000000, 0.0000000000000000000, 0.0000000000000000000 ) ) ;
#327 = CARTESIAN_POINT ( 'NONE',  ( 0.1031099999999991607, 1.262733314600825571E-17, 2.952755999999999936 ) ) ;
#328 = SHAPE_DEFINITION_REPRESENTATION ( #175, #130 ) ;
#329 =( NAMED_UNIT ( * ) SI_UNIT ( $, .STERADIAN. ) SOLID_ANGLE_UNIT ( ) );
#330 = CARTESIAN_POINT ( 'NONE',  ( 0.0000000000000000000, 0.0000000000000000000, 0.3149609999999999910 ) ) ;
#331 = ADVANCED_FACE ( 'NONE', ( #312 ), #322, .F. ) ;
#332 = AXIS2_PLACEMENT_3D ( 'NONE', #318, #56, #375 ) ;
#333 = EDGE_LOOP ( 'NONE', ( #71, #217, #280, #118 ) ) ;
#334 = CARTESIAN_POINT ( 'NONE',  ( 0.1181100000000000066, 1.446430334472939084E-17, 2.952755999999999936 ) ) ;
#335 = CIRCLE ( 'NONE', #97, 0.1181100000000000066 ) ;
#336 = ORIENTED_EDGE ( 'NONE', *, *, #163, .F. ) ;
#337 = EDGE_CURVE ( 'NONE', #190, #371, #70, .T. ) ;
#338 = CARTESIAN_POINT ( 'NONE',  ( 0.0000000000000000000, 0.0000000000000000000, 1.181102000000000096 ) ) ;
#339 = AXIS2_PLACEMENT_3D ( 'NONE', #270, #98, #13 ) ;
#340 = ORIENTED_EDGE ( 'NONE', *, *, #290, .T. ) ;
#341 = ORIENTED_EDGE ( 'NONE', *, *, #216, .F. ) ;
#342 = ADVANCED_FACE ( 'NONE', ( #219 ), #82, .T. ) ;
#343 = DIRECTION ( 'NONE',  ( -1.000000000000000000, 0.0000000000000000000, 0.0000000000000000000 ) ) ;
#344 = ORIENTED_EDGE ( 'NONE', *, *, #266, .F. ) ;
#345 = DIRECTION ( 'NONE',  ( 1.000000000000000000, 0.0000000000000000000, 0.0000000000000000000 ) ) ;
#346 = ORIENTED_EDGE ( 'NONE', *, *, #360, .T. ) ;
#347 = DIRECTION ( 'NONE',  ( 0.0000000000000000000, 0.0000000000000000000, -1.000000000000000000 ) ) ;
#348 = DIRECTION ( 'NONE',  ( -0.0000000000000000000, -0.0000000000000000000, -1.000000000000000000 ) ) ;
#349 = CARTESIAN_POINT ( 'NONE',  ( 0.06889750000000012531, 8.437510284425492373E-18, 1.181102000000000096 ) ) ;
#350 = DIRECTION ( 'NONE',  ( -1.000000000000000000, 0.0000000000000000000, 0.0000000000000000000 ) ) ;
#351 = CIRCLE ( 'NONE', #255, 0.07873212600000002725 ) ;
#352 = DIRECTION ( 'NONE',  ( -1.000000000000000000, 0.0000000000000000000, 0.0000000000000000000 ) ) ;
#353 = CARTESIAN_POINT ( 'NONE',  ( 0.0000000000000000000, 0.0000000000000000000, 0.0000000000000000000 ) ) ;
#354 = DIRECTION ( 'NONE',  ( -0.0000000000000000000, -0.0000000000000000000, -1.000000000000000000 ) ) ;
#355 = DIRECTION ( 'NONE',  ( -0.0000000000000000000, -0.0000000000000000000, -1.000000000000000000 ) ) ;
#356 = AXIS2_PLACEMENT_3D ( 'NONE', #271, #287, #350 ) ;
#357 = ADVANCED_FACE ( 'NONE', ( #188, #227 ), #167, .T. ) ;
#358 = LINE ( 'NONE', #295, #213 ) ;
#359 = DIRECTION ( 'NONE',  ( 1.000000000000000000, 0.0000000000000000000, 0.0000000000000000000 ) ) ;
#360 = EDGE_CURVE ( 'NONE', #99, #186, #122, .T. ) ;
#361 = CARTESIAN_POINT ( 'NONE',  ( 0.0000000000000000000, 0.0000000000000000000, 0.0000000000000000000 ) ) ;
#362 = DIRECTION ( 'NONE',  ( 0.0000000000000000000, 0.0000000000000000000, -1.000000000000000000 ) ) ;
#363 = ORIENTED_EDGE ( 'NONE', *, *, #140, .F. ) ;
#364 = PRODUCT_RELATED_PRODUCT_CATEGORY ( 'part', '', ( #107 ) ) ;
#365 = FACE_OUTER_BOUND ( 'NONE', #102, .T. ) ;
#366 = ORIENTED_EDGE ( 'NONE', *, *, #284, .F. ) ;
#367 = EDGE_LOOP ( 'NONE', ( #268, #103, #50, #185 ) ) ;
#368 = VECTOR ( 'NONE', #194, 39.37007874015748143 ) ;
#369 = AXIS2_PLACEMENT_3D ( 'NONE', #195, #294, #352 ) ;
#370 = ORIENTED_EDGE ( 'NONE', *, *, #154, .T. ) ;
#371 = VERTEX_POINT ( 'NONE', #240 ) ;
#372 = CARTESIAN_POINT ( 'NONE',  ( -0.07873212600000002725, 0.0000000000000000000, 0.0000000000000000000 ) ) ;
#373 = ADVANCED_FACE ( 'NONE', ( #365 ), #197, .T. ) ;
#374 = ORIENTED_EDGE ( 'NONE', *, *, #234, .F. ) ;
#375 = DIRECTION ( 'NONE',  ( -1.000000000000000000, 0.0000000000000000000, 0.0000000000000000000 ) ) ;
#376 = CARTESIAN_POINT ( 'NONE',  ( 0.1181100000000000066, 1.446430334472939084E-17, 1.181102000000000096 ) ) ;
#377 = LINE ( 'NONE', #372, #368 ) ;
#378 = CARTESIAN_POINT ( 'NONE',  ( 0.0000000000000000000, 0.0000000000000000000, 2.952755999999999936 ) ) ;
#379 = SURFACE_STYLE_USAGE ( .BOTH. , #62 ) ;
ENDSEC;
END-ISO-10303-21;
