ISO-10303-21;
HEADER;
FILE_DESCRIPTION (( 'STEP AP214' ),
    '1' );
FILE_NAME ('59562.STEP',
    '2023-07-24T15:11:15',
    ( '' ),
    ( '' ),
    'SwSTEP 2.0',
    'SolidWorks 2023',
    '' );
FILE_SCHEMA (( 'AUTOMOTIVE_DESIGN' ));
ENDSEC;

DATA;
#1 = ORIENTED_EDGE ( 'NONE', *, *, #321, .F. ) ;
#2 = CARTESIAN_POINT ( 'NONE',  ( 0.000000000000000000, 1.000000000000000000, 0.000000000000000000 ) ) ;
#3 = LINE ( 'NONE', #167, #258 ) ;
#4 = VERTEX_POINT ( 'NONE', #296 ) ;
#5 = ADVANCED_FACE ( 'NONE', ( #268 ), #120, .T. ) ;
#6 = ORIENTED_EDGE ( 'NONE', *, *, #255, .T. ) ;
#7 = DIRECTION ( 'NONE',  ( -0.000000000000000000, -1.000000000000000000, -0.000000000000000000 ) ) ;
#8 =( GEOMETRIC_REPRESENTATION_CONTEXT ( 3 ) GLOBAL_UNCERTAINTY_ASSIGNED_CONTEXT ( ( #202 ) ) GLOBAL_UNIT_ASSIGNED_CONTEXT ( ( #241, #11, #294 ) ) REPRESENTATION_CONTEXT ( 'NONE', 'WORKASPACE' ) );
#9 = ORIENTED_EDGE ( 'NONE', *, *, #223, .F. ) ;
#10 = ADVANCED_FACE ( 'NONE', ( #160 ), #187, .F. ) ;
#11 =( NAMED_UNIT ( * ) PLANE_ANGLE_UNIT ( ) SI_UNIT ( $, .RADIAN. ) );
#12 = SURFACE_SIDE_STYLE ('',( #80 ) ) ;
#13 =( NAMED_UNIT ( * ) PLANE_ANGLE_UNIT ( ) SI_UNIT ( $, .RADIAN. ) );
#14 = COLOUR_RGB ( '',1.000000000000000000, 0.000000000000000000, 0.000000000000000000 ) ;
#15 = SURFACE_SIDE_STYLE ('',( #364 ) ) ;
#16 = AXIS2_PLACEMENT_3D ( 'NONE', #2, #298, #272 ) ;
#17 = DIRECTION ( 'NONE',  ( -1.000000000000000000, 0.000000000000000000, 0.000000000000000000 ) ) ;
#18 = CARTESIAN_POINT ( 'NONE',  ( 0.000000000000000000, 0.000000000000000000, 0.000000000000000000 ) ) ;
#19 = DIRECTION ( 'NONE',  ( -0.000000000000000000, -1.000000000000000000, -0.000000000000000000 ) ) ;
#20 = SURFACE_STYLE_USAGE ( .BOTH. , #15 ) ;
#21 =( GEOMETRIC_REPRESENTATION_CONTEXT ( 3 ) GLOBAL_UNCERTAINTY_ASSIGNED_CONTEXT ( ( #168 ) ) GLOBAL_UNIT_ASSIGNED_CONTEXT ( ( #78, #219, #189 ) ) REPRESENTATION_CONTEXT ( 'NONE', 'WORKASPACE' ) );
#22 = APPLICATION_CONTEXT ( 'automotive_design' ) ;
#23 = UNCERTAINTY_MEASURE_WITH_UNIT (LENGTH_MEASURE( 1.000000000000000082E-05 ), #203, 'distance_accuracy_value', 'NONE');
#24 = AXIS2_PLACEMENT_3D ( 'NONE', #245, #49, #17 ) ;
#25 = LINE ( 'NONE', #126, #333 ) ;
#26 = AXIS2_PLACEMENT_3D ( 'NONE', #194, #286, #135 ) ;
#27 = SURFACE_SIDE_STYLE ('',( #224 ) ) ;
#28 =( LENGTH_UNIT ( ) NAMED_UNIT ( * ) SI_UNIT ( .MILLI., .METRE. ) );
#29 = STYLED_ITEM ( 'NONE', ( #38 ), #190 ) ;
#30 = EDGE_CURVE ( 'NONE', #182, #41, #290, .T. ) ;
#31 = ORIENTED_EDGE ( 'NONE', *, *, #132, .F. ) ;
#32 = LINE ( 'NONE', #323, #319 ) ;
#33 = CIRCLE ( 'NONE', #174, 8.000000000000000000 ) ;
#34 = CARTESIAN_POINT ( 'NONE',  ( -1.714505518806293652E-15, 89.00000000000000000, 0.000000000000000000 ) ) ;
#35 = ORIENTED_EDGE ( 'NONE', *, *, #248, .T. ) ;
#36 = EDGE_LOOP ( 'NONE', ( #271, #39, #35, #144 ) ) ;
#37 = CARTESIAN_POINT ( 'NONE',  ( 0.000000000000000000, 0.000000000000000000, -8.000000000000000000 ) ) ;
#38 = PRESENTATION_STYLE_ASSIGNMENT (( #205 ) ) ;
#39 = ORIENTED_EDGE ( 'NONE', *, *, #30, .T. ) ;
#40 = SURFACE_STYLE_FILL_AREA ( #300 ) ;
#41 = VERTEX_POINT ( 'NONE', #222 ) ;
#42 = CYLINDRICAL_SURFACE ( 'NONE', #158, 7.999999999999998224 ) ;
#43 = DIRECTION ( 'NONE',  ( -1.279215233315390572E-16, 1.000000000000000000, 0.000000000000000000 ) ) ;
#44 = CARTESIAN_POINT ( 'NONE',  ( 0.000000000000000000, 0.000000000000000000, 0.000000000000000000 ) ) ;
#45 = SURFACE_STYLE_FILL_AREA ( #327 ) ;
#46 = LINE ( 'NONE', #37, #341 ) ;
#47 =( GEOMETRIC_REPRESENTATION_CONTEXT ( 3 ) GLOBAL_UNCERTAINTY_ASSIGNED_CONTEXT ( ( #362 ) ) GLOBAL_UNIT_ASSIGNED_CONTEXT ( ( #324, #274, #291 ) ) REPRESENTATION_CONTEXT ( 'NONE', 'WORKASPACE' ) );
#48 = PRESENTATION_LAYER_ASSIGNMENT (  '', '', ( #365 ) ) ;
#49 = DIRECTION ( 'NONE',  ( -1.279215233315390572E-16, 1.000000000000000000, -0.000000000000000000 ) ) ;
#50 = DIRECTION ( 'NONE',  ( 0.000000000000000000, 0.000000000000000000, 1.000000000000000000 ) ) ;
#51 =( NAMED_UNIT ( * ) SI_UNIT ( $, .STERADIAN. ) SOLID_ANGLE_UNIT ( ) );
#52 = FACE_OUTER_BOUND ( 'NONE', #293, .T. ) ;
#53 = PRODUCT_DEFINITION ( 'UNKNOWN', '', #117, #230 ) ;
#54 = PRESENTATION_STYLE_ASSIGNMENT (( #200 ) ) ;
#55 = AXIS2_PLACEMENT_3D ( 'NONE', #276, #148, #181 ) ;
#56 = EDGE_CURVE ( 'NONE', #66, #212, #318, .T. ) ;
#57 =( GEOMETRIC_REPRESENTATION_CONTEXT ( 3 ) GLOBAL_UNCERTAINTY_ASSIGNED_CONTEXT ( ( #227 ) ) GLOBAL_UNIT_ASSIGNED_CONTEXT ( ( #28, #320, #137 ) ) REPRESENTATION_CONTEXT ( 'NONE', 'WORKASPACE' ) );
#58 = FILL_AREA_STYLE_COLOUR ( '', #106 ) ;
#59 = DIRECTION ( 'NONE',  ( 0.000000000000000000, 0.000000000000000000, -1.000000000000000000 ) ) ;
#60 = ORIENTED_EDGE ( 'NONE', *, *, #307, .F. ) ;
#61 = SURFACE_SIDE_STYLE ('',( #155 ) ) ;
#62 = ORIENTED_EDGE ( 'NONE', *, *, #201, .T. ) ;
#63 =( NAMED_UNIT ( * ) PLANE_ANGLE_UNIT ( ) SI_UNIT ( $, .RADIAN. ) );
#64 = AXIS2_PLACEMENT_3D ( 'NONE', #210, #266, #234 ) ;
#65 = CARTESIAN_POINT ( 'NONE',  ( -1.714505518806293849E-15, 89.00000000000000000, 0.000000000000000000 ) ) ;
#66 = VERTEX_POINT ( 'NONE', #279 ) ;
#67 = FILL_AREA_STYLE ('',( #270 ) ) ;
#68 = EDGE_LOOP ( 'NONE', ( #60, #70, #62, #299 ) ) ;
#69 = FACE_OUTER_BOUND ( 'NONE', #68, .T. ) ;
#70 = ORIENTED_EDGE ( 'NONE', *, *, #223, .T. ) ;
#71 = ADVANCED_FACE ( 'NONE', ( #129 ), #263, .T. ) ;
#72 = MECHANICAL_DESIGN_GEOMETRIC_PRESENTATION_REPRESENTATION (  '', ( #309 ), #21 ) ;
#73 = CARTESIAN_POINT ( 'NONE',  ( -7.999999999999989342, 40.00000000000000000, 0.000000000000000000 ) ) ;
#74 = PRESENTATION_LAYER_ASSIGNMENT (  '', '', ( #29 ) ) ;
#75 = AXIS2_PLACEMENT_3D ( 'NONE', #280, #130, #251 ) ;
#76 = CARTESIAN_POINT ( 'NONE',  ( 4.553649124439118623E-15, 40.00000000000000000, 0.000000000000000000 ) ) ;
#77 = PLANE ( 'NONE',  #75 ) ;
#78 =( LENGTH_UNIT ( ) NAMED_UNIT ( * ) SI_UNIT ( .MILLI., .METRE. ) );
#79 = DIRECTION ( 'NONE',  ( 0.000000000000000000, 0.000000000000000000, -1.000000000000000000 ) ) ;
#80 = SURFACE_STYLE_FILL_AREA ( #282 ) ;
#81 = DIRECTION ( 'NONE',  ( -1.279215233315390572E-16, 1.000000000000000000, -0.000000000000000000 ) ) ;
#82 = SURFACE_STYLE_USAGE ( .BOTH. , #157 ) ;
#83 = COLOUR_RGB ( '',1.000000000000000000, 0.000000000000000000, 0.000000000000000000 ) ;
#84 = DIRECTION ( 'NONE',  ( -0.000000000000000000, -1.000000000000000000, -0.000000000000000000 ) ) ;
#85 = CARTESIAN_POINT ( 'NONE',  ( 0.000000000000000000, 0.000000000000000000, -7.000000000000000000 ) ) ;
#86 = PRESENTATION_LAYER_ASSIGNMENT (  '', '', ( #166 ) ) ;
#87 = AXIS2_PLACEMENT_3D ( 'NONE', #18, #311, #79 ) ;
#88 = EDGE_CURVE ( 'NONE', #154, #344, #122, .T. ) ;
#89 = DIRECTION ( 'NONE',  ( 0.000000000000000000, 0.000000000000000000, -1.000000000000000000 ) ) ;
#90 = TOROIDAL_SURFACE ( 'NONE', #16, 7.000000000000000000, 1.000000000000000000 ) ;
#91 = FILL_AREA_STYLE ('',( #58 ) ) ;
#92 = UNCERTAINTY_MEASURE_WITH_UNIT (LENGTH_MEASURE( 1.000000000000000082E-05 ), #232, 'distance_accuracy_value', 'NONE');
#93 = CARTESIAN_POINT ( 'NONE',  ( 9.797174393178825657E-16, 1.000000000000000000, 8.000000000000000000 ) ) ;
#94 = ORIENTED_EDGE ( 'NONE', *, *, #132, .T. ) ;
#95 = DIRECTION ( 'NONE',  ( -0.000000000000000000, -1.000000000000000000, -0.000000000000000000 ) ) ;
#96 = DIRECTION ( 'NONE',  ( 1.000000000000000000, 0.000000000000000000, -1.224646799147353207E-16 ) ) ;
#97 = ORIENTED_EDGE ( 'NONE', *, *, #56, .T. ) ;
#98 = DIRECTION ( 'NONE',  ( -0.000000000000000000, -1.000000000000000000, -0.000000000000000000 ) ) ;
#99 = CARTESIAN_POINT ( 'NONE',  ( 8.572527594031473190E-16, 1.000000000000000000, 7.000000000000000000 ) ) ;
#100 = ORIENTED_EDGE ( 'NONE', *, *, #317, .F. ) ;
#101 = FACE_OUTER_BOUND ( 'NONE', #36, .T. ) ;
#102 = ORIENTED_EDGE ( 'NONE', *, *, #111, .T. ) ;
#103 = SURFACE_SIDE_STYLE ('',( #40 ) ) ;
#104 = DIRECTION ( 'NONE',  ( 0.000000000000000000, 0.000000000000000000, -1.000000000000000000 ) ) ;
#105 = DIRECTION ( 'NONE',  ( -1.000000000000000000, 0.000000000000000000, 0.000000000000000000 ) ) ;
#106 = COLOUR_RGB ( '',0.7921568627450980005, 0.8196078431372548767, 0.9333333333333333481 ) ;
#107 = ADVANCED_FACE ( 'NONE', ( #312 ), #278, .T. ) ;
#108 = CARTESIAN_POINT ( 'NONE',  ( 9.184850993605147944E-16, 0.000000000000000000, 7.000000000000000000 ) ) ;
#109 = PRESENTATION_STYLE_ASSIGNMENT (( #20 ) ) ;
#110 = DIRECTION ( 'NONE',  ( 0.000000000000000000, 0.000000000000000000, -1.000000000000000000 ) ) ;
#111 = EDGE_CURVE ( 'NONE', #41, #182, #127, .T. ) ;
#112 = PRESENTATION_LAYER_ASSIGNMENT (  '', '', ( #309 ) ) ;
#113 = DIRECTION ( 'NONE',  ( 0.000000000000000000, 0.000000000000000000, -1.000000000000000000 ) ) ;
#114 = AXIS2_PLACEMENT_3D ( 'NONE', #125, #186, #104 ) ;
#115 = ORIENTED_EDGE ( 'NONE', *, *, #207, .T. ) ;
#116 = AXIS2_PLACEMENT_3D ( 'NONE', #361, #356, #110 ) ;
#117 = PRODUCT_DEFINITION_FORMATION_WITH_SPECIFIED_SOURCE ( 'ANY', '', #180, .NOT_KNOWN. ) ;
#118 = PRESENTATION_STYLE_ASSIGNMENT (( #345 ) ) ;
#119 = VERTEX_POINT ( 'NONE', #288 ) ;
#120 = CYLINDRICAL_SURFACE ( 'NONE', #114, 8.000000000000000000 ) ;
#121 = SURFACE_STYLE_USAGE ( .BOTH. , #61 ) ;
#122 = CIRCLE ( 'NONE', #191, 7.000000000000000000 ) ;
#123 = PRESENTATION_STYLE_ASSIGNMENT (( #121 ) ) ;
#124 = FILL_AREA_STYLE_COLOUR ( '', #14 ) ;
#125 = CARTESIAN_POINT ( 'NONE',  ( 0.000000000000000000, 0.000000000000000000, 0.000000000000000000 ) ) ;
#126 = CARTESIAN_POINT ( 'NONE',  ( -8.000000000000000000, 89.00000000000000000, 0.000000000000000000 ) ) ;
#127 = CIRCLE ( 'NONE', #229, 8.000000000000000000 ) ;
#128 = SURFACE_STYLE_USAGE ( .BOTH. , #12 ) ;
#129 = FACE_OUTER_BOUND ( 'NONE', #150, .T. ) ;
#130 = DIRECTION ( 'NONE',  ( 1.279215233315390572E-16, -1.000000000000000000, 0.000000000000000000 ) ) ;
#131 = APPLICATION_PROTOCOL_DEFINITION ( 'draft international standard', 'automotive_design', 1998, #22 ) ;
#132 = EDGE_CURVE ( 'NONE', #4, #325, #220, .T. ) ;
#133 = MECHANICAL_DESIGN_GEOMETRIC_PRESENTATION_REPRESENTATION (  '', ( #29 ), #47 ) ;
#134 = STYLED_ITEM ( 'NONE', ( #109 ), #367 ) ;
#135 = DIRECTION ( 'NONE',  ( 0.000000000000000000, -0.000000000000000000, 1.000000000000000000 ) ) ;
#136 = EDGE_CURVE ( 'NONE', #182, #154, #257, .T. ) ;
#137 =( NAMED_UNIT ( * ) SI_UNIT ( $, .STERADIAN. ) SOLID_ANGLE_UNIT ( ) );
#138 = AXIS2_PLACEMENT_3D ( 'NONE', #139, #366, #113 ) ;
#139 = CARTESIAN_POINT ( 'NONE',  ( 0.000000000000000000, 0.000000000000000000, 0.000000000000000000 ) ) ;
#140 = CYLINDRICAL_SURFACE ( 'NONE', #370, 7.999999999999998224 ) ;
#141 = ORIENTED_EDGE ( 'NONE', *, *, #317, .T. ) ;
#142 = MECHANICAL_DESIGN_GEOMETRIC_PRESENTATION_REPRESENTATION (  '', ( #302 ), #216 ) ;
#143 = MECHANICAL_DESIGN_GEOMETRIC_PRESENTATION_REPRESENTATION (  '', ( #365 ), #8 ) ;
#144 = ORIENTED_EDGE ( 'NONE', *, *, #88, .F. ) ;
#145 =( NAMED_UNIT ( * ) SI_UNIT ( $, .STERADIAN. ) SOLID_ANGLE_UNIT ( ) );
#146 = DIRECTION ( 'NONE',  ( -1.279215233315390572E-16, 1.000000000000000000, -0.000000000000000000 ) ) ;
#147 = EDGE_LOOP ( 'NONE', ( #169, #352 ) ) ;
#148 = DIRECTION ( 'NONE',  ( -1.279215233315390572E-16, 1.000000000000000000, -0.000000000000000000 ) ) ;
#149 = SURFACE_STYLE_FILL_AREA ( #91 ) ;
#150 = EDGE_LOOP ( 'NONE', ( #102, #346, #1, #179 ) ) ;
#151 = DIRECTION ( 'NONE',  ( -1.279215233315390572E-16, 1.000000000000000000, -0.000000000000000000 ) ) ;
#152 = AXIS2_PLACEMENT_3D ( 'NONE', #99, #96, #267 ) ;
#153 = PRESENTATION_LAYER_ASSIGNMENT (  '', '', ( #221 ) ) ;
#154 = VERTEX_POINT ( 'NONE', #108 ) ;
#155 = SURFACE_STYLE_FILL_AREA ( #184 ) ;
#156 = DIRECTION ( 'NONE',  ( 0.000000000000000000, 0.000000000000000000, -1.000000000000000000 ) ) ;
#157 = SURFACE_SIDE_STYLE ('',( #45 ) ) ;
#158 = AXIS2_PLACEMENT_3D ( 'NONE', #351, #328, #105 ) ;
#159 = CIRCLE ( 'NONE', #87, 7.000000000000000000 ) ;
#160 = FACE_OUTER_BOUND ( 'NONE', #206, .T. ) ;
#161 = DIRECTION ( 'NONE',  ( 1.000000000000000000, 0.000000000000000000, 0.000000000000000000 ) ) ;
#162 = CARTESIAN_POINT ( 'NONE',  ( 0.000000000000000000, 0.000000000000000000, 0.000000000000000000 ) ) ;
#163 =( GEOMETRIC_REPRESENTATION_CONTEXT ( 3 ) GLOBAL_UNCERTAINTY_ASSIGNED_CONTEXT ( ( #289 ) ) GLOBAL_UNIT_ASSIGNED_CONTEXT ( ( #215, #217, #51 ) ) REPRESENTATION_CONTEXT ( 'NONE', 'WORKASPACE' ) );
#164 = DIRECTION ( 'NONE',  ( -0.000000000000000000, -1.000000000000000000, -0.000000000000000000 ) ) ;
#165 = EDGE_CURVE ( 'NONE', #66, #119, #3, .T. ) ;
#166 = STYLED_ITEM ( 'NONE', ( #54 ), #107 ) ;
#167 = CARTESIAN_POINT ( 'NONE',  ( 7.999999999999996447, 89.00000000000000000, 9.797174393178823685E-16 ) ) ;
#168 = UNCERTAINTY_MEASURE_WITH_UNIT (LENGTH_MEASURE( 1.000000000000000082E-05 ), #78, 'distance_accuracy_value', 'NONE');
#169 = ORIENTED_EDGE ( 'NONE', *, *, #321, .T. ) ;
#170 = FILL_AREA_STYLE_COLOUR ( '', #265 ) ;
#171 = AXIS2_PLACEMENT_3D ( 'NONE', #250, #19, #156 ) ;
#172 = DIRECTION ( 'NONE',  ( -1.000000000000000000, 0.000000000000000000, 0.000000000000000000 ) ) ;
#173 = EDGE_LOOP ( 'NONE', ( #6, #275, #329, #100 ) ) ;
#174 = AXIS2_PLACEMENT_3D ( 'NONE', #347, #98, #237 ) ;
#175 = FACE_OUTER_BOUND ( 'NONE', #369, .T. ) ;
#176 =( GEOMETRIC_REPRESENTATION_CONTEXT ( 3 ) GLOBAL_UNCERTAINTY_ASSIGNED_CONTEXT ( ( #92 ) ) GLOBAL_UNIT_ASSIGNED_CONTEXT ( ( #232, #63, #145 ) ) REPRESENTATION_CONTEXT ( 'NONE', 'WORKASPACE' ) );
#177 = MANIFOLD_SOLID_BREP ( 'Revolve - Cutting Edge', #301 ) ;
#178 = ORIENTED_EDGE ( 'NONE', *, *, #307, .T. ) ;
#179 = ORIENTED_EDGE ( 'NONE', *, *, #248, .F. ) ;
#180 = PRODUCT ( '59562', '59562', '', ( #256 ) ) ;
#181 = DIRECTION ( 'NONE',  ( -1.000000000000000000, 0.000000000000000000, 0.000000000000000000 ) ) ;
#182 = VERTEX_POINT ( 'NONE', #93 ) ;
#183 = EDGE_CURVE ( 'NONE', #322, #119, #337, .T. ) ;
#184 = FILL_AREA_STYLE ('',( #304 ) ) ;
#185 = COLOUR_RGB ( '',0.7921568627450980005, 0.8196078431372548767, 0.9333333333333333481 ) ;
#186 = DIRECTION ( 'NONE',  ( -0.000000000000000000, -1.000000000000000000, -0.000000000000000000 ) ) ;
#187 = PLANE ( 'NONE',  #198 ) ;
#188 =( LENGTH_UNIT ( ) NAMED_UNIT ( * ) SI_UNIT ( .MILLI., .METRE. ) );
#189 =( NAMED_UNIT ( * ) SI_UNIT ( $, .STERADIAN. ) SOLID_ANGLE_UNIT ( ) );
#190 = MANIFOLD_SOLID_BREP ( 'Revolve - Tool Body (Straight Shanked)', #252 ) ;
#191 = AXIS2_PLACEMENT_3D ( 'NONE', #334, #84, #195 ) ;
#192 = ADVANCED_FACE ( 'NONE', ( #343 ), #140, .T. ) ;
#193 = DIRECTION ( 'NONE',  ( -1.000000000000000000, -1.279215233315390572E-16, 0.000000000000000000 ) ) ;
#194 = CARTESIAN_POINT ( 'NONE',  ( 0.000000000000000000, 40.00000000000000000, 0.000000000000000000 ) ) ;
#195 = DIRECTION ( 'NONE',  ( 0.000000000000000000, 0.000000000000000000, -1.000000000000000000 ) ) ;
#196 = CARTESIAN_POINT ( 'NONE',  ( 9.797174393178825657E-16, 40.00000000000000000, 8.000000000000000000 ) ) ;
#197 = FILL_AREA_STYLE ('',( #124 ) ) ;
#198 = AXIS2_PLACEMENT_3D ( 'NONE', #76, #43, #193 ) ;
#199 = PRESENTATION_LAYER_ASSIGNMENT (  '', '', ( #302 ) ) ;
#200 = SURFACE_STYLE_USAGE ( .BOTH. , #27 ) ;
#201 = EDGE_CURVE ( 'NONE', #4, #41, #46, .T. ) ;
#202 = UNCERTAINTY_MEASURE_WITH_UNIT (LENGTH_MEASURE( 1.000000000000000082E-05 ), #241, 'distance_accuracy_value', 'NONE');
#203 =( LENGTH_UNIT ( ) NAMED_UNIT ( * ) SI_UNIT ( .MILLI., .METRE. ) );
#204 = ORIENTED_EDGE ( 'NONE', *, *, #201, .F. ) ;
#205 = SURFACE_STYLE_USAGE ( .BOTH. , #211 ) ;
#206 = EDGE_LOOP ( 'NONE', ( #236, #240 ) ) ;
#207 = EDGE_CURVE ( 'NONE', #119, #322, #287, .T. ) ;
#208 =( NAMED_UNIT ( * ) SI_UNIT ( $, .STERADIAN. ) SOLID_ANGLE_UNIT ( ) );
#209 = FILL_AREA_STYLE_COLOUR ( '', #340 ) ;
#210 = CARTESIAN_POINT ( 'NONE',  ( 0.000000000000000000, 1.000000000000000000, -7.000000000000000000 ) ) ;
#211 = SURFACE_SIDE_STYLE ('',( #368 ) ) ;
#212 = VERTEX_POINT ( 'NONE', #73 ) ;
#213 = ORIENTED_EDGE ( 'NONE', *, *, #207, .F. ) ;
#214 = DIRECTION ( 'NONE',  ( -1.000000000000000000, 0.000000000000000000, 0.000000000000000000 ) ) ;
#215 =( LENGTH_UNIT ( ) NAMED_UNIT ( * ) SI_UNIT ( .MILLI., .METRE. ) );
#216 =( GEOMETRIC_REPRESENTATION_CONTEXT ( 3 ) GLOBAL_UNCERTAINTY_ASSIGNED_CONTEXT ( ( #23 ) ) GLOBAL_UNIT_ASSIGNED_CONTEXT ( ( #203, #233, #208 ) ) REPRESENTATION_CONTEXT ( 'NONE', 'WORKASPACE' ) );
#217 =( NAMED_UNIT ( * ) PLANE_ANGLE_UNIT ( ) SI_UNIT ( $, .RADIAN. ) );
#218 =( LENGTH_UNIT ( ) NAMED_UNIT ( * ) SI_UNIT ( .MILLI., .METRE. ) );
#219 =( NAMED_UNIT ( * ) PLANE_ANGLE_UNIT ( ) SI_UNIT ( $, .RADIAN. ) );
#220 = CIRCLE ( 'NONE', #363, 8.000000000000000000 ) ;
#221 = STYLED_ITEM ( 'NONE', ( #354 ), #314 ) ;
#222 = CARTESIAN_POINT ( 'NONE',  ( 0.000000000000000000, 1.000000000000000000, -8.000000000000000000 ) ) ;
#223 = EDGE_CURVE ( 'NONE', #325, #4, #33, .T. ) ;
#224 = SURFACE_STYLE_FILL_AREA ( #197 ) ;
#225 = CIRCLE ( 'NONE', #64, 1.000000000000000000 ) ;
#226 = AXIS2_PLACEMENT_3D ( 'NONE', #162, #50, #161 ) ;
#227 = UNCERTAINTY_MEASURE_WITH_UNIT (LENGTH_MEASURE( 1.000000000000000082E-05 ), #28, 'distance_accuracy_value', 'NONE');
#228 = CARTESIAN_POINT ( 'NONE',  ( 0.000000000000000000, 1.000000000000000000, 0.000000000000000000 ) ) ;
#229 = AXIS2_PLACEMENT_3D ( 'NONE', #228, #164, #89 ) ;
#230 = PRODUCT_DEFINITION_CONTEXT ( 'detailed design', #284, 'design' ) ;
#231 = ORIENTED_EDGE ( 'NONE', *, *, #111, .F. ) ;
#232 =( LENGTH_UNIT ( ) NAMED_UNIT ( * ) SI_UNIT ( .MILLI., .METRE. ) );
#233 =( NAMED_UNIT ( * ) PLANE_ANGLE_UNIT ( ) SI_UNIT ( $, .RADIAN. ) );
#234 = DIRECTION ( 'NONE',  ( 0.000000000000000000, 0.000000000000000000, 1.000000000000000000 ) ) ;
#235 = AXIS2_PLACEMENT_3D ( 'NONE', #34, #292, #172 ) ;
#236 = ORIENTED_EDGE ( 'NONE', *, *, #255, .F. ) ;
#237 = DIRECTION ( 'NONE',  ( 0.000000000000000000, 0.000000000000000000, -1.000000000000000000 ) ) ;
#238 = ADVANCED_BREP_SHAPE_REPRESENTATION ( '59562', ( #177, #190, #226 ), #338 ) ;
#239 = APPLICATION_PROTOCOL_DEFINITION ( 'draft international standard', 'automotive_design', 1998, #284 ) ;
#240 = ORIENTED_EDGE ( 'NONE', *, *, #56, .F. ) ;
#241 =( LENGTH_UNIT ( ) NAMED_UNIT ( * ) SI_UNIT ( .MILLI., .METRE. ) );
#242 = PRESENTATION_STYLE_ASSIGNMENT (( #82 ) ) ;
#243 = PRODUCT_DEFINITION_SHAPE ( 'NONE', 'NONE',  #53 ) ;
#244 = SURFACE_STYLE_USAGE ( .BOTH. , #103 ) ;
#245 = CARTESIAN_POINT ( 'NONE',  ( 4.553649124439119412E-15, 40.00000000000000000, 0.000000000000000000 ) ) ;
#246 = PRESENTATION_LAYER_ASSIGNMENT (  '', '', ( #254 ) ) ;
#247 = PRESENTATION_STYLE_ASSIGNMENT (( #128 ) ) ;
#248 = EDGE_CURVE ( 'NONE', #41, #344, #225, .T. ) ;
#249 = PLANE ( 'NONE',  #26 ) ;
#250 = CARTESIAN_POINT ( 'NONE',  ( 0.000000000000000000, 1.000000000000000000, 0.000000000000000000 ) ) ;
#251 = DIRECTION ( 'NONE',  ( 1.000000000000000000, 1.279215233315390572E-16, 0.000000000000000000 ) ) ;
#252 = CLOSED_SHELL ( 'NONE', ( #192, #10, #261, #336 ) ) ;
#253 = FILL_AREA_STYLE ('',( #315 ) ) ;
#254 = STYLED_ITEM ( 'NONE', ( #247 ), #71 ) ;
#255 = EDGE_CURVE ( 'NONE', #212, #66, #283, .T. ) ;
#256 = PRODUCT_CONTEXT ( 'NONE', #22, 'mechanical' ) ;
#257 = CIRCLE ( 'NONE', #152, 1.000000000000000000 ) ;
#258 = VECTOR ( 'NONE', #146, 1000.000000000000000 ) ;
#259 =( GEOMETRIC_REPRESENTATION_CONTEXT ( 3 ) GLOBAL_UNCERTAINTY_ASSIGNED_CONTEXT ( ( #313 ) ) GLOBAL_UNIT_ASSIGNED_CONTEXT ( ( #218, #332, #306 ) ) REPRESENTATION_CONTEXT ( 'NONE', 'WORKASPACE' ) );
#260 = DIRECTION ( 'NONE',  ( -0.000000000000000000, -1.000000000000000000, -0.000000000000000000 ) ) ;
#261 = ADVANCED_FACE ( 'NONE', ( #175 ), #42, .T. ) ;
#262 = DIRECTION ( 'NONE',  ( -1.279215233315390572E-16, 1.000000000000000000, -0.000000000000000000 ) ) ;
#263 = TOROIDAL_SURFACE ( 'NONE', #116, 7.000000000000000000, 1.000000000000000000 ) ;
#264 = ORIENTED_EDGE ( 'NONE', *, *, #183, .T. ) ;
#265 = COLOUR_RGB ( '',1.000000000000000000, 0.000000000000000000, 0.000000000000000000 ) ;
#266 = DIRECTION ( 'NONE',  ( -1.000000000000000000, 0.000000000000000000, 0.000000000000000000 ) ) ;
#267 = DIRECTION ( 'NONE',  ( -1.224646799147353454E-16, 0.000000000000000000, -1.000000000000000000 ) ) ;
#268 = FACE_OUTER_BOUND ( 'NONE', #350, .T. ) ;
#269 = CARTESIAN_POINT ( 'NONE',  ( 4.553649124439119412E-15, 40.00000000000000000, 0.000000000000000000 ) ) ;
#270 = FILL_AREA_STYLE_COLOUR ( '', #185 ) ;
#271 = ORIENTED_EDGE ( 'NONE', *, *, #136, .F. ) ;
#272 = DIRECTION ( 'NONE',  ( 0.000000000000000000, 0.000000000000000000, -1.000000000000000000 ) ) ;
#273 = SHAPE_DEFINITION_REPRESENTATION ( #243, #238 ) ;
#274 =( NAMED_UNIT ( * ) PLANE_ANGLE_UNIT ( ) SI_UNIT ( $, .RADIAN. ) );
#275 = ORIENTED_EDGE ( 'NONE', *, *, #165, .T. ) ;
#276 = CARTESIAN_POINT ( 'NONE',  ( -1.714505518806293652E-15, 89.00000000000000000, 0.000000000000000000 ) ) ;
#277 = MECHANICAL_DESIGN_GEOMETRIC_PRESENTATION_REPRESENTATION (  '', ( #221 ), #176 ) ;
#278 = PLANE ( 'NONE',  #138 ) ;
#279 = CARTESIAN_POINT ( 'NONE',  ( 8.000000000000000000, 40.00000000000000000, 9.797174393178825657E-16 ) ) ;
#280 = CARTESIAN_POINT ( 'NONE',  ( 8.000000000000000000, 89.00000000000000000, 0.000000000000000000 ) ) ;
#281 = ADVANCED_FACE ( 'NONE', ( #101 ), #90, .T. ) ;
#282 = FILL_AREA_STYLE ('',( #359 ) ) ;
#283 = CIRCLE ( 'NONE', #348, 7.999999999999994671 ) ;
#284 = APPLICATION_CONTEXT ( 'automotive_design' ) ;
#285 = CARTESIAN_POINT ( 'NONE',  ( 0.000000000000000000, 40.00000000000000000, 0.000000000000000000 ) ) ;
#286 = DIRECTION ( 'NONE',  ( 0.000000000000000000, 1.000000000000000000, 0.000000000000000000 ) ) ;
#287 = CIRCLE ( 'NONE', #55, 8.000000000000001776 ) ;
#288 = CARTESIAN_POINT ( 'NONE',  ( 8.000000000000000000, 89.00000000000000000, 9.797174393178825657E-16 ) ) ;
#289 = UNCERTAINTY_MEASURE_WITH_UNIT (LENGTH_MEASURE( 1.000000000000000082E-05 ), #215, 'distance_accuracy_value', 'NONE');
#290 = CIRCLE ( 'NONE', #171, 8.000000000000000000 ) ;
#291 =( NAMED_UNIT ( * ) SI_UNIT ( $, .STERADIAN. ) SOLID_ANGLE_UNIT ( ) );
#292 = DIRECTION ( 'NONE',  ( -1.279215233315390572E-16, 1.000000000000000000, -0.000000000000000000 ) ) ;
#293 = EDGE_LOOP ( 'NONE', ( #264, #115 ) ) ;
#294 =( NAMED_UNIT ( * ) SI_UNIT ( $, .STERADIAN. ) SOLID_ANGLE_UNIT ( ) );
#295 = COLOUR_RGB ( '',1.000000000000000000, 0.000000000000000000, 0.000000000000000000 ) ;
#296 = CARTESIAN_POINT ( 'NONE',  ( 0.000000000000000000, 40.00000000000000000, -8.000000000000000000 ) ) ;
#297 = EDGE_LOOP ( 'NONE', ( #31, #9 ) ) ;
#298 = DIRECTION ( 'NONE',  ( -0.000000000000000000, -1.000000000000000000, -0.000000000000000000 ) ) ;
#299 = ORIENTED_EDGE ( 'NONE', *, *, #30, .F. ) ;
#300 = FILL_AREA_STYLE ('',( #170 ) ) ;
#301 = CLOSED_SHELL ( 'NONE', ( #5, #71, #107, #281, #314, #367 ) ) ;
#302 = STYLED_ITEM ( 'NONE', ( #118 ), #177 ) ;
#303 = ORIENTED_EDGE ( 'NONE', *, *, #165, .F. ) ;
#304 = FILL_AREA_STYLE_COLOUR ( '', #326 ) ;
#305 = AXIS2_PLACEMENT_3D ( 'NONE', #44, #335, #331 ) ;
#306 =( NAMED_UNIT ( * ) SI_UNIT ( $, .STERADIAN. ) SOLID_ANGLE_UNIT ( ) );
#307 = EDGE_CURVE ( 'NONE', #325, #182, #32, .T. ) ;
#308 = DIRECTION ( 'NONE',  ( -1.000000000000000000, 0.000000000000000000, 0.000000000000000000 ) ) ;
#309 = STYLED_ITEM ( 'NONE', ( #242 ), #5 ) ;
#310 = MECHANICAL_DESIGN_GEOMETRIC_PRESENTATION_REPRESENTATION (  '', ( #254 ), #163 ) ;
#311 = DIRECTION ( 'NONE',  ( -0.000000000000000000, -1.000000000000000000, -0.000000000000000000 ) ) ;
#312 = FACE_OUTER_BOUND ( 'NONE', #147, .T. ) ;
#313 = UNCERTAINTY_MEASURE_WITH_UNIT (LENGTH_MEASURE( 1.000000000000000082E-05 ), #218, 'distance_accuracy_value', 'NONE');
#314 = ADVANCED_FACE ( 'NONE', ( #69 ), #330, .T. ) ;
#315 = FILL_AREA_STYLE_COLOUR ( '', #83 ) ;
#316 = MECHANICAL_DESIGN_GEOMETRIC_PRESENTATION_REPRESENTATION (  '', ( #134 ), #259 ) ;
#317 = EDGE_CURVE ( 'NONE', #212, #322, #25, .T. ) ;
#318 = CIRCLE ( 'NONE', #24, 7.999999999999994671 ) ;
#319 = VECTOR ( 'NONE', #7, 1000.000000000000000 ) ;
#320 =( NAMED_UNIT ( * ) PLANE_ANGLE_UNIT ( ) SI_UNIT ( $, .RADIAN. ) );
#321 = EDGE_CURVE ( 'NONE', #344, #154, #159, .T. ) ;
#322 = VERTEX_POINT ( 'NONE', #357 ) ;
#323 = CARTESIAN_POINT ( 'NONE',  ( 9.797174393178825657E-16, 0.000000000000000000, 8.000000000000000000 ) ) ;
#324 =( LENGTH_UNIT ( ) NAMED_UNIT ( * ) SI_UNIT ( .MILLI., .METRE. ) );
#325 = VERTEX_POINT ( 'NONE', #196 ) ;
#326 = COLOUR_RGB ( '',1.000000000000000000, 0.000000000000000000, 0.000000000000000000 ) ;
#327 = FILL_AREA_STYLE ('',( #209 ) ) ;
#328 = DIRECTION ( 'NONE',  ( -1.279215233315390572E-16, 1.000000000000000000, -0.000000000000000000 ) ) ;
#329 = ORIENTED_EDGE ( 'NONE', *, *, #183, .F. ) ;
#330 = CYLINDRICAL_SURFACE ( 'NONE', #305, 8.000000000000000000 ) ;
#331 = DIRECTION ( 'NONE',  ( 0.000000000000000000, 0.000000000000000000, -1.000000000000000000 ) ) ;
#332 =( NAMED_UNIT ( * ) PLANE_ANGLE_UNIT ( ) SI_UNIT ( $, .RADIAN. ) );
#333 = VECTOR ( 'NONE', #81, 1000.000000000000000 ) ;
#334 = CARTESIAN_POINT ( 'NONE',  ( 0.000000000000000000, 0.000000000000000000, 0.000000000000000000 ) ) ;
#335 = DIRECTION ( 'NONE',  ( -0.000000000000000000, -1.000000000000000000, -0.000000000000000000 ) ) ;
#336 = ADVANCED_FACE ( 'NONE', ( #52 ), #77, .F. ) ;
#337 = CIRCLE ( 'NONE', #235, 8.000000000000001776 ) ;
#338 =( GEOMETRIC_REPRESENTATION_CONTEXT ( 3 ) GLOBAL_UNCERTAINTY_ASSIGNED_CONTEXT ( ( #339 ) ) GLOBAL_UNIT_ASSIGNED_CONTEXT ( ( #188, #13, #358 ) ) REPRESENTATION_CONTEXT ( 'NONE', 'WORKASPACE' ) );
#339 = UNCERTAINTY_MEASURE_WITH_UNIT (LENGTH_MEASURE( 1.000000000000000082E-05 ), #188, 'distance_accuracy_value', 'NONE');
#340 = COLOUR_RGB ( '',1.000000000000000000, 0.000000000000000000, 0.000000000000000000 ) ;
#341 = VECTOR ( 'NONE', #95, 1000.000000000000000 ) ;
#342 = PRESENTATION_LAYER_ASSIGNMENT (  '', '', ( #134 ) ) ;
#343 = FACE_OUTER_BOUND ( 'NONE', #173, .T. ) ;
#344 = VERTEX_POINT ( 'NONE', #85 ) ;
#345 = SURFACE_STYLE_USAGE ( .BOTH. , #349 ) ;
#346 = ORIENTED_EDGE ( 'NONE', *, *, #136, .T. ) ;
#347 = CARTESIAN_POINT ( 'NONE',  ( 0.000000000000000000, 40.00000000000000000, 0.000000000000000000 ) ) ;
#348 = AXIS2_PLACEMENT_3D ( 'NONE', #269, #151, #214 ) ;
#349 = SURFACE_SIDE_STYLE ('',( #149 ) ) ;
#350 = EDGE_LOOP ( 'NONE', ( #94, #178, #231, #204 ) ) ;
#351 = CARTESIAN_POINT ( 'NONE',  ( -1.714505518806293849E-15, 89.00000000000000000, 0.000000000000000000 ) ) ;
#352 = ORIENTED_EDGE ( 'NONE', *, *, #88, .T. ) ;
#353 = PRODUCT_RELATED_PRODUCT_CATEGORY ( 'part', '', ( #180 ) ) ;
#354 = PRESENTATION_STYLE_ASSIGNMENT (( #244 ) ) ;
#355 = MECHANICAL_DESIGN_GEOMETRIC_PRESENTATION_REPRESENTATION (  '', ( #166 ), #57 ) ;
#356 = DIRECTION ( 'NONE',  ( -0.000000000000000000, -1.000000000000000000, -0.000000000000000000 ) ) ;
#357 = CARTESIAN_POINT ( 'NONE',  ( -8.000000000000003553, 89.00000000000000000, 0.000000000000000000 ) ) ;
#358 =( NAMED_UNIT ( * ) SI_UNIT ( $, .STERADIAN. ) SOLID_ANGLE_UNIT ( ) );
#359 = FILL_AREA_STYLE_COLOUR ( '', #295 ) ;
#360 = FACE_OUTER_BOUND ( 'NONE', #297, .T. ) ;
#361 = CARTESIAN_POINT ( 'NONE',  ( 0.000000000000000000, 1.000000000000000000, 0.000000000000000000 ) ) ;
#362 = UNCERTAINTY_MEASURE_WITH_UNIT (LENGTH_MEASURE( 1.000000000000000082E-05 ), #324, 'distance_accuracy_value', 'NONE');
#363 = AXIS2_PLACEMENT_3D ( 'NONE', #285, #260, #59 ) ;
#364 = SURFACE_STYLE_FILL_AREA ( #253 ) ;
#365 = STYLED_ITEM ( 'NONE', ( #123 ), #281 ) ;
#366 = DIRECTION ( 'NONE',  ( 0.000000000000000000, -1.000000000000000000, -0.000000000000000000 ) ) ;
#367 = ADVANCED_FACE ( 'NONE', ( #360 ), #249, .T. ) ;
#368 = SURFACE_STYLE_FILL_AREA ( #67 ) ;
#369 = EDGE_LOOP ( 'NONE', ( #303, #97, #141, #213 ) ) ;
#370 = AXIS2_PLACEMENT_3D ( 'NONE', #65, #262, #308 ) ;
ENDSEC;
END-ISO-10303-21;
