ISO-10303-21;
HEADER;
FILE_DESCRIPTION (( 'STEP AP214' ),
    '1' );
FILE_NAME ('Micro_SEM-500-04.STEP',
    '2021-09-02T03:29:11',
    ( '' ),
    ( '' ),
    'SwSTEP 2.0',
    'SolidWorks 2020',
    '' );
FILE_SCHEMA (( 'AUTOMOTIVE_DESIGN' ));
ENDSEC;

DATA;
#1 = DIRECTION ( 'NONE',  ( -1.224646799147353207E-16, -0.0000000000000000000, -1.000000000000000000 ) ) ;
#2 = APPLICATION_CONTEXT ( 'automotive_design' ) ;
#3 = ADVANCED_FACE ( 'NONE', ( #251 ), #231, .F. ) ;
#4 = CIRCLE ( 'NONE', #281, 0.2497499999999999998 ) ;
#5 = DIRECTION ( 'NONE',  ( -1.224646799147353207E-16, -0.0000000000000000000, -1.000000000000000000 ) ) ;
#6 = STYLED_ITEM ( 'NONE', ( #225 ), #282 ) ;
#7 = LINE ( 'NONE', #143, #212 ) ;
#8 = CARTESIAN_POINT ( 'NONE',  ( 0.0000000000000000000, 0.0000000000000000000, 2.500000000000000000 ) ) ;
#9 = DIRECTION ( 'NONE',  ( 1.000000000000000000, 0.0000000000000000000, 0.0000000000000000000 ) ) ;
#10 = FACE_OUTER_BOUND ( 'NONE', #299, .T. ) ;
#11 = CARTESIAN_POINT ( 'NONE',  ( -0.2497499999999999998, 0.0000000000000000000, 3.058555380870514950E-17 ) ) ;
#12 = ORIENTED_EDGE ( 'NONE', *, *, #35, .F. ) ;
#13 = SURFACE_STYLE_USAGE ( .BOTH. , #146 ) ;
#14 = ORIENTED_EDGE ( 'NONE', *, *, #256, .F. ) ;
#15 = ADVANCED_FACE ( 'NONE', ( #209 ), #269, .T. ) ;
#16 = ORIENTED_EDGE ( 'NONE', *, *, #185, .F. ) ;
#17 = CARTESIAN_POINT ( 'NONE',  ( 0.0000000000000000000, 0.0000000000000000000, 2.500000000000000000 ) ) ;
#18 = DIRECTION ( 'NONE',  ( -1.000000000000000000, 0.0000000000000000000, 0.0000000000000000000 ) ) ;
#19 = VERTEX_POINT ( 'NONE', #66 ) ;
#20 = ORIENTED_EDGE ( 'NONE', *, *, #181, .F. ) ;
#21 = CARTESIAN_POINT ( 'NONE',  ( -0.2497499999999999443, 3.058555380870514950E-17, 0.6250000000000000000 ) ) ;
#22 = DIRECTION ( 'NONE',  ( 0.0000000000000000000, 0.0000000000000000000, 1.000000000000000000 ) ) ;
#23 = CIRCLE ( 'NONE', #70, 0.2350000000000003753 ) ;
#24 = CARTESIAN_POINT ( 'NONE',  ( 0.2497499999999999998, 3.058555380870514950E-17, 0.0000000000000000000 ) ) ;
#25 = VECTOR ( 'NONE', #199, 39.37007874015748143 ) ;
#26 = PRODUCT_DEFINITION_CONTEXT ( 'detailed design', #85, 'design' ) ;
#27 = DIRECTION ( 'NONE',  ( -0.1736481776669312194, 2.126576849575783625E-17, 0.9848077530122080203 ) ) ;
#28 = CIRCLE ( 'NONE', #81, 0.2500000000000000000 ) ;
#29 = PRESENTATION_LAYER_ASSIGNMENT (  '', '', ( #6 ) ) ;
#30 = CARTESIAN_POINT ( 'NONE',  ( 0.2497500000000000830, 0.0000000000000000000, 0.6250000000000000000 ) ) ;
#31 = EDGE_CURVE ( 'NONE', #111, #19, #28, .T. ) ;
#32 = LINE ( 'NONE', #285, #25 ) ;
#33 = AXIS2_PLACEMENT_3D ( 'NONE', #211, #5, #142 ) ;
#34 =( CONVERSION_BASED_UNIT ( 'INCH', #264 ) LENGTH_UNIT ( ) NAMED_UNIT ( #124 ) );
#35 = EDGE_CURVE ( 'NONE', #37, #222, #4, .T. ) ;
#36 = VERTEX_POINT ( 'NONE', #153 ) ;
#37 = VERTEX_POINT ( 'NONE', #204 ) ;
#38 = AXIS2_PLACEMENT_3D ( 'NONE', #17, #135, #18 ) ;
#39 = CONICAL_SURFACE ( 'NONE', #283, 0.2350000000000003753, 0.7853981633974278509 ) ;
#40 = EDGE_LOOP ( 'NONE', ( #158, #191, #265, #175 ) ) ;
#41 = ORIENTED_EDGE ( 'NONE', *, *, #161, .F. ) ;
#42 = FILL_AREA_STYLE_COLOUR ( '', #238 ) ;
#43 = FACE_OUTER_BOUND ( 'NONE', #40, .T. ) ;
#44 = AXIS2_PLACEMENT_3D ( 'NONE', #134, #179, #272 ) ;
#45 = EDGE_CURVE ( 'NONE', #53, #103, #167, .T. ) ;
#46 = CARTESIAN_POINT ( 'NONE',  ( 7.654042494670957853E-17, 0.0000000000000000000, 0.6250000000000000000 ) ) ;
#47 = FACE_OUTER_BOUND ( 'NONE', #261, .T. ) ;
#48 = CLOSED_SHELL ( 'NONE', ( #15, #118, #229, #51, #100, #240, #95, #290, #218, #3 ) ) ;
#49 = DIRECTION ( 'NONE',  ( -1.000000000000000000, 0.0000000000000000000, 0.0000000000000000000 ) ) ;
#50 = CARTESIAN_POINT ( 'NONE',  ( 7.654042494670957853E-17, 0.0000000000000000000, 0.6250000000000000000 ) ) ;
#51 = ADVANCED_FACE ( 'NONE', ( #43 ), #137, .T. ) ;
#52 = DIRECTION ( 'NONE',  ( -1.224646799147353207E-16, -0.0000000000000000000, -1.000000000000000000 ) ) ;
#53 = VERTEX_POINT ( 'NONE', #293 ) ;
#54 = DIRECTION ( 'NONE',  ( -1.224646799147353207E-16, -0.0000000000000000000, -1.000000000000000000 ) ) ;
#55 = AXIS2_PLACEMENT_3D ( 'NONE', #152, #207, #155 ) ;
#56 = FILL_AREA_STYLE_COLOUR ( '', #291 ) ;
#57 = ORIENTED_EDGE ( 'NONE', *, *, #31, .T. ) ;
#58 = DIRECTION ( 'NONE',  ( 0.0000000000000000000, 0.0000000000000000000, -1.000000000000000000 ) ) ;
#59 = CONICAL_SURFACE ( 'NONE', #254, 0.2497499999999999998, 0.1745329251994339192 ) ;
#60 = PRESENTATION_LAYER_ASSIGNMENT (  '', '', ( #217 ) ) ;
#61 = LINE ( 'NONE', #227, #120 ) ;
#62 = PRODUCT_DEFINITION ( 'UNKNOWN', '', #107, #26 ) ;
#63 =( NAMED_UNIT ( * ) PLANE_ANGLE_UNIT ( ) SI_UNIT ( $, .RADIAN. ) );
#64 = PRODUCT ( 'Micro_SEM-500-04', 'Micro_SEM-500-04', '', ( #205 ) ) ;
#65 = DIRECTION ( 'NONE',  ( 1.000000000000000000, 0.0000000000000000000, 0.0000000000000000000 ) ) ;
#66 = CARTESIAN_POINT ( 'NONE',  ( -0.2500000000000000000, 0.0000000000000000000, 2.484999999999999876 ) ) ;
#67 = AXIS2_PLACEMENT_3D ( 'NONE', #113, #1, #253 ) ;
#68 = DIRECTION ( 'NONE',  ( -1.000000000000000000, 0.0000000000000000000, 0.0000000000000000000 ) ) ;
#69 = LINE ( 'NONE', #21, #201 ) ;
#70 = AXIS2_PLACEMENT_3D ( 'NONE', #228, #298, #106 ) ;
#71 = DIRECTION ( 'NONE',  ( 0.0000000000000000000, 0.0000000000000000000, -1.000000000000000000 ) ) ;
#72 = DIMENSIONAL_EXPONENTS ( 1.000000000000000000, 0.0000000000000000000, 0.0000000000000000000, 0.0000000000000000000, 0.0000000000000000000, 0.0000000000000000000, 0.0000000000000000000 ) ;
#73 = LINE ( 'NONE', #11, #276 ) ;
#74 = AXIS2_PLACEMENT_3D ( 'NONE', #216, #93, #68 ) ;
#75 =( GEOMETRIC_REPRESENTATION_CONTEXT ( 3 ) GLOBAL_UNCERTAINTY_ASSIGNED_CONTEXT ( ( #147 ) ) GLOBAL_UNIT_ASSIGNED_CONTEXT ( ( #192, #219, #99 ) ) REPRESENTATION_CONTEXT ( 'NONE', 'WORKASPACE' ) );
#76 = ORIENTED_EDGE ( 'NONE', *, *, #78, .F. ) ;
#77 = EDGE_LOOP ( 'NONE', ( #41, #86, #173, #286 ) ) ;
#78 = EDGE_CURVE ( 'NONE', #268, #19, #61, .T. ) ;
#79 = ORIENTED_EDGE ( 'NONE', *, *, #185, .T. ) ;
#80 = PRESENTATION_STYLE_ASSIGNMENT (( #13 ) ) ;
#81 = AXIS2_PLACEMENT_3D ( 'NONE', #270, #58, #65 ) ;
#82 = EDGE_CURVE ( 'NONE', #268, #36, #23, .T. ) ;
#83 = VERTEX_POINT ( 'NONE', #267 ) ;
#84 = FACE_OUTER_BOUND ( 'NONE', #127, .T. ) ;
#85 = APPLICATION_CONTEXT ( 'automotive_design' ) ;
#86 = ORIENTED_EDGE ( 'NONE', *, *, #181, .T. ) ;
#87 = EDGE_CURVE ( 'NONE', #19, #111, #289, .T. ) ;
#88 = EDGE_LOOP ( 'NONE', ( #183, #280, #230, #76 ) ) ;
#89 = CARTESIAN_POINT ( 'NONE',  ( 0.2500000000000000555, 3.061616997868383634E-17, 0.6264178204549043505 ) ) ;
#90 = UNCERTAINTY_MEASURE_WITH_UNIT (LENGTH_MEASURE( 1.000000000000000082E-05 ), #150, 'distance_accuracy_value', 'NONE');
#91 = FACE_OUTER_BOUND ( 'NONE', #223, .T. ) ;
#92 = DIRECTION ( 'NONE',  ( -1.000000000000000000, 0.0000000000000000000, 0.0000000000000000000 ) ) ;
#93 = DIRECTION ( 'NONE',  ( -1.224646799147353207E-16, -0.0000000000000000000, -1.000000000000000000 ) ) ;
#94 = UNCERTAINTY_MEASURE_WITH_UNIT (LENGTH_MEASURE( 1.000000000000000082E-05 ), #34, 'distance_accuracy_value', 'NONE');
#95 = ADVANCED_FACE ( 'NONE', ( #84 ), #101, .T. ) ;
#96 = DIRECTION ( 'NONE',  ( 0.7071067811865330288, 8.659560562354755364E-17, -0.7071067811865618946 ) ) ;
#97 = LENGTH_MEASURE_WITH_UNIT ( LENGTH_MEASURE( 0.02539999999999999897 ), #198 );
#98 = ORIENTED_EDGE ( 'NONE', *, *, #161, .T. ) ;
#99 =( NAMED_UNIT ( * ) SI_UNIT ( $, .STERADIAN. ) SOLID_ANGLE_UNIT ( ) );
#100 = ADVANCED_FACE ( 'NONE', ( #47 ), #188, .T. ) ;
#101 = CONICAL_SURFACE ( 'NONE', #132, 0.2350000000000003753, 0.7853981633974278509 ) ;
#102 =( GEOMETRIC_REPRESENTATION_CONTEXT ( 3 ) GLOBAL_UNCERTAINTY_ASSIGNED_CONTEXT ( ( #94 ) ) GLOBAL_UNIT_ASSIGNED_CONTEXT ( ( #34, #121, #243 ) ) REPRESENTATION_CONTEXT ( 'NONE', 'WORKASPACE' ) );
#103 = VERTEX_POINT ( 'NONE', #89 ) ;
#104 = DIRECTION ( 'NONE',  ( -1.224646799147353207E-16, -0.0000000000000000000, -1.000000000000000000 ) ) ;
#105 = FILL_AREA_STYLE ('',( #56 ) ) ;
#106 = DIRECTION ( 'NONE',  ( 1.000000000000000000, 0.0000000000000000000, 0.0000000000000000000 ) ) ;
#107 = PRODUCT_DEFINITION_FORMATION_WITH_SPECIFIED_SOURCE ( 'ANY', '', #64, .NOT_KNOWN. ) ;
#108 = ORIENTED_EDGE ( 'NONE', *, *, #82, .T. ) ;
#109 = DIRECTION ( 'NONE',  ( 1.000000000000000000, 0.0000000000000000000, 0.0000000000000000000 ) ) ;
#110 = CARTESIAN_POINT ( 'NONE',  ( 0.0000000000000000000, 0.0000000000000000000, 2.484999999999999876 ) ) ;
#111 = VERTEX_POINT ( 'NONE', #162 ) ;
#112 = EDGE_LOOP ( 'NONE', ( #79, #200 ) ) ;
#113 = CARTESIAN_POINT ( 'NONE',  ( 3.745650057197989622E-33, 0.0000000000000000000, 3.058555380870514950E-17 ) ) ;
#114 = DIRECTION ( 'NONE',  ( 1.000000000000000000, 0.0000000000000000000, 0.0000000000000000000 ) ) ;
#115 = AXIS2_PLACEMENT_3D ( 'NONE', #145, #241, #148 ) ;
#116 = FACE_OUTER_BOUND ( 'NONE', #88, .T. ) ;
#117 = CARTESIAN_POINT ( 'NONE',  ( 0.0000000000000000000, 0.0000000000000000000, 2.500000000000000000 ) ) ;
#118 = ADVANCED_FACE ( 'NONE', ( #189 ), #59, .T. ) ;
#119 = CIRCLE ( 'NONE', #74, 0.2497499999999999998 ) ;
#120 = VECTOR ( 'NONE', #246, 39.37007874015748854 ) ;
#121 =( NAMED_UNIT ( * ) PLANE_ANGLE_UNIT ( ) SI_UNIT ( $, .RADIAN. ) );
#122 = VECTOR ( 'NONE', #104, 39.37007874015748143 ) ;
#123 = DIRECTION ( 'NONE',  ( 0.1736481776669314137, 0.0000000000000000000, 0.9848077530122077983 ) ) ;
#124 = DIMENSIONAL_EXPONENTS ( 1.000000000000000000, 0.0000000000000000000, 0.0000000000000000000, 0.0000000000000000000, 0.0000000000000000000, 0.0000000000000000000, 0.0000000000000000000 ) ;
#125 = DIRECTION ( 'NONE',  ( 1.000000000000000000, 0.0000000000000000000, 0.0000000000000000000 ) ) ;
#126 = VECTOR ( 'NONE', #96, 39.37007874015748854 ) ;
#127 = EDGE_LOOP ( 'NONE', ( #245, #172, #244, #284 ) ) ;
#128 = ORIENTED_EDGE ( 'NONE', *, *, #129, .T. ) ;
#129 = EDGE_CURVE ( 'NONE', #19, #53, #7, .T. ) ;
#130 = SURFACE_STYLE_USAGE ( .BOTH. , #151 ) ;
#131 = DIRECTION ( 'NONE',  ( -1.000000000000000000, 0.0000000000000000000, 0.0000000000000000000 ) ) ;
#132 = AXIS2_PLACEMENT_3D ( 'NONE', #117, #71, #49 ) ;
#133 = AXIS2_PLACEMENT_3D ( 'NONE', #50, #257, #125 ) ;
#134 = CARTESIAN_POINT ( 'NONE',  ( 0.0000000000000000000, 0.0000000000000000000, 0.0000000000000000000 ) ) ;
#135 = DIRECTION ( 'NONE',  ( -0.0000000000000000000, -0.0000000000000000000, -1.000000000000000000 ) ) ;
#136 = DIRECTION ( 'NONE',  ( -1.224646799147353207E-16, -0.0000000000000000000, -1.000000000000000000 ) ) ;
#137 = CYLINDRICAL_SURFACE ( 'NONE', #38, 0.2500000000000000000 ) ;
#138 = DIRECTION ( 'NONE',  ( -0.0000000000000000000, -0.0000000000000000000, -1.000000000000000000 ) ) ;
#139 = PRODUCT_RELATED_PRODUCT_CATEGORY ( 'part', '', ( #64 ) ) ;
#140 = CIRCLE ( 'NONE', #180, 0.2350000000000003753 ) ;
#141 = VECTOR ( 'NONE', #123, 39.37007874015748143 ) ;
#142 = DIRECTION ( 'NONE',  ( 1.000000000000000000, 0.0000000000000000000, 0.0000000000000000000 ) ) ;
#143 = CARTESIAN_POINT ( 'NONE',  ( -0.2500000000000000000, 0.0000000000000000000, 2.500000000000000000 ) ) ;
#144 = CARTESIAN_POINT ( 'NONE',  ( -0.2350000000000003753, 0.0000000000000000000, 2.500000000000000000 ) ) ;
#145 = CARTESIAN_POINT ( 'NONE',  ( 0.0000000000000000000, 0.0000000000000000000, 2.500000000000000000 ) ) ;
#146 = SURFACE_SIDE_STYLE ('',( #259 ) ) ;
#147 = UNCERTAINTY_MEASURE_WITH_UNIT (LENGTH_MEASURE( 1.000000000000000082E-05 ), #192, 'distance_accuracy_value', 'NONE');
#148 = DIRECTION ( 'NONE',  ( 1.000000000000000000, 0.0000000000000000000, -0.0000000000000000000 ) ) ;
#149 = FILL_AREA_STYLE ('',( #42 ) ) ;
#150 =( CONVERSION_BASED_UNIT ( 'INCH', #274 ) LENGTH_UNIT ( ) NAMED_UNIT ( #279 ) );
#151 = SURFACE_SIDE_STYLE ('',( #271 ) ) ;
#152 = CARTESIAN_POINT ( 'NONE',  ( 0.0000000000000000000, 0.0000000000000000000, 0.0000000000000000000 ) ) ;
#153 = CARTESIAN_POINT ( 'NONE',  ( 0.2350000000000003753, 2.969768487932332963E-17, 2.500000000000000000 ) ) ;
#154 = DIRECTION ( 'NONE',  ( 0.0000000000000000000, 0.0000000000000000000, 1.000000000000000000 ) ) ;
#155 = DIRECTION ( 'NONE',  ( -1.000000000000000000, 0.0000000000000000000, 1.224646799147353454E-16 ) ) ;
#156 = CARTESIAN_POINT ( 'NONE',  ( 0.0000000000000000000, 0.0000000000000000000, 0.0000000000000000000 ) ) ;
#157 = CARTESIAN_POINT ( 'NONE',  ( 7.671405787489599085E-17, 0.0000000000000000000, 0.6264178204549043505 ) ) ;
#158 = ORIENTED_EDGE ( 'NONE', *, *, #87, .T. ) ;
#159 = AXIS2_PLACEMENT_3D ( 'NONE', #110, #206, #296 ) ;
#160 = MECHANICAL_DESIGN_GEOMETRIC_PRESENTATION_REPRESENTATION (  '', ( #6 ), #202 ) ;
#161 = EDGE_CURVE ( 'NONE', #222, #37, #119, .T. ) ;
#162 = CARTESIAN_POINT ( 'NONE',  ( 0.2500000000000000000, 3.061616997868383018E-17, 2.484999999999999876 ) ) ;
#163 = CIRCLE ( 'NONE', #33, 0.2500000000000000000 ) ;
#164 = CARTESIAN_POINT ( 'NONE',  ( -0.2497499999999999443, 3.060086189369449292E-17, 0.6250000000000000000 ) ) ;
#165 = DIRECTION ( 'NONE',  ( 1.224646799147353207E-16, 0.0000000000000000000, 1.000000000000000000 ) ) ;
#166 = FACE_OUTER_BOUND ( 'NONE', #170, .T. ) ;
#167 = CIRCLE ( 'NONE', #234, 0.2500000000000000000 ) ;
#168 = AXIS2_PLACEMENT_3D ( 'NONE', #156, #154, #109 ) ;
#169 = LINE ( 'NONE', #190, #126 ) ;
#170 = EDGE_LOOP ( 'NONE', ( #108, #203 ) ) ;
#171 = CARTESIAN_POINT ( 'NONE',  ( 0.2497499999999999998, 3.058555380870514950E-17, -3.058555380870514950E-17 ) ) ;
#172 = ORIENTED_EDGE ( 'NONE', *, *, #82, .F. ) ;
#173 = ORIENTED_EDGE ( 'NONE', *, *, #45, .T. ) ;
#174 = LINE ( 'NONE', #171, #122 ) ;
#175 = ORIENTED_EDGE ( 'NONE', *, *, #129, .F. ) ;
#176 =( LENGTH_UNIT ( ) NAMED_UNIT ( * ) SI_UNIT ( $, .METRE. ) );
#177 = ORIENTED_EDGE ( 'NONE', *, *, #260, .F. ) ;
#178 =( NAMED_UNIT ( * ) SI_UNIT ( $, .STERADIAN. ) SOLID_ANGLE_UNIT ( ) );
#179 = DIRECTION ( 'NONE',  ( 0.0000000000000000000, 0.0000000000000000000, 1.000000000000000000 ) ) ;
#180 = AXIS2_PLACEMENT_3D ( 'NONE', #186, #22, #114 ) ;
#181 = EDGE_CURVE ( 'NONE', #222, #53, #69, .T. ) ;
#182 = APPLICATION_PROTOCOL_DEFINITION ( 'draft international standard', 'automotive_design', 1998, #2 ) ;
#183 = ORIENTED_EDGE ( 'NONE', *, *, #210, .F. ) ;
#184 = VERTEX_POINT ( 'NONE', #24 ) ;
#185 = EDGE_CURVE ( 'NONE', #83, #184, #297, .T. ) ;
#186 = CARTESIAN_POINT ( 'NONE',  ( 0.0000000000000000000, 0.0000000000000000000, 2.500000000000000000 ) ) ;
#187 = CYLINDRICAL_SURFACE ( 'NONE', #208, 0.2497499999999999998 ) ;
#188 = CYLINDRICAL_SURFACE ( 'NONE', #194, 0.2500000000000000000 ) ;
#189 = FACE_OUTER_BOUND ( 'NONE', #77, .T. ) ;
#190 = CARTESIAN_POINT ( 'NONE',  ( 0.2350000000000003753, 2.877919977996284141E-17, 2.500000000000000000 ) ) ;
#191 = ORIENTED_EDGE ( 'NONE', *, *, #266, .T. ) ;
#192 =( CONVERSION_BASED_UNIT ( 'INCH', #97 ) LENGTH_UNIT ( ) NAMED_UNIT ( #72 ) );
#193 = ORIENTED_EDGE ( 'NONE', *, *, #266, .F. ) ;
#194 = AXIS2_PLACEMENT_3D ( 'NONE', #8, #232, #278 ) ;
#195 = AXIS2_PLACEMENT_3D ( 'NONE', #255, #54, #221 ) ;
#196 = LINE ( 'NONE', #30, #141 ) ;
#197 = EDGE_LOOP ( 'NONE', ( #98, #239, #16, #177 ) ) ;
#198 =( LENGTH_UNIT ( ) NAMED_UNIT ( * ) SI_UNIT ( $, .METRE. ) );
#199 = DIRECTION ( 'NONE',  ( -0.0000000000000000000, -0.0000000000000000000, -1.000000000000000000 ) ) ;
#200 = ORIENTED_EDGE ( 'NONE', *, *, #236, .T. ) ;
#201 = VECTOR ( 'NONE', #27, 39.37007874015747433 ) ;
#202 =( GEOMETRIC_REPRESENTATION_CONTEXT ( 3 ) GLOBAL_UNCERTAINTY_ASSIGNED_CONTEXT ( ( #90 ) ) GLOBAL_UNIT_ASSIGNED_CONTEXT ( ( #150, #63, #178 ) ) REPRESENTATION_CONTEXT ( 'NONE', 'WORKASPACE' ) );
#203 = ORIENTED_EDGE ( 'NONE', *, *, #210, .T. ) ;
#204 = CARTESIAN_POINT ( 'NONE',  ( 0.2497500000000000830, 0.0000000000000000000, 0.6250000000000000000 ) ) ;
#205 = PRODUCT_CONTEXT ( 'NONE', #2, 'mechanical' ) ;
#206 = DIRECTION ( 'NONE',  ( 0.0000000000000000000, 0.0000000000000000000, -1.000000000000000000 ) ) ;
#207 = DIRECTION ( 'NONE',  ( -1.224646799147353207E-16, -0.0000000000000000000, -1.000000000000000000 ) ) ;
#208 = AXIS2_PLACEMENT_3D ( 'NONE', #273, #252, #233 ) ;
#209 = FACE_OUTER_BOUND ( 'NONE', #197, .T. ) ;
#210 = EDGE_CURVE ( 'NONE', #36, #268, #140, .T. ) ;
#211 = CARTESIAN_POINT ( 'NONE',  ( 7.671405787489599085E-17, 0.0000000000000000000, 0.6264178204549043505 ) ) ;
#212 = VECTOR ( 'NONE', #138, 39.37007874015748143 ) ;
#213 = EDGE_CURVE ( 'NONE', #103, #53, #163, .T. ) ;
#214 = CARTESIAN_POINT ( 'NONE',  ( 0.0000000000000000000, 0.0000000000000000000, 2.500000000000000000 ) ) ;
#215 = DIRECTION ( 'NONE',  ( 0.0000000000000000000, 0.0000000000000000000, -1.000000000000000000 ) ) ;
#216 = CARTESIAN_POINT ( 'NONE',  ( 7.654042494670957853E-17, 0.0000000000000000000, 0.6250000000000000000 ) ) ;
#217 = STYLED_ITEM ( 'NONE', ( #80 ), #247 ) ;
#218 = ADVANCED_FACE ( 'NONE', ( #91 ), #187, .T. ) ;
#219 =( NAMED_UNIT ( * ) PLANE_ANGLE_UNIT ( ) SI_UNIT ( $, .RADIAN. ) );
#220 = ORIENTED_EDGE ( 'NONE', *, *, #35, .T. ) ;
#221 = DIRECTION ( 'NONE',  ( -1.000000000000000000, 0.0000000000000000000, 1.224646799147353454E-16 ) ) ;
#222 = VERTEX_POINT ( 'NONE', #164 ) ;
#223 = EDGE_LOOP ( 'NONE', ( #14, #220, #248, #288 ) ) ;
#224 = ORIENTED_EDGE ( 'NONE', *, *, #213, .T. ) ;
#225 = PRESENTATION_STYLE_ASSIGNMENT (( #130 ) ) ;
#226 = DIRECTION ( 'NONE',  ( -1.224646799147353207E-16, -0.0000000000000000000, -1.000000000000000000 ) ) ;
#227 = CARTESIAN_POINT ( 'NONE',  ( -0.2350000000000003753, 0.0000000000000000000, 2.500000000000000000 ) ) ;
#228 = CARTESIAN_POINT ( 'NONE',  ( 0.0000000000000000000, 0.0000000000000000000, 2.500000000000000000 ) ) ;
#229 = ADVANCED_FACE ( 'NONE', ( #116 ), #39, .T. ) ;
#230 = ORIENTED_EDGE ( 'NONE', *, *, #87, .F. ) ;
#231 = PLANE ( 'NONE',  #44 ) ;
#232 = DIRECTION ( 'NONE',  ( -0.0000000000000000000, -0.0000000000000000000, -1.000000000000000000 ) ) ;
#233 = DIRECTION ( 'NONE',  ( -1.000000000000000000, 0.0000000000000000000, 1.224646799147353454E-16 ) ) ;
#234 = AXIS2_PLACEMENT_3D ( 'NONE', #157, #226, #250 ) ;
#235 = MECHANICAL_DESIGN_GEOMETRIC_PRESENTATION_REPRESENTATION (  '', ( #217 ), #102 ) ;
#236 = EDGE_CURVE ( 'NONE', #184, #83, #263, .T. ) ;
#237 =( LENGTH_UNIT ( ) NAMED_UNIT ( * ) SI_UNIT ( $, .METRE. ) );
#238 = COLOUR_RGB ( '',0.7921568627450980005, 0.8196078431372548767, 0.9333333333333333481 ) ;
#239 = ORIENTED_EDGE ( 'NONE', *, *, #256, .T. ) ;
#240 = ADVANCED_FACE ( 'NONE', ( #166 ), #287, .T. ) ;
#241 = DIRECTION ( 'NONE',  ( 0.0000000000000000000, 0.0000000000000000000, 1.000000000000000000 ) ) ;
#242 = ORIENTED_EDGE ( 'NONE', *, *, #295, .T. ) ;
#243 =( NAMED_UNIT ( * ) SI_UNIT ( $, .STERADIAN. ) SOLID_ANGLE_UNIT ( ) );
#244 = ORIENTED_EDGE ( 'NONE', *, *, #78, .T. ) ;
#245 = ORIENTED_EDGE ( 'NONE', *, *, #277, .F. ) ;
#246 = DIRECTION ( 'NONE',  ( -0.7071067811865330288, 0.0000000000000000000, -0.7071067811865618946 ) ) ;
#247 = MANIFOLD_SOLID_BREP ( 'Cut-Revolve1', #48 ) ;
#248 = ORIENTED_EDGE ( 'NONE', *, *, #260, .T. ) ;
#249 = SHAPE_DEFINITION_REPRESENTATION ( #262, #282 ) ;
#250 = DIRECTION ( 'NONE',  ( 1.000000000000000000, 0.0000000000000000000, 0.0000000000000000000 ) ) ;
#251 = FACE_OUTER_BOUND ( 'NONE', #112, .T. ) ;
#252 = DIRECTION ( 'NONE',  ( -1.224646799147353207E-16, -0.0000000000000000000, -1.000000000000000000 ) ) ;
#253 = DIRECTION ( 'NONE',  ( -1.000000000000000000, 0.0000000000000000000, 1.224646799147353454E-16 ) ) ;
#254 = AXIS2_PLACEMENT_3D ( 'NONE', #275, #165, #9 ) ;
#255 = CARTESIAN_POINT ( 'NONE',  ( 3.745650057197989622E-33, 0.0000000000000000000, 3.058555380870514950E-17 ) ) ;
#256 = EDGE_CURVE ( 'NONE', #37, #184, #174, .T. ) ;
#257 = DIRECTION ( 'NONE',  ( 1.224646799147353207E-16, 0.0000000000000000000, 1.000000000000000000 ) ) ;
#258 = CONICAL_SURFACE ( 'NONE', #133, 0.2497499999999999998, 0.1745329251994339192 ) ;
#259 = SURFACE_STYLE_FILL_AREA ( #105 ) ;
#260 = EDGE_CURVE ( 'NONE', #222, #83, #73, .T. ) ;
#261 = EDGE_LOOP ( 'NONE', ( #193, #57, #128, #292 ) ) ;
#262 = PRODUCT_DEFINITION_SHAPE ( 'NONE', 'NONE',  #62 ) ;
#263 = CIRCLE ( 'NONE', #195, 0.2497499999999999998 ) ;
#264 = LENGTH_MEASURE_WITH_UNIT ( LENGTH_MEASURE( 0.02539999999999999897 ), #237 );
#265 = ORIENTED_EDGE ( 'NONE', *, *, #45, .F. ) ;
#266 = EDGE_CURVE ( 'NONE', #111, #103, #32, .T. ) ;
#267 = CARTESIAN_POINT ( 'NONE',  ( -0.2497499999999999998, 0.0000000000000000000, 6.117110761741029900E-17 ) ) ;
#268 = VERTEX_POINT ( 'NONE', #144 ) ;
#269 = CYLINDRICAL_SURFACE ( 'NONE', #55, 0.2497499999999999998 ) ;
#270 = CARTESIAN_POINT ( 'NONE',  ( 0.0000000000000000000, 0.0000000000000000000, 2.484999999999999876 ) ) ;
#271 = SURFACE_STYLE_FILL_AREA ( #149 ) ;
#272 = DIRECTION ( 'NONE',  ( 1.000000000000000000, 0.0000000000000000000, -0.0000000000000000000 ) ) ;
#273 = CARTESIAN_POINT ( 'NONE',  ( 0.0000000000000000000, 0.0000000000000000000, 0.0000000000000000000 ) ) ;
#274 = LENGTH_MEASURE_WITH_UNIT ( LENGTH_MEASURE( 0.02539999999999999897 ), #176 );
#275 = CARTESIAN_POINT ( 'NONE',  ( 7.654042494670957853E-17, 0.0000000000000000000, 0.6250000000000000000 ) ) ;
#276 = VECTOR ( 'NONE', #52, 39.37007874015748143 ) ;
#277 = EDGE_CURVE ( 'NONE', #36, #111, #169, .T. ) ;
#278 = DIRECTION ( 'NONE',  ( -1.000000000000000000, 0.0000000000000000000, 0.0000000000000000000 ) ) ;
#279 = DIMENSIONAL_EXPONENTS ( 1.000000000000000000, 0.0000000000000000000, 0.0000000000000000000, 0.0000000000000000000, 0.0000000000000000000, 0.0000000000000000000, 0.0000000000000000000 ) ;
#280 = ORIENTED_EDGE ( 'NONE', *, *, #277, .T. ) ;
#281 = AXIS2_PLACEMENT_3D ( 'NONE', #46, #136, #131 ) ;
#282 = ADVANCED_BREP_SHAPE_REPRESENTATION ( 'Micro_SEM-500-04', ( #247, #168 ), #75 ) ;
#283 = AXIS2_PLACEMENT_3D ( 'NONE', #214, #215, #92 ) ;
#284 = ORIENTED_EDGE ( 'NONE', *, *, #31, .F. ) ;
#285 = CARTESIAN_POINT ( 'NONE',  ( 0.2500000000000000000, 3.061616997868383018E-17, 2.500000000000000000 ) ) ;
#286 = ORIENTED_EDGE ( 'NONE', *, *, #295, .F. ) ;
#287 = PLANE ( 'NONE',  #115 ) ;
#288 = ORIENTED_EDGE ( 'NONE', *, *, #236, .F. ) ;
#289 = CIRCLE ( 'NONE', #159, 0.2500000000000000000 ) ;
#290 = ADVANCED_FACE ( 'NONE', ( #10 ), #258, .T. ) ;
#291 = COLOUR_RGB ( '',0.7921568627450980005, 0.8196078431372548767, 0.9333333333333333481 ) ;
#292 = ORIENTED_EDGE ( 'NONE', *, *, #213, .F. ) ;
#293 = CARTESIAN_POINT ( 'NONE',  ( -0.2499999999999999167, 0.0000000000000000000, 0.6264178204549043505 ) ) ;
#294 = APPLICATION_PROTOCOL_DEFINITION ( 'draft international standard', 'automotive_design', 1998, #85 ) ;
#295 = EDGE_CURVE ( 'NONE', #37, #103, #196, .T. ) ;
#296 = DIRECTION ( 'NONE',  ( 1.000000000000000000, 0.0000000000000000000, 0.0000000000000000000 ) ) ;
#297 = CIRCLE ( 'NONE', #67, 0.2497499999999999998 ) ;
#298 = DIRECTION ( 'NONE',  ( 0.0000000000000000000, 0.0000000000000000000, 1.000000000000000000 ) ) ;
#299 = EDGE_LOOP ( 'NONE', ( #20, #12, #242, #224 ) ) ;
ENDSEC;
END-ISO-10303-21;
