ISO-10303-21;
HEADER;
FILE_DESCRIPTION (( 'STEP AP214' ),
    '1' );
FILE_NAME ('84309.STEP',
    '2023-06-23T12:19:19',
    ( '' ),
    ( '' ),
    'SwSTEP 2.0',
    'SolidWorks 2023',
    '' );
FILE_SCHEMA (( 'AUTOMOTIVE_DESIGN' ));
ENDSEC;

DATA;
#1 = DIRECTION ( 'NONE',  ( -6.123233995736769734E-17, 1.000000000000000000, -0.000000000000000000 ) ) ;
#2 = LENGTH_MEASURE_WITH_UNIT ( LENGTH_MEASURE( 0.02539999999999999897 ), #36 );
#3 = APPLICATION_CONTEXT ( 'automotive_design' ) ;
#4 = ORIENTED_EDGE ( 'NONE', *, *, #126, .T. ) ;
#5 =( NAMED_UNIT ( * ) PLANE_ANGLE_UNIT ( ) SI_UNIT ( $, .RADIAN. ) );
#6 = AXIS2_PLACEMENT_3D ( 'NONE', #21, #294, #72 ) ;
#7 = VERTEX_POINT ( 'NONE', #41 ) ;
#8 =( CONVERSION_BASED_UNIT ( 'INCH', #196 ) LENGTH_UNIT ( ) NAMED_UNIT ( #184 ) );
#9 = EDGE_LOOP ( 'NONE', ( #101, #150, #301, #253 ) ) ;
#10 = MANIFOLD_SOLID_BREP ( 'Revolve - Cutting Edge', #165 ) ;
#11 = ORIENTED_EDGE ( 'NONE', *, *, #14, .T. ) ;
#12 = MANIFOLD_SOLID_BREP ( 'Revolve - Tool Body (Straight Shanked)', #17 ) ;
#13 = CARTESIAN_POINT ( 'NONE',  ( 0.000000000000000000, 1.000000000000000000, 0.000000000000000000 ) ) ;
#14 = EDGE_CURVE ( 'NONE', #298, #43, #24, .T. ) ;
#15 = LENGTH_MEASURE_WITH_UNIT ( LENGTH_MEASURE( 0.02539999999999999897 ), #65 );
#16 = CARTESIAN_POINT ( 'NONE',  ( 0.2500000000000000000, 3.000000000000000444, 0.000000000000000000 ) ) ;
#17 = CLOSED_SHELL ( 'NONE', ( #236, #243, #44, #162 ) ) ;
#18 = SURFACE_STYLE_USAGE ( .BOTH. , #219 ) ;
#19 = EDGE_CURVE ( 'NONE', #100, #128, #118, .T. ) ;
#20 = PRESENTATION_STYLE_ASSIGNMENT (( #183 ) ) ;
#21 = CARTESIAN_POINT ( 'NONE',  ( -1.224646799147353700E-16, 3.000000000000000444, 0.000000000000000000 ) ) ;
#22 = UNCERTAINTY_MEASURE_WITH_UNIT (LENGTH_MEASURE( 1.000000000000000082E-05 ), #8, 'distance_accuracy_value', 'NONE');
#23 =( NAMED_UNIT ( * ) PLANE_ANGLE_UNIT ( ) SI_UNIT ( $, .RADIAN. ) );
#24 = CIRCLE ( 'NONE', #193, 0.2500000000000000000 ) ;
#25 =( LENGTH_UNIT ( ) NAMED_UNIT ( * ) SI_UNIT ( $, .METRE. ) );
#26 = COLOUR_RGB ( '',0.7921568627450980005, 0.8196078431372548767, 0.9333333333333333481 ) ;
#27 = AXIS2_PLACEMENT_3D ( 'NONE', #97, #58, #141 ) ;
#28 = CARTESIAN_POINT ( 'NONE',  ( 0.000000000000000000, 0.000000000000000000, 0.000000000000000000 ) ) ;
#29 = DIRECTION ( 'NONE',  ( -1.000000000000000000, 0.000000000000000000, 0.000000000000000000 ) ) ;
#30 = DIRECTION ( 'NONE',  ( 1.000000000000000000, 0.000000000000000000, 0.000000000000000000 ) ) ;
#31 = PLANE ( 'NONE',  #142 ) ;
#32 = CIRCLE ( 'NONE', #27, 0.2500000000000000000 ) ;
#33 = EDGE_CURVE ( 'NONE', #148, #82, #140, .T. ) ;
#34 = UNCERTAINTY_MEASURE_WITH_UNIT (LENGTH_MEASURE( 1.000000000000000082E-05 ), #70, 'distance_accuracy_value', 'NONE');
#35 = SURFACE_SIDE_STYLE ('',( #174 ) ) ;
#36 =( LENGTH_UNIT ( ) NAMED_UNIT ( * ) SI_UNIT ( $, .METRE. ) );
#37 = EDGE_LOOP ( 'NONE', ( #200, #190 ) ) ;
#38 = EDGE_CURVE ( 'NONE', #128, #82, #98, .T. ) ;
#39 = AXIS2_PLACEMENT_3D ( 'NONE', #185, #163, #114 ) ;
#40 = ORIENTED_EDGE ( 'NONE', *, *, #258, .F. ) ;
#41 = CARTESIAN_POINT ( 'NONE',  ( 0.000000000000000000, 1.000000000000000000, -0.2500000000000000000 ) ) ;
#42 = FACE_OUTER_BOUND ( 'NONE', #303, .T. ) ;
#43 = VERTEX_POINT ( 'NONE', #164 ) ;
#44 = ADVANCED_FACE ( 'NONE', ( #268 ), #53, .T. ) ;
#45 = COLOUR_RGB ( '',0.7921568627450980005, 0.8196078431372548767, 0.9333333333333333481 ) ;
#46 = CARTESIAN_POINT ( 'NONE',  ( 0.2500000000000000555, 3.000000000000000444, 3.061616997868384251E-17 ) ) ;
#47 = FILL_AREA_STYLE_COLOUR ( '', #265 ) ;
#48 = PRESENTATION_STYLE_ASSIGNMENT (( #179 ) ) ;
#49 = DIRECTION ( 'NONE',  ( 1.000000000000000000, 6.123233995736769734E-17, 0.000000000000000000 ) ) ;
#50 = AXIS2_PLACEMENT_3D ( 'NONE', #16, #111, #49 ) ;
#51 = DIRECTION ( 'NONE',  ( -0.000000000000000000, -1.000000000000000000, -0.000000000000000000 ) ) ;
#52 = LENGTH_MEASURE_WITH_UNIT ( LENGTH_MEASURE( 0.02539999999999999897 ), #208 );
#53 = CYLINDRICAL_SURFACE ( 'NONE', #205, 0.2500000000000000555 ) ;
#54 = SURFACE_STYLE_FILL_AREA ( #291 ) ;
#55 = MECHANICAL_DESIGN_GEOMETRIC_PRESENTATION_REPRESENTATION (  '', ( #247 ), #300 ) ;
#56 = LENGTH_MEASURE_WITH_UNIT ( LENGTH_MEASURE( 0.02539999999999999897 ), #25 );
#57 = PRODUCT_RELATED_PRODUCT_CATEGORY ( 'part', '', ( #160 ) ) ;
#58 = DIRECTION ( 'NONE',  ( -6.123233995736769734E-17, 1.000000000000000000, -0.000000000000000000 ) ) ;
#59 = PRESENTATION_LAYER_ASSIGNMENT (  '', '', ( #264 ) ) ;
#60 =( CONVERSION_BASED_UNIT ( 'INCH', #149 ) LENGTH_UNIT ( ) NAMED_UNIT ( #112 ) );
#61 =( LENGTH_UNIT ( ) NAMED_UNIT ( * ) SI_UNIT ( $, .METRE. ) );
#62 =( NAMED_UNIT ( * ) PLANE_ANGLE_UNIT ( ) SI_UNIT ( $, .RADIAN. ) );
#63 = PRESENTATION_LAYER_ASSIGNMENT (  '', '', ( #130 ) ) ;
#64 = EDGE_LOOP ( 'NONE', ( #286, #99, #249, #228 ) ) ;
#65 =( LENGTH_UNIT ( ) NAMED_UNIT ( * ) SI_UNIT ( $, .METRE. ) );
#66 = VECTOR ( 'NONE', #237, 39.37007874015748143 ) ;
#67 = DIRECTION ( 'NONE',  ( 0.000000000000000000, 0.000000000000000000, -1.000000000000000000 ) ) ;
#68 =( NAMED_UNIT ( * ) SI_UNIT ( $, .STERADIAN. ) SOLID_ANGLE_UNIT ( ) );
#69 = FILL_AREA_STYLE_COLOUR ( '', #91 ) ;
#70 =( CONVERSION_BASED_UNIT ( 'INCH', #15 ) LENGTH_UNIT ( ) NAMED_UNIT ( #267 ) );
#71 = APPLICATION_PROTOCOL_DEFINITION ( 'draft international standard', 'automotive_design', 1998, #3 ) ;
#72 = DIRECTION ( 'NONE',  ( -1.000000000000000000, 0.000000000000000000, 0.000000000000000000 ) ) ;
#73 = PRODUCT_CONTEXT ( 'NONE', #125, 'mechanical' ) ;
#74 = DIRECTION ( 'NONE',  ( 0.000000000000000000, 0.000000000000000000, -1.000000000000000000 ) ) ;
#75 = PRESENTATION_LAYER_ASSIGNMENT (  '', '', ( #307 ) ) ;
#76 =( GEOMETRIC_REPRESENTATION_CONTEXT ( 3 ) GLOBAL_UNCERTAINTY_ASSIGNED_CONTEXT ( ( #22 ) ) GLOBAL_UNIT_ASSIGNED_CONTEXT ( ( #8, #246, #122 ) ) REPRESENTATION_CONTEXT ( 'NONE', 'WORKASPACE' ) );
#77 = CARTESIAN_POINT ( 'NONE',  ( 4.686749320818311011E-34, 1.000000000000000000, 0.000000000000000000 ) ) ;
#78 = FACE_OUTER_BOUND ( 'NONE', #64, .T. ) ;
#79 = VERTEX_POINT ( 'NONE', #81 ) ;
#80 = CARTESIAN_POINT ( 'NONE',  ( 3.032960542342103792E-32, 1.000000000000000000, 0.000000000000000000 ) ) ;
#81 = CARTESIAN_POINT ( 'NONE',  ( 3.061616997868383018E-17, 1.000000000000000000, 0.2500000000000000000 ) ) ;
#82 = VERTEX_POINT ( 'NONE', #127 ) ;
#83 = UNCERTAINTY_MEASURE_WITH_UNIT (LENGTH_MEASURE( 1.000000000000000082E-05 ), #290, 'distance_accuracy_value', 'NONE');
#84 = ORIENTED_EDGE ( 'NONE', *, *, #292, .T. ) ;
#85 = AXIS2_PLACEMENT_3D ( 'NONE', #115, #241, #74 ) ;
#86 = FILL_AREA_STYLE_COLOUR ( '', #26 ) ;
#87 = DIRECTION ( 'NONE',  ( -0.000000000000000000, -1.000000000000000000, -0.000000000000000000 ) ) ;
#88 = AXIS2_PLACEMENT_3D ( 'NONE', #197, #224, #278 ) ;
#89 = MECHANICAL_DESIGN_GEOMETRIC_PRESENTATION_REPRESENTATION (  '', ( #130 ), #239 ) ;
#90 = PLANE ( 'NONE',  #85 ) ;
#91 = COLOUR_RGB ( '',1.000000000000000000, 0.000000000000000000, 0.000000000000000000 ) ;
#92 = EDGE_CURVE ( 'NONE', #79, #7, #222, .T. ) ;
#93 = DIMENSIONAL_EXPONENTS ( 1.000000000000000000, 0.000000000000000000, 0.000000000000000000, 0.000000000000000000, 0.000000000000000000, 0.000000000000000000, 0.000000000000000000 ) ;
#94 =( NAMED_UNIT ( * ) PLANE_ANGLE_UNIT ( ) SI_UNIT ( $, .RADIAN. ) );
#95 = UNCERTAINTY_MEASURE_WITH_UNIT (LENGTH_MEASURE( 1.000000000000000082E-05 ), #60, 'distance_accuracy_value', 'NONE');
#96 =( CONVERSION_BASED_UNIT ( 'INCH', #2 ) LENGTH_UNIT ( ) NAMED_UNIT ( #93 ) );
#97 = CARTESIAN_POINT ( 'NONE',  ( 3.032960542342103792E-32, 1.000000000000000000, 0.000000000000000000 ) ) ;
#98 = CIRCLE ( 'NONE', #6, 0.2500000000000001110 ) ;
#99 = ORIENTED_EDGE ( 'NONE', *, *, #251, .T. ) ;
#100 = VERTEX_POINT ( 'NONE', #171 ) ;
#101 = ORIENTED_EDGE ( 'NONE', *, *, #258, .T. ) ;
#102 = ADVANCED_FACE ( 'NONE', ( #103 ), #176, .T. ) ;
#103 = FACE_OUTER_BOUND ( 'NONE', #37, .T. ) ;
#104 = ORIENTED_EDGE ( 'NONE', *, *, #143, .T. ) ;
#105 = AXIS2_PLACEMENT_3D ( 'NONE', #137, #1, #29 ) ;
#106 = SURFACE_SIDE_STYLE ('',( #288 ) ) ;
#107 = DIRECTION ( 'NONE',  ( 0.000000000000000000, 0.000000000000000000, -1.000000000000000000 ) ) ;
#108 =( NAMED_UNIT ( * ) PLANE_ANGLE_UNIT ( ) SI_UNIT ( $, .RADIAN. ) );
#109 = MECHANICAL_DESIGN_GEOMETRIC_PRESENTATION_REPRESENTATION (  '', ( #284 ), #289 ) ;
#110 = DIRECTION ( 'NONE',  ( 0.000000000000000000, -0.000000000000000000, 1.000000000000000000 ) ) ;
#111 = DIRECTION ( 'NONE',  ( 6.123233995736769734E-17, -1.000000000000000000, 0.000000000000000000 ) ) ;
#112 = DIMENSIONAL_EXPONENTS ( 1.000000000000000000, 0.000000000000000000, 0.000000000000000000, 0.000000000000000000, 0.000000000000000000, 0.000000000000000000, 0.000000000000000000 ) ;
#113 = PRODUCT_DEFINITION ( 'UNKNOWN', '', #255, #146 ) ;
#114 = DIRECTION ( 'NONE',  ( -1.000000000000000000, 0.000000000000000000, 0.000000000000000000 ) ) ;
#115 = CARTESIAN_POINT ( 'NONE',  ( 0.000000000000000000, 0.000000000000000000, 0.000000000000000000 ) ) ;
#116 = AXIS2_PLACEMENT_3D ( 'NONE', #13, #262, #67 ) ;
#117 = CARTESIAN_POINT ( 'NONE',  ( -1.224646799147353700E-16, 3.000000000000000444, 0.000000000000000000 ) ) ;
#118 = LINE ( 'NONE', #136, #66 ) ;
#119 = CARTESIAN_POINT ( 'NONE',  ( 3.061616997868383018E-17, 0.000000000000000000, 0.2500000000000000000 ) ) ;
#120 =( CONVERSION_BASED_UNIT ( 'INCH', #56 ) LENGTH_UNIT ( ) NAMED_UNIT ( #296 ) );
#121 = CIRCLE ( 'NONE', #231, 0.2500000000000000000 ) ;
#122 =( NAMED_UNIT ( * ) SI_UNIT ( $, .STERADIAN. ) SOLID_ANGLE_UNIT ( ) );
#123 = ORIENTED_EDGE ( 'NONE', *, *, #38, .T. ) ;
#124 = DIRECTION ( 'NONE',  ( -0.000000000000000000, -1.000000000000000000, -0.000000000000000000 ) ) ;
#125 = APPLICATION_CONTEXT ( 'automotive_design' ) ;
#126 = EDGE_CURVE ( 'NONE', #43, #298, #121, .T. ) ;
#127 = CARTESIAN_POINT ( 'NONE',  ( -0.2500000000000002776, 3.000000000000000444, 0.000000000000000000 ) ) ;
#128 = VERTEX_POINT ( 'NONE', #46 ) ;
#129 = DIRECTION ( 'NONE',  ( 0.000000000000000000, 0.000000000000000000, -1.000000000000000000 ) ) ;
#130 = STYLED_ITEM ( 'NONE', ( #299 ), #305 ) ;
#131 = CARTESIAN_POINT ( 'NONE',  ( 0.000000000000000000, 0.000000000000000000, 0.000000000000000000 ) ) ;
#132 = CARTESIAN_POINT ( 'NONE',  ( 0.000000000000000000, 0.000000000000000000, -0.2500000000000000000 ) ) ;
#133 =( LENGTH_UNIT ( ) NAMED_UNIT ( * ) SI_UNIT ( $, .METRE. ) );
#134 = MECHANICAL_DESIGN_GEOMETRIC_PRESENTATION_REPRESENTATION (  '', ( #216 ), #186 ) ;
#135 = SURFACE_SIDE_STYLE ('',( #263 ) ) ;
#136 = CARTESIAN_POINT ( 'NONE',  ( 0.2499999999999999167, 3.000000000000000444, 3.061616997868383634E-17 ) ) ;
#137 = CARTESIAN_POINT ( 'NONE',  ( -1.224646799147353700E-16, 3.000000000000000444, 0.000000000000000000 ) ) ;
#138 = VECTOR ( 'NONE', #209, 39.37007874015748143 ) ;
#139 = PRESENTATION_STYLE_ASSIGNMENT (( #272 ) ) ;
#140 = LINE ( 'NONE', #168, #238 ) ;
#141 = DIRECTION ( 'NONE',  ( -1.000000000000000000, 0.000000000000000000, 0.000000000000000000 ) ) ;
#142 = AXIS2_PLACEMENT_3D ( 'NONE', #77, #295, #166 ) ;
#143 = EDGE_CURVE ( 'NONE', #7, #298, #181, .T. ) ;
#144 = SURFACE_STYLE_USAGE ( .BOTH. , #170 ) ;
#145 = ORIENTED_EDGE ( 'NONE', *, *, #33, .T. ) ;
#146 = PRODUCT_DEFINITION_CONTEXT ( 'detailed design', #3, 'design' ) ;
#147 = DIRECTION ( 'NONE',  ( -1.000000000000000000, 0.000000000000000000, 0.000000000000000000 ) ) ;
#148 = VERTEX_POINT ( 'NONE', #157 ) ;
#149 = LENGTH_MEASURE_WITH_UNIT ( LENGTH_MEASURE( 0.02539999999999999897 ), #221 );
#150 = ORIENTED_EDGE ( 'NONE', *, *, #19, .T. ) ;
#151 = SURFACE_STYLE_USAGE ( .BOTH. , #35 ) ;
#152 = EDGE_LOOP ( 'NONE', ( #172, #84, #145, #180 ) ) ;
#153 = FILL_AREA_STYLE ('',( #86 ) ) ;
#154 =( NAMED_UNIT ( * ) PLANE_ANGLE_UNIT ( ) SI_UNIT ( $, .RADIAN. ) );
#155 =( GEOMETRIC_REPRESENTATION_CONTEXT ( 3 ) GLOBAL_UNCERTAINTY_ASSIGNED_CONTEXT ( ( #191 ) ) GLOBAL_UNIT_ASSIGNED_CONTEXT ( ( #120, #94, #218 ) ) REPRESENTATION_CONTEXT ( 'NONE', 'WORKASPACE' ) );
#156 = EDGE_CURVE ( 'NONE', #7, #79, #217, .T. ) ;
#157 = CARTESIAN_POINT ( 'NONE',  ( -0.2500000000000000000, 1.000000000000000000, 0.000000000000000000 ) ) ;
#158 = CARTESIAN_POINT ( 'NONE',  ( 0.000000000000000000, 0.000000000000000000, 0.000000000000000000 ) ) ;
#159 = FILL_AREA_STYLE ('',( #69 ) ) ;
#160 = PRODUCT ( '84309', '84309', '', ( #73 ) ) ;
#161 = DIMENSIONAL_EXPONENTS ( 1.000000000000000000, 0.000000000000000000, 0.000000000000000000, 0.000000000000000000, 0.000000000000000000, 0.000000000000000000, 0.000000000000000000 ) ;
#162 = ADVANCED_FACE ( 'NONE', ( #232 ), #182, .F. ) ;
#163 = DIRECTION ( 'NONE',  ( -6.123233995736769734E-17, 1.000000000000000000, -0.000000000000000000 ) ) ;
#164 = CARTESIAN_POINT ( 'NONE',  ( 3.061616997868383018E-17, 0.000000000000000000, 0.2500000000000000000 ) ) ;
#165 = CLOSED_SHELL ( 'NONE', ( #305, #102, #207, #229 ) ) ;
#166 = DIRECTION ( 'NONE',  ( -1.000000000000000000, -6.123233995736769734E-17, 0.000000000000000000 ) ) ;
#167 = AXIS2_PLACEMENT_3D ( 'NONE', #131, #285, #107 ) ;
#168 = CARTESIAN_POINT ( 'NONE',  ( -0.2500000000000002220, 3.000000000000000444, 0.000000000000000000 ) ) ;
#169 = SURFACE_STYLE_FILL_AREA ( #277 ) ;
#170 = SURFACE_SIDE_STYLE ('',( #169 ) ) ;
#171 = CARTESIAN_POINT ( 'NONE',  ( 0.2500000000000000555, 1.000000000000000000, 3.061616997868384251E-17 ) ) ;
#172 = ORIENTED_EDGE ( 'NONE', *, *, #19, .F. ) ;
#173 = CYLINDRICAL_SURFACE ( 'NONE', #178, 0.2500000000000000000 ) ;
#174 = SURFACE_STYLE_FILL_AREA ( #256 ) ;
#175 = ORIENTED_EDGE ( 'NONE', *, *, #92, .T. ) ;
#176 = PLANE ( 'NONE',  #309 ) ;
#177 = EDGE_LOOP ( 'NONE', ( #198, #123 ) ) ;
#178 = AXIS2_PLACEMENT_3D ( 'NONE', #220, #275, #281 ) ;
#179 = SURFACE_STYLE_USAGE ( .BOTH. , #135 ) ;
#180 = ORIENTED_EDGE ( 'NONE', *, *, #38, .F. ) ;
#181 = LINE ( 'NONE', #132, #138 ) ;
#182 = PLANE ( 'NONE',  #50 ) ;
#183 = SURFACE_STYLE_USAGE ( .BOTH. , #106 ) ;
#184 = DIMENSIONAL_EXPONENTS ( 1.000000000000000000, 0.000000000000000000, 0.000000000000000000, 0.000000000000000000, 0.000000000000000000, 0.000000000000000000, 0.000000000000000000 ) ;
#185 = CARTESIAN_POINT ( 'NONE',  ( -1.224646799147353700E-16, 3.000000000000000444, 0.000000000000000000 ) ) ;
#186 =( GEOMETRIC_REPRESENTATION_CONTEXT ( 3 ) GLOBAL_UNCERTAINTY_ASSIGNED_CONTEXT ( ( #83 ) ) GLOBAL_UNIT_ASSIGNED_CONTEXT ( ( #290, #108, #68 ) ) REPRESENTATION_CONTEXT ( 'NONE', 'WORKASPACE' ) );
#187 = SURFACE_SIDE_STYLE ('',( #54 ) ) ;
#188 = VECTOR ( 'NONE', #124, 39.37007874015748143 ) ;
#189 = DIRECTION ( 'NONE',  ( -1.000000000000000000, 0.000000000000000000, 0.000000000000000000 ) ) ;
#190 = ORIENTED_EDGE ( 'NONE', *, *, #92, .F. ) ;
#191 = UNCERTAINTY_MEASURE_WITH_UNIT (LENGTH_MEASURE( 1.000000000000000082E-05 ), #120, 'distance_accuracy_value', 'NONE');
#192 = DIRECTION ( 'NONE',  ( -6.123233995736769734E-17, 1.000000000000000000, -0.000000000000000000 ) ) ;
#193 = AXIS2_PLACEMENT_3D ( 'NONE', #158, #51, #297 ) ;
#194 = CIRCLE ( 'NONE', #39, 0.2500000000000001110 ) ;
#195 = AXIS2_PLACEMENT_3D ( 'NONE', #80, #192, #189 ) ;
#196 = LENGTH_MEASURE_WITH_UNIT ( LENGTH_MEASURE( 0.02539999999999999897 ), #61 );
#197 = CARTESIAN_POINT ( 'NONE',  ( 0.000000000000000000, 1.000000000000000000, 0.000000000000000000 ) ) ;
#198 = ORIENTED_EDGE ( 'NONE', *, *, #233, .T. ) ;
#199 = ORIENTED_EDGE ( 'NONE', *, *, #126, .F. ) ;
#200 = ORIENTED_EDGE ( 'NONE', *, *, #156, .F. ) ;
#201 = AXIS2_PLACEMENT_3D ( 'NONE', #28, #215, #30 ) ;
#202 = FILL_AREA_STYLE ('',( #47 ) ) ;
#203 = CYLINDRICAL_SURFACE ( 'NONE', #167, 0.2500000000000000000 ) ;
#204 = DIMENSIONAL_EXPONENTS ( 1.000000000000000000, 0.000000000000000000, 0.000000000000000000, 0.000000000000000000, 0.000000000000000000, 0.000000000000000000, 0.000000000000000000 ) ;
#205 = AXIS2_PLACEMENT_3D ( 'NONE', #117, #248, #147 ) ;
#206 = PRESENTATION_LAYER_ASSIGNMENT (  '', '', ( #284 ) ) ;
#207 = ADVANCED_FACE ( 'NONE', ( #42 ), #203, .T. ) ;
#208 =( LENGTH_UNIT ( ) NAMED_UNIT ( * ) SI_UNIT ( $, .METRE. ) );
#209 = DIRECTION ( 'NONE',  ( -0.000000000000000000, -1.000000000000000000, -0.000000000000000000 ) ) ;
#210 = PRODUCT_DEFINITION_SHAPE ( 'NONE', 'NONE',  #113 ) ;
#211 = FACE_OUTER_BOUND ( 'NONE', #9, .T. ) ;
#212 = COLOUR_RGB ( '',1.000000000000000000, 0.000000000000000000, 0.000000000000000000 ) ;
#213 =( CONVERSION_BASED_UNIT ( 'INCH', #52 ) LENGTH_UNIT ( ) NAMED_UNIT ( #161 ) );
#214 = FACE_OUTER_BOUND ( 'NONE', #282, .T. ) ;
#215 = DIRECTION ( 'NONE',  ( 0.000000000000000000, 0.000000000000000000, 1.000000000000000000 ) ) ;
#216 = STYLED_ITEM ( 'NONE', ( #261 ), #10 ) ;
#217 = CIRCLE ( 'NONE', #116, 0.2500000000000000000 ) ;
#218 =( NAMED_UNIT ( * ) SI_UNIT ( $, .STERADIAN. ) SOLID_ANGLE_UNIT ( ) );
#219 = SURFACE_SIDE_STYLE ('',( #259 ) ) ;
#220 = CARTESIAN_POINT ( 'NONE',  ( 0.000000000000000000, 0.000000000000000000, 0.000000000000000000 ) ) ;
#221 =( LENGTH_UNIT ( ) NAMED_UNIT ( * ) SI_UNIT ( $, .METRE. ) );
#222 = CIRCLE ( 'NONE', #88, 0.2500000000000000000 ) ;
#223 = CIRCLE ( 'NONE', #195, 0.2500000000000000000 ) ;
#224 = DIRECTION ( 'NONE',  ( -0.000000000000000000, -1.000000000000000000, -0.000000000000000000 ) ) ;
#225 = EDGE_LOOP ( 'NONE', ( #11, #4 ) ) ;
#226 = CARTESIAN_POINT ( 'NONE',  ( 0.000000000000000000, 0.000000000000000000, -0.2500000000000000000 ) ) ;
#227 =( NAMED_UNIT ( * ) SI_UNIT ( $, .STERADIAN. ) SOLID_ANGLE_UNIT ( ) );
#228 = ORIENTED_EDGE ( 'NONE', *, *, #143, .F. ) ;
#229 = ADVANCED_FACE ( 'NONE', ( #306 ), #90, .T. ) ;
#230 = CARTESIAN_POINT ( 'NONE',  ( 0.000000000000000000, 1.000000000000000000, 0.000000000000000000 ) ) ;
#231 = AXIS2_PLACEMENT_3D ( 'NONE', #304, #87, #129 ) ;
#232 = FACE_OUTER_BOUND ( 'NONE', #177, .T. ) ;
#233 = EDGE_CURVE ( 'NONE', #82, #128, #194, .T. ) ;
#234 = PRESENTATION_LAYER_ASSIGNMENT (  '', '', ( #247 ) ) ;
#235 = ADVANCED_BREP_SHAPE_REPRESENTATION ( '84309', ( #10, #12, #201 ), #76 ) ;
#236 = ADVANCED_FACE ( 'NONE', ( #211 ), #244, .T. ) ;
#237 = DIRECTION ( 'NONE',  ( -6.123233995736769734E-17, 1.000000000000000000, -0.000000000000000000 ) ) ;
#238 = VECTOR ( 'NONE', #242, 39.37007874015748143 ) ;
#239 =( GEOMETRIC_REPRESENTATION_CONTEXT ( 3 ) GLOBAL_UNCERTAINTY_ASSIGNED_CONTEXT ( ( #240 ) ) GLOBAL_UNIT_ASSIGNED_CONTEXT ( ( #96, #62, #280 ) ) REPRESENTATION_CONTEXT ( 'NONE', 'WORKASPACE' ) );
#240 = UNCERTAINTY_MEASURE_WITH_UNIT (LENGTH_MEASURE( 1.000000000000000082E-05 ), #96, 'distance_accuracy_value', 'NONE');
#241 = DIRECTION ( 'NONE',  ( 0.000000000000000000, -1.000000000000000000, -0.000000000000000000 ) ) ;
#242 = DIRECTION ( 'NONE',  ( -6.123233995736769734E-17, 1.000000000000000000, -0.000000000000000000 ) ) ;
#243 = ADVANCED_FACE ( 'NONE', ( #214 ), #31, .F. ) ;
#244 = CYLINDRICAL_SURFACE ( 'NONE', #105, 0.2500000000000000555 ) ;
#245 = PRESENTATION_LAYER_ASSIGNMENT (  '', '', ( #216 ) ) ;
#246 =( NAMED_UNIT ( * ) PLANE_ANGLE_UNIT ( ) SI_UNIT ( $, .RADIAN. ) );
#247 = STYLED_ITEM ( 'NONE', ( #20 ), #207 ) ;
#248 = DIRECTION ( 'NONE',  ( -6.123233995736769734E-17, 1.000000000000000000, -0.000000000000000000 ) ) ;
#249 = ORIENTED_EDGE ( 'NONE', *, *, #14, .F. ) ;
#250 = FILL_AREA_STYLE_COLOUR ( '', #212 ) ;
#251 = EDGE_CURVE ( 'NONE', #79, #43, #271, .T. ) ;
#252 = PRESENTATION_STYLE_ASSIGNMENT (( #151 ) ) ;
#253 = ORIENTED_EDGE ( 'NONE', *, *, #33, .F. ) ;
#254 = MECHANICAL_DESIGN_GEOMETRIC_PRESENTATION_REPRESENTATION (  '', ( #307 ), #270 ) ;
#255 = PRODUCT_DEFINITION_FORMATION_WITH_SPECIFIED_SOURCE ( 'ANY', '', #160, .NOT_KNOWN. ) ;
#256 = FILL_AREA_STYLE ('',( #276 ) ) ;
#257 = ORIENTED_EDGE ( 'NONE', *, *, #251, .F. ) ;
#258 = EDGE_CURVE ( 'NONE', #148, #100, #32, .T. ) ;
#259 = SURFACE_STYLE_FILL_AREA ( #153 ) ;
#260 =( NAMED_UNIT ( * ) SI_UNIT ( $, .STERADIAN. ) SOLID_ANGLE_UNIT ( ) );
#261 = PRESENTATION_STYLE_ASSIGNMENT (( #18 ) ) ;
#262 = DIRECTION ( 'NONE',  ( -0.000000000000000000, -1.000000000000000000, -0.000000000000000000 ) ) ;
#263 = SURFACE_STYLE_FILL_AREA ( #159 ) ;
#264 = STYLED_ITEM ( 'NONE', ( #139 ), #12 ) ;
#265 = COLOUR_RGB ( '',1.000000000000000000, 0.000000000000000000, 0.000000000000000000 ) ;
#266 = LENGTH_MEASURE_WITH_UNIT ( LENGTH_MEASURE( 0.02539999999999999897 ), #133 );
#267 = DIMENSIONAL_EXPONENTS ( 1.000000000000000000, 0.000000000000000000, 0.000000000000000000, 0.000000000000000000, 0.000000000000000000, 0.000000000000000000, 0.000000000000000000 ) ;
#268 = FACE_OUTER_BOUND ( 'NONE', #152, .T. ) ;
#269 = COLOUR_RGB ( '',1.000000000000000000, 0.000000000000000000, 0.000000000000000000 ) ;
#270 =( GEOMETRIC_REPRESENTATION_CONTEXT ( 3 ) GLOBAL_UNCERTAINTY_ASSIGNED_CONTEXT ( ( #95 ) ) GLOBAL_UNIT_ASSIGNED_CONTEXT ( ( #60, #5, #227 ) ) REPRESENTATION_CONTEXT ( 'NONE', 'WORKASPACE' ) );
#271 = LINE ( 'NONE', #119, #188 ) ;
#272 = SURFACE_STYLE_USAGE ( .BOTH. , #187 ) ;
#273 = SHAPE_DEFINITION_REPRESENTATION ( #210, #235 ) ;
#274 =( NAMED_UNIT ( * ) SI_UNIT ( $, .STERADIAN. ) SOLID_ANGLE_UNIT ( ) );
#275 = DIRECTION ( 'NONE',  ( -0.000000000000000000, -1.000000000000000000, -0.000000000000000000 ) ) ;
#276 = FILL_AREA_STYLE_COLOUR ( '', #269 ) ;
#277 = FILL_AREA_STYLE ('',( #250 ) ) ;
#278 = DIRECTION ( 'NONE',  ( 0.000000000000000000, 0.000000000000000000, -1.000000000000000000 ) ) ;
#279 = UNCERTAINTY_MEASURE_WITH_UNIT (LENGTH_MEASURE( 1.000000000000000082E-05 ), #213, 'distance_accuracy_value', 'NONE');
#280 =( NAMED_UNIT ( * ) SI_UNIT ( $, .STERADIAN. ) SOLID_ANGLE_UNIT ( ) );
#281 = DIRECTION ( 'NONE',  ( 0.000000000000000000, 0.000000000000000000, -1.000000000000000000 ) ) ;
#282 = EDGE_LOOP ( 'NONE', ( #40, #302 ) ) ;
#283 = MECHANICAL_DESIGN_GEOMETRIC_PRESENTATION_REPRESENTATION (  '', ( #264 ), #155 ) ;
#284 = STYLED_ITEM ( 'NONE', ( #48 ), #229 ) ;
#285 = DIRECTION ( 'NONE',  ( -0.000000000000000000, -1.000000000000000000, -0.000000000000000000 ) ) ;
#286 = ORIENTED_EDGE ( 'NONE', *, *, #156, .T. ) ;
#287 = DIRECTION ( 'NONE',  ( 0.000000000000000000, 1.000000000000000000, 0.000000000000000000 ) ) ;
#288 = SURFACE_STYLE_FILL_AREA ( #202 ) ;
#289 =( GEOMETRIC_REPRESENTATION_CONTEXT ( 3 ) GLOBAL_UNCERTAINTY_ASSIGNED_CONTEXT ( ( #279 ) ) GLOBAL_UNIT_ASSIGNED_CONTEXT ( ( #213, #23, #274 ) ) REPRESENTATION_CONTEXT ( 'NONE', 'WORKASPACE' ) );
#290 =( CONVERSION_BASED_UNIT ( 'INCH', #266 ) LENGTH_UNIT ( ) NAMED_UNIT ( #204 ) );
#291 = FILL_AREA_STYLE ('',( #308 ) ) ;
#292 = EDGE_CURVE ( 'NONE', #100, #148, #223, .T. ) ;
#293 = APPLICATION_PROTOCOL_DEFINITION ( 'draft international standard', 'automotive_design', 1998, #125 ) ;
#294 = DIRECTION ( 'NONE',  ( -6.123233995736769734E-17, 1.000000000000000000, -0.000000000000000000 ) ) ;
#295 = DIRECTION ( 'NONE',  ( -6.123233995736769734E-17, 1.000000000000000000, 0.000000000000000000 ) ) ;
#296 = DIMENSIONAL_EXPONENTS ( 1.000000000000000000, 0.000000000000000000, 0.000000000000000000, 0.000000000000000000, 0.000000000000000000, 0.000000000000000000, 0.000000000000000000 ) ;
#297 = DIRECTION ( 'NONE',  ( 0.000000000000000000, 0.000000000000000000, -1.000000000000000000 ) ) ;
#298 = VERTEX_POINT ( 'NONE', #226 ) ;
#299 = PRESENTATION_STYLE_ASSIGNMENT (( #144 ) ) ;
#300 =( GEOMETRIC_REPRESENTATION_CONTEXT ( 3 ) GLOBAL_UNCERTAINTY_ASSIGNED_CONTEXT ( ( #34 ) ) GLOBAL_UNIT_ASSIGNED_CONTEXT ( ( #70, #154, #260 ) ) REPRESENTATION_CONTEXT ( 'NONE', 'WORKASPACE' ) );
#301 = ORIENTED_EDGE ( 'NONE', *, *, #233, .F. ) ;
#302 = ORIENTED_EDGE ( 'NONE', *, *, #292, .F. ) ;
#303 = EDGE_LOOP ( 'NONE', ( #257, #175, #104, #199 ) ) ;
#304 = CARTESIAN_POINT ( 'NONE',  ( 0.000000000000000000, 0.000000000000000000, 0.000000000000000000 ) ) ;
#305 = ADVANCED_FACE ( 'NONE', ( #78 ), #173, .T. ) ;
#306 = FACE_OUTER_BOUND ( 'NONE', #225, .T. ) ;
#307 = STYLED_ITEM ( 'NONE', ( #252 ), #102 ) ;
#308 = FILL_AREA_STYLE_COLOUR ( '', #45 ) ;
#309 = AXIS2_PLACEMENT_3D ( 'NONE', #230, #287, #110 ) ;
ENDSEC;
END-ISO-10303-21;
