ISO-10303-21;
HEADER;
FILE_DESCRIPTION (( 'STEP AP214' ),
    '1' );
FILE_NAME ('Micro_RME-035-2X.STEP',
    '2021-09-01T23:19:11',
    ( '' ),
    ( '' ),
    'SwSTEP 2.0',
    'SolidWorks 2020',
    '' );
FILE_SCHEMA (( 'AUTOMOTIVE_DESIGN' ));
ENDSEC;

DATA;
#1 = FACE_OUTER_BOUND ( 'NONE', #285, .T. ) ;
#2 = UNCERTAINTY_MEASURE_WITH_UNIT (LENGTH_MEASURE( 1.000000000000000082E-05 ), #245, 'distance_accuracy_value', 'NONE');
#3 = DIRECTION ( 'NONE',  ( -1.000000000000000000, 0.0000000000000000000, 1.224646799147353454E-16 ) ) ;
#4 = PRESENTATION_STYLE_ASSIGNMENT (( #122 ) ) ;
#5 = DIRECTION ( 'NONE',  ( -1.224646799147353454E-16, -0.0000000000000000000, -1.000000000000000000 ) ) ;
#6 = AXIS2_PLACEMENT_3D ( 'NONE', #291, #244, #77 ) ;
#7 = LINE ( 'NONE', #72, #87 ) ;
#8 = ORIENTED_EDGE ( 'NONE', *, *, #36, .F. ) ;
#9 = CARTESIAN_POINT ( 'NONE',  ( 0.0000000000000000000, 0.0000000000000000000, 0.0000000000000000000 ) ) ;
#10 = VERTEX_POINT ( 'NONE', #86 ) ;
#11 = AXIS2_PLACEMENT_3D ( 'NONE', #207, #118, #200 ) ;
#12 = ORIENTED_EDGE ( 'NONE', *, *, #178, .F. ) ;
#13 = PRESENTATION_STYLE_ASSIGNMENT (( #209 ) ) ;
#14 = ORIENTED_EDGE ( 'NONE', *, *, #21, .T. ) ;
#15 = EDGE_CURVE ( 'NONE', #27, #242, #175, .T. ) ;
#16 = AXIS2_PLACEMENT_3D ( 'NONE', #32, #91, #49 ) ;
#17 = DIRECTION ( 'NONE',  ( 0.0000000000000000000, 0.0000000000000000000, -1.000000000000000000 ) ) ;
#18 = CYLINDRICAL_SURFACE ( 'NONE', #213, 0.06250000000000002776 ) ;
#19 = EDGE_CURVE ( 'NONE', #30, #10, #40, .T. ) ;
#20 =( GEOMETRIC_REPRESENTATION_CONTEXT ( 3 ) GLOBAL_UNCERTAINTY_ASSIGNED_CONTEXT ( ( #158 ) ) GLOBAL_UNIT_ASSIGNED_CONTEXT ( ( #136, #131, #297 ) ) REPRESENTATION_CONTEXT ( 'NONE', 'WORKASPACE' ) );
#21 = EDGE_CURVE ( 'NONE', #279, #168, #85, .T. ) ;
#22 = DIRECTION ( 'NONE',  ( 0.0000000000000000000, 0.0000000000000000000, -1.000000000000000000 ) ) ;
#23 = ORIENTED_EDGE ( 'NONE', *, *, #83, .T. ) ;
#24 = CIRCLE ( 'NONE', #11, 0.01748250000000000151 ) ;
#25 = DIRECTION ( 'NONE',  ( 1.224646799147353454E-16, 0.0000000000000000000, 1.000000000000000000 ) ) ;
#26 = FILL_AREA_STYLE_COLOUR ( '', #107 ) ;
#27 = VERTEX_POINT ( 'NONE', #146 ) ;
#28 = CARTESIAN_POINT ( 'NONE',  ( 0.01748250000000000151, 2.140988766609360157E-18, 0.0000000000000000000 ) ) ;
#29 = FACE_OUTER_BOUND ( 'NONE', #298, .T. ) ;
#30 = VERTEX_POINT ( 'NONE', #194 ) ;
#31 = AXIS2_PLACEMENT_3D ( 'NONE', #65, #114, #205 ) ;
#32 = CARTESIAN_POINT ( 'NONE',  ( 0.0000000000000000000, 0.0000000000000000000, 1.500000000000000222 ) ) ;
#33 = ADVANCED_FACE ( 'NONE', ( #154 ), #239, .T. ) ;
#34 = PRODUCT_DEFINITION_SHAPE ( 'NONE', 'NONE',  #128 ) ;
#35 = VECTOR ( 'NONE', #166, 39.37007874015748143 ) ;
#36 = EDGE_CURVE ( 'NONE', #74, #279, #149, .T. ) ;
#37 = LINE ( 'NONE', #123, #255 ) ;
#38 = ORIENTED_EDGE ( 'NONE', *, *, #41, .T. ) ;
#39 = ORIENTED_EDGE ( 'NONE', *, *, #174, .F. ) ;
#40 = LINE ( 'NONE', #57, #56 ) ;
#41 = EDGE_CURVE ( 'NONE', #27, #258, #241, .T. ) ;
#42 = EDGE_LOOP ( 'NONE', ( #101, #210, #183, #281 ) ) ;
#43 = CARTESIAN_POINT ( 'NONE',  ( 1.285879139104721102E-17, 0.0000000000000000000, 0.1049999999999999961 ) ) ;
#44 = APPLICATION_PROTOCOL_DEFINITION ( 'draft international standard', 'automotive_design', 1998, #282 ) ;
#45 = DIRECTION ( 'NONE',  ( 1.000000000000000000, 0.0000000000000000000, 0.0000000000000000000 ) ) ;
#46 = ADVANCED_FACE ( 'NONE', ( #59 ), #221, .T. ) ;
#47 = SHAPE_DEFINITION_REPRESENTATION ( #34, #159 ) ;
#48 = CARTESIAN_POINT ( 'NONE',  ( 0.0000000000000000000, 0.0000000000000000000, 1.500000000000000222 ) ) ;
#49 = DIRECTION ( 'NONE',  ( 1.000000000000000000, 0.0000000000000000000, -0.0000000000000000000 ) ) ;
#50 = DIRECTION ( 'NONE',  ( -1.000000000000000000, 0.0000000000000000000, 0.0000000000000000000 ) ) ;
#51 = VECTOR ( 'NONE', #181, 39.37007874015748143 ) ;
#52 = FACE_OUTER_BOUND ( 'NONE', #70, .T. ) ;
#53 = ORIENTED_EDGE ( 'NONE', *, *, #151, .T. ) ;
#54 = ORIENTED_EDGE ( 'NONE', *, *, #222, .T. ) ;
#55 = SURFACE_STYLE_FILL_AREA ( #190 ) ;
#56 = VECTOR ( 'NONE', #270, 39.37007874015748143 ) ;
#57 = CARTESIAN_POINT ( 'NONE',  ( -0.01748250000000000151, 0.0000000000000000000, 2.140988766609360927E-18 ) ) ;
#58 = CARTESIAN_POINT ( 'NONE',  ( 0.01748250000000001539, 0.0000000000000000000, 0.1049999999999999961 ) ) ;
#59 = FACE_OUTER_BOUND ( 'NONE', #235, .T. ) ;
#60 = DIMENSIONAL_EXPONENTS ( 1.000000000000000000, 0.0000000000000000000, 0.0000000000000000000, 0.0000000000000000000, 0.0000000000000000000, 0.0000000000000000000, 0.0000000000000000000 ) ;
#61 = CIRCLE ( 'NONE', #100, 0.01748250000000000151 ) ;
#62 = CARTESIAN_POINT ( 'NONE',  ( 0.0000000000000000000, 0.0000000000000000000, 1.485000000000000764 ) ) ;
#63 = ADVANCED_FACE ( 'NONE', ( #133 ), #18, .T. ) ;
#64 = CARTESIAN_POINT ( 'NONE',  ( 0.0000000000000000000, 0.0000000000000000000, 1.485000000000000764 ) ) ;
#65 = CARTESIAN_POINT ( 'NONE',  ( 0.0000000000000000000, 0.0000000000000000000, 1.500000000000000222 ) ) ;
#66 = CARTESIAN_POINT ( 'NONE',  ( 0.0000000000000000000, 0.0000000000000000000, 0.0000000000000000000 ) ) ;
#67 = CONICAL_SURFACE ( 'NONE', #116, 0.01748250000000000151, 0.1745329251994338915 ) ;
#68 = CARTESIAN_POINT ( 'NONE',  ( 0.06250000000000006939, 7.654042494670963708E-18, 0.3603069293146389240 ) ) ;
#69 =( NAMED_UNIT ( * ) PLANE_ANGLE_UNIT ( ) SI_UNIT ( $, .RADIAN. ) );
#70 = EDGE_LOOP ( 'NONE', ( #186, #192 ) ) ;
#71 = VERTEX_POINT ( 'NONE', #268 ) ;
#72 = CARTESIAN_POINT ( 'NONE',  ( 0.04750000000000064587, 5.817072295950006528E-18, 1.500000000000000222 ) ) ;
#73 = PLANE ( 'NONE',  #228 ) ;
#74 = VERTEX_POINT ( 'NONE', #220 ) ;
#75 = CARTESIAN_POINT ( 'NONE',  ( 0.06250000000000002776, 7.654042494670959086E-18, 1.500000000000000222 ) ) ;
#76 = AXIS2_PLACEMENT_3D ( 'NONE', #156, #141, #273 ) ;
#77 = DIRECTION ( 'NONE',  ( -1.000000000000000000, 0.0000000000000000000, 0.0000000000000000000 ) ) ;
#78 = ORIENTED_EDGE ( 'NONE', *, *, #15, .T. ) ;
#79 = EDGE_CURVE ( 'NONE', #168, #279, #129, .T. ) ;
#80 = PRESENTATION_LAYER_ASSIGNMENT (  '', '', ( #143 ) ) ;
#81 = ORIENTED_EDGE ( 'NONE', *, *, #293, .T. ) ;
#82 = PRODUCT_DEFINITION_CONTEXT ( 'detailed design', #282, 'design' ) ;
#83 = EDGE_CURVE ( 'NONE', #168, #242, #286, .T. ) ;
#84 = DIRECTION ( 'NONE',  ( -0.7071067811865462405, 0.0000000000000000000, -0.7071067811865486830 ) ) ;
#85 = CIRCLE ( 'NONE', #262, 0.06250000000000002776 ) ;
#86 = CARTESIAN_POINT ( 'NONE',  ( -0.01748250000000000151, 0.0000000000000000000, 4.281977533218721854E-18 ) ) ;
#87 = VECTOR ( 'NONE', #93, 39.37007874015748854 ) ;
#88 = APPLICATION_PROTOCOL_DEFINITION ( 'draft international standard', 'automotive_design', 1998, #236 ) ;
#89 = CARTESIAN_POINT ( 'NONE',  ( 2.621955040038593916E-34, 0.0000000000000000000, 2.140988766609360927E-18 ) ) ;
#90 = EDGE_CURVE ( 'NONE', #30, #71, #37, .T. ) ;
#91 = DIRECTION ( 'NONE',  ( 0.0000000000000000000, 0.0000000000000000000, 1.000000000000000000 ) ) ;
#92 = SURFACE_STYLE_FILL_AREA ( #112 ) ;
#93 = DIRECTION ( 'NONE',  ( 0.7071067811865462405, 8.659560562354916834E-17, -0.7071067811865486830 ) ) ;
#94 = VECTOR ( 'NONE', #84, 39.37007874015748854 ) ;
#95 = AXIS2_PLACEMENT_3D ( 'NONE', #260, #225, #246 ) ;
#96 = DIRECTION ( 'NONE',  ( -1.224646799147353454E-16, -0.0000000000000000000, -1.000000000000000000 ) ) ;
#97 = ORIENTED_EDGE ( 'NONE', *, *, #21, .F. ) ;
#98 = DIRECTION ( 'NONE',  ( -0.1736481776669311916, 2.126576849575783316E-17, 0.9848077530122080203 ) ) ;
#99 = ORIENTED_EDGE ( 'NONE', *, *, #90, .F. ) ;
#100 = AXIS2_PLACEMENT_3D ( 'NONE', #145, #187, #283 ) ;
#101 = ORIENTED_EDGE ( 'NONE', *, *, #83, .F. ) ;
#102 = DIRECTION ( 'NONE',  ( -1.000000000000000000, 0.0000000000000000000, 0.0000000000000000000 ) ) ;
#103 = STYLED_ITEM ( 'NONE', ( #13 ), #296 ) ;
#104 = DIRECTION ( 'NONE',  ( 1.000000000000000000, 0.0000000000000000000, 0.0000000000000000000 ) ) ;
#105 = CARTESIAN_POINT ( 'NONE',  ( 0.0000000000000000000, 0.0000000000000000000, 1.500000000000000222 ) ) ;
#106 = DIMENSIONAL_EXPONENTS ( 1.000000000000000000, 0.0000000000000000000, 0.0000000000000000000, 0.0000000000000000000, 0.0000000000000000000, 0.0000000000000000000, 0.0000000000000000000 ) ;
#107 = COLOUR_RGB ( '',0.7921568627450980005, 0.8196078431372548767, 0.9333333333333333481 ) ;
#108 = ORIENTED_EDGE ( 'NONE', *, *, #139, .T. ) ;
#109 = FACE_OUTER_BOUND ( 'NONE', #265, .T. ) ;
#110 = CIRCLE ( 'NONE', #150, 0.01748250000000000151 ) ;
#111 = DIRECTION ( 'NONE',  ( 0.0000000000000000000, 0.0000000000000000000, -1.000000000000000000 ) ) ;
#112 = FILL_AREA_STYLE ('',( #26 ) ) ;
#113 = PRODUCT_CONTEXT ( 'NONE', #236, 'mechanical' ) ;
#114 = DIRECTION ( 'NONE',  ( -0.0000000000000000000, -0.0000000000000000000, -1.000000000000000000 ) ) ;
#115 = CYLINDRICAL_SURFACE ( 'NONE', #185, 0.01748250000000000151 ) ;
#116 = AXIS2_PLACEMENT_3D ( 'NONE', #177, #25, #251 ) ;
#117 = EDGE_CURVE ( 'NONE', #74, #252, #243, .T. ) ;
#118 = DIRECTION ( 'NONE',  ( -1.224646799147353454E-16, -0.0000000000000000000, -1.000000000000000000 ) ) ;
#119 = ORIENTED_EDGE ( 'NONE', *, *, #293, .F. ) ;
#120 = ADVANCED_FACE ( 'NONE', ( #224 ), #277, .T. ) ;
#121 = ORIENTED_EDGE ( 'NONE', *, *, #15, .F. ) ;
#122 = SURFACE_STYLE_USAGE ( .BOTH. , #263 ) ;
#123 = CARTESIAN_POINT ( 'NONE',  ( -0.01748249999999999110, 2.140988766609360927E-18, 0.1049999999999999961 ) ) ;
#124 = ORIENTED_EDGE ( 'NONE', *, *, #90, .T. ) ;
#125 = ORIENTED_EDGE ( 'NONE', *, *, #151, .F. ) ;
#126 = CONICAL_SURFACE ( 'NONE', #199, 0.04750000000000064587, 0.7853981633974466137 ) ;
#127 = DIRECTION ( 'NONE',  ( -1.224646799147353454E-16, -0.0000000000000000000, -1.000000000000000000 ) ) ;
#128 = PRODUCT_DEFINITION ( 'UNKNOWN', '', #264, #82 ) ;
#129 = CIRCLE ( 'NONE', #299, 0.06250000000000002776 ) ;
#130 = AXIS2_PLACEMENT_3D ( 'NONE', #184, #5, #45 ) ;
#131 =( NAMED_UNIT ( * ) PLANE_ANGLE_UNIT ( ) SI_UNIT ( $, .RADIAN. ) );
#132 = ORIENTED_EDGE ( 'NONE', *, *, #41, .F. ) ;
#133 = FACE_OUTER_BOUND ( 'NONE', #42, .T. ) ;
#134 = CARTESIAN_POINT ( 'NONE',  ( 0.0000000000000000000, 0.0000000000000000000, 1.500000000000000222 ) ) ;
#135 =( GEOMETRIC_REPRESENTATION_CONTEXT ( 3 ) GLOBAL_UNCERTAINTY_ASSIGNED_CONTEXT ( ( #2 ) ) GLOBAL_UNIT_ASSIGNED_CONTEXT ( ( #245, #69, #230 ) ) REPRESENTATION_CONTEXT ( 'NONE', 'WORKASPACE' ) );
#136 =( CONVERSION_BASED_UNIT ( 'INCH', #179 ) LENGTH_UNIT ( ) NAMED_UNIT ( #219 ) );
#137 = CARTESIAN_POINT ( 'NONE',  ( 0.06250000000000002776, 7.654042494670959086E-18, 1.485000000000000764 ) ) ;
#138 = FACE_OUTER_BOUND ( 'NONE', #171, .T. ) ;
#139 = EDGE_CURVE ( 'NONE', #252, #74, #240, .T. ) ;
#140 = LENGTH_MEASURE_WITH_UNIT ( LENGTH_MEASURE( 0.02539999999999999897 ), #250 );
#141 = DIRECTION ( 'NONE',  ( 0.0000000000000000000, 0.0000000000000000000, 1.000000000000000000 ) ) ;
#142 =( NAMED_UNIT ( * ) SI_UNIT ( $, .STERADIAN. ) SOLID_ANGLE_UNIT ( ) );
#143 = STYLED_ITEM ( 'NONE', ( #4 ), #159 ) ;
#144 = DIRECTION ( 'NONE',  ( -1.000000000000000000, 0.0000000000000000000, 1.224646799147353454E-16 ) ) ;
#145 = CARTESIAN_POINT ( 'NONE',  ( 1.285879139104721102E-17, 0.0000000000000000000, 0.1049999999999999961 ) ) ;
#146 = CARTESIAN_POINT ( 'NONE',  ( 0.01748250000000001539, 0.0000000000000000000, 0.1049999999999999961 ) ) ;
#147 = ORIENTED_EDGE ( 'NONE', *, *, #19, .F. ) ;
#148 = CLOSED_SHELL ( 'NONE', ( #289, #46, #259, #120, #63, #254, #33, #197, #216, #217 ) ) ;
#149 = LINE ( 'NONE', #169, #94 ) ;
#150 = AXIS2_PLACEMENT_3D ( 'NONE', #253, #96, #50 ) ;
#151 = EDGE_CURVE ( 'NONE', #71, #242, #173, .T. ) ;
#152 = ORIENTED_EDGE ( 'NONE', *, *, #117, .F. ) ;
#153 = CIRCLE ( 'NONE', #280, 0.06250000000000002776 ) ;
#154 = FACE_OUTER_BOUND ( 'NONE', #212, .T. ) ;
#155 = UNCERTAINTY_MEASURE_WITH_UNIT (LENGTH_MEASURE( 1.000000000000000082E-05 ), #234, 'distance_accuracy_value', 'NONE');
#156 = CARTESIAN_POINT ( 'NONE',  ( 0.0000000000000000000, 0.0000000000000000000, 1.500000000000000222 ) ) ;
#157 = CARTESIAN_POINT ( 'NONE',  ( -0.06250000000000002776, 0.0000000000000000000, 1.485000000000000764 ) ) ;
#158 = UNCERTAINTY_MEASURE_WITH_UNIT (LENGTH_MEASURE( 1.000000000000000082E-05 ), #136, 'distance_accuracy_value', 'NONE');
#159 = ADVANCED_BREP_SHAPE_REPRESENTATION ( 'Micro_RME-035-2X', ( #296, #95 ), #135 ) ;
#160 = CARTESIAN_POINT ( 'NONE',  ( 0.04750000000000064587, 6.735557395310483192E-18, 1.500000000000000222 ) ) ;
#161 = DIRECTION ( 'NONE',  ( 0.0000000000000000000, 0.0000000000000000000, 1.000000000000000000 ) ) ;
#162 = EDGE_LOOP ( 'NONE', ( #132, #81, #189, #214 ) ) ;
#163 = CARTESIAN_POINT ( 'NONE',  ( 4.412487276957843594E-17, 0.0000000000000000000, 0.3603069293146389240 ) ) ;
#164 = AXIS2_PLACEMENT_3D ( 'NONE', #48, #161, #232 ) ;
#165 = DIRECTION ( 'NONE',  ( -1.224646799147353454E-16, -0.0000000000000000000, -1.000000000000000000 ) ) ;
#166 = DIRECTION ( 'NONE',  ( -0.0000000000000000000, -0.0000000000000000000, -1.000000000000000000 ) ) ;
#167 = PRODUCT_RELATED_PRODUCT_CATEGORY ( 'part', '', ( #211 ) ) ;
#168 = VERTEX_POINT ( 'NONE', #137 ) ;
#169 = CARTESIAN_POINT ( 'NONE',  ( -0.04750000000000064587, 0.0000000000000000000, 1.500000000000000222 ) ) ;
#170 = CIRCLE ( 'NONE', #191, 0.01748250000000000151 ) ;
#171 = EDGE_LOOP ( 'NONE', ( #275, #108 ) ) ;
#172 = DIRECTION ( 'NONE',  ( -0.0000000000000000000, -0.0000000000000000000, -1.000000000000000000 ) ) ;
#173 = CIRCLE ( 'NONE', #130, 0.06250000000000002776 ) ;
#174 = EDGE_CURVE ( 'NONE', #252, #168, #7, .T. ) ;
#175 = LINE ( 'NONE', #58, #292 ) ;
#176 = DIRECTION ( 'NONE',  ( 0.0000000000000000000, 0.0000000000000000000, 1.000000000000000000 ) ) ;
#177 = CARTESIAN_POINT ( 'NONE',  ( 1.285879139104721102E-17, 0.0000000000000000000, 0.1049999999999999961 ) ) ;
#178 = EDGE_CURVE ( 'NONE', #30, #27, #110, .T. ) ;
#179 = LENGTH_MEASURE_WITH_UNIT ( LENGTH_MEASURE( 0.02539999999999999897 ), #201 );
#180 = CARTESIAN_POINT ( 'NONE',  ( 0.0000000000000000000, 0.0000000000000000000, 0.0000000000000000000 ) ) ;
#181 = DIRECTION ( 'NONE',  ( -0.0000000000000000000, -0.0000000000000000000, -1.000000000000000000 ) ) ;
#182 = ORIENTED_EDGE ( 'NONE', *, *, #79, .F. ) ;
#183 = ORIENTED_EDGE ( 'NONE', *, *, #203, .T. ) ;
#184 = CARTESIAN_POINT ( 'NONE',  ( 4.412487276957843594E-17, 0.0000000000000000000, 0.3603069293146389240 ) ) ;
#185 = AXIS2_PLACEMENT_3D ( 'NONE', #9, #165, #193 ) ;
#186 = ORIENTED_EDGE ( 'NONE', *, *, #276, .T. ) ;
#187 = DIRECTION ( 'NONE',  ( -1.224646799147353454E-16, -0.0000000000000000000, -1.000000000000000000 ) ) ;
#188 = DIRECTION ( 'NONE',  ( 1.000000000000000000, 0.0000000000000000000, 0.0000000000000000000 ) ) ;
#189 = ORIENTED_EDGE ( 'NONE', *, *, #19, .T. ) ;
#190 = FILL_AREA_STYLE ('',( #290 ) ) ;
#191 = AXIS2_PLACEMENT_3D ( 'NONE', #89, #223, #3 ) ;
#192 = ORIENTED_EDGE ( 'NONE', *, *, #272, .T. ) ;
#193 = DIRECTION ( 'NONE',  ( -1.000000000000000000, 0.0000000000000000000, 1.224646799147353454E-16 ) ) ;
#194 = CARTESIAN_POINT ( 'NONE',  ( -0.01748249999999999110, 4.897515630640160392E-18, 0.1049999999999999961 ) ) ;
#195 = MECHANICAL_DESIGN_GEOMETRIC_PRESENTATION_REPRESENTATION (  '', ( #103 ), #269 ) ;
#196 = DIRECTION ( 'NONE',  ( 0.1736481776669313859, 0.0000000000000000000, 0.9848077530122077983 ) ) ;
#197 = ADVANCED_FACE ( 'NONE', ( #1 ), #67, .T. ) ;
#198 = ORIENTED_EDGE ( 'NONE', *, *, #203, .F. ) ;
#199 = AXIS2_PLACEMENT_3D ( 'NONE', #134, #111, #204 ) ;
#200 = DIRECTION ( 'NONE',  ( -1.000000000000000000, 0.0000000000000000000, 1.224646799147353454E-16 ) ) ;
#201 =( LENGTH_UNIT ( ) NAMED_UNIT ( * ) SI_UNIT ( $, .METRE. ) );
#202 = LINE ( 'NONE', #278, #51 ) ;
#203 = EDGE_CURVE ( 'NONE', #279, #71, #202, .T. ) ;
#204 = DIRECTION ( 'NONE',  ( -1.000000000000000000, 0.0000000000000000000, 0.0000000000000000000 ) ) ;
#205 = DIRECTION ( 'NONE',  ( -1.000000000000000000, 0.0000000000000000000, 0.0000000000000000000 ) ) ;
#206 = ORIENTED_EDGE ( 'NONE', *, *, #139, .F. ) ;
#207 = CARTESIAN_POINT ( 'NONE',  ( 2.621955040038593916E-34, 0.0000000000000000000, 2.140988766609360927E-18 ) ) ;
#208 = PRESENTATION_LAYER_ASSIGNMENT (  '', '', ( #103 ) ) ;
#209 = SURFACE_STYLE_USAGE ( .BOTH. , #233 ) ;
#210 = ORIENTED_EDGE ( 'NONE', *, *, #79, .T. ) ;
#211 = PRODUCT ( 'Micro_RME-035-2X', 'Micro_RME-035-2X', '', ( #113 ) ) ;
#212 = EDGE_LOOP ( 'NONE', ( #39, #152, #266, #182 ) ) ;
#213 = AXIS2_PLACEMENT_3D ( 'NONE', #105, #172, #102 ) ;
#214 = ORIENTED_EDGE ( 'NONE', *, *, #272, .F. ) ;
#215 = DIRECTION ( 'NONE',  ( 1.000000000000000000, 0.0000000000000000000, 0.0000000000000000000 ) ) ;
#216 = ADVANCED_FACE ( 'NONE', ( #256 ), #226, .T. ) ;
#217 = ADVANCED_FACE ( 'NONE', ( #52 ), #73, .F. ) ;
#218 = ORIENTED_EDGE ( 'NONE', *, *, #276, .F. ) ;
#219 = DIMENSIONAL_EXPONENTS ( 1.000000000000000000, 0.0000000000000000000, 0.0000000000000000000, 0.0000000000000000000, 0.0000000000000000000, 0.0000000000000000000, 0.0000000000000000000 ) ;
#220 = CARTESIAN_POINT ( 'NONE',  ( -0.04750000000000064587, 0.0000000000000000000, 1.500000000000000222 ) ) ;
#221 = CONICAL_SURFACE ( 'NONE', #227, 0.01748250000000000151, 0.1745329251994338915 ) ;
#222 = EDGE_CURVE ( 'NONE', #242, #71, #153, .T. ) ;
#223 = DIRECTION ( 'NONE',  ( -1.224646799147353454E-16, -0.0000000000000000000, -1.000000000000000000 ) ) ;
#224 = FACE_OUTER_BOUND ( 'NONE', #237, .T. ) ;
#225 = DIRECTION ( 'NONE',  ( 0.0000000000000000000, 0.0000000000000000000, 1.000000000000000000 ) ) ;
#226 = CYLINDRICAL_SURFACE ( 'NONE', #287, 0.01748250000000000151 ) ;
#227 = AXIS2_PLACEMENT_3D ( 'NONE', #43, #288, #215 ) ;
#228 = AXIS2_PLACEMENT_3D ( 'NONE', #66, #176, #229 ) ;
#229 = DIRECTION ( 'NONE',  ( 1.000000000000000000, 0.0000000000000000000, -0.0000000000000000000 ) ) ;
#230 =( NAMED_UNIT ( * ) SI_UNIT ( $, .STERADIAN. ) SOLID_ANGLE_UNIT ( ) );
#231 = ORIENTED_EDGE ( 'NONE', *, *, #178, .T. ) ;
#232 = DIRECTION ( 'NONE',  ( 1.000000000000000000, 0.0000000000000000000, 0.0000000000000000000 ) ) ;
#233 = SURFACE_SIDE_STYLE ('',( #55 ) ) ;
#234 =( CONVERSION_BASED_UNIT ( 'INCH', #284 ) LENGTH_UNIT ( ) NAMED_UNIT ( #60 ) );
#235 = EDGE_LOOP ( 'NONE', ( #12, #124, #53, #121 ) ) ;
#236 = APPLICATION_CONTEXT ( 'automotive_design' ) ;
#237 = EDGE_LOOP ( 'NONE', ( #14, #23, #125, #198 ) ) ;
#238 =( NAMED_UNIT ( * ) PLANE_ANGLE_UNIT ( ) SI_UNIT ( $, .RADIAN. ) );
#239 = CONICAL_SURFACE ( 'NONE', #6, 0.04750000000000064587, 0.7853981633974466137 ) ;
#240 = CIRCLE ( 'NONE', #76, 0.04750000000000064587 ) ;
#241 = LINE ( 'NONE', #267, #261 ) ;
#242 = VERTEX_POINT ( 'NONE', #68 ) ;
#243 = CIRCLE ( 'NONE', #164, 0.04750000000000064587 ) ;
#244 = DIRECTION ( 'NONE',  ( 0.0000000000000000000, 0.0000000000000000000, -1.000000000000000000 ) ) ;
#245 =( CONVERSION_BASED_UNIT ( 'INCH', #140 ) LENGTH_UNIT ( ) NAMED_UNIT ( #106 ) );
#246 = DIRECTION ( 'NONE',  ( 1.000000000000000000, 0.0000000000000000000, 0.0000000000000000000 ) ) ;
#247 = PLANE ( 'NONE',  #16 ) ;
#248 = MECHANICAL_DESIGN_GEOMETRIC_PRESENTATION_REPRESENTATION (  '', ( #143 ), #20 ) ;
#249 = DIRECTION ( 'NONE',  ( -1.224646799147353454E-16, -0.0000000000000000000, -1.000000000000000000 ) ) ;
#250 =( LENGTH_UNIT ( ) NAMED_UNIT ( * ) SI_UNIT ( $, .METRE. ) );
#251 = DIRECTION ( 'NONE',  ( 1.000000000000000000, 0.0000000000000000000, 0.0000000000000000000 ) ) ;
#252 = VERTEX_POINT ( 'NONE', #160 ) ;
#253 = CARTESIAN_POINT ( 'NONE',  ( 1.285879139104721102E-17, 0.0000000000000000000, 0.1049999999999999961 ) ) ;
#254 = ADVANCED_FACE ( 'NONE', ( #138 ), #247, .T. ) ;
#255 = VECTOR ( 'NONE', #98, 39.37007874015747433 ) ;
#256 = FACE_OUTER_BOUND ( 'NONE', #162, .T. ) ;
#257 =( LENGTH_UNIT ( ) NAMED_UNIT ( * ) SI_UNIT ( $, .METRE. ) );
#258 = VERTEX_POINT ( 'NONE', #28 ) ;
#259 = ADVANCED_FACE ( 'NONE', ( #109 ), #126, .T. ) ;
#260 = CARTESIAN_POINT ( 'NONE',  ( 0.0000000000000000000, 0.0000000000000000000, 0.0000000000000000000 ) ) ;
#261 = VECTOR ( 'NONE', #127, 39.37007874015748143 ) ;
#262 = AXIS2_PLACEMENT_3D ( 'NONE', #64, #17, #104 ) ;
#263 = SURFACE_SIDE_STYLE ('',( #92 ) ) ;
#264 = PRODUCT_DEFINITION_FORMATION_WITH_SPECIFIED_SOURCE ( 'ANY', '', #211, .NOT_KNOWN. ) ;
#265 = EDGE_LOOP ( 'NONE', ( #206, #295, #97, #8 ) ) ;
#266 = ORIENTED_EDGE ( 'NONE', *, *, #36, .T. ) ;
#267 = CARTESIAN_POINT ( 'NONE',  ( 0.01748250000000000151, 2.140988766609360157E-18, -2.140988766609360927E-18 ) ) ;
#268 = CARTESIAN_POINT ( 'NONE',  ( -0.06249999999999997918, 0.0000000000000000000, 0.3603069293146389240 ) ) ;
#269 =( GEOMETRIC_REPRESENTATION_CONTEXT ( 3 ) GLOBAL_UNCERTAINTY_ASSIGNED_CONTEXT ( ( #155 ) ) GLOBAL_UNIT_ASSIGNED_CONTEXT ( ( #234, #238, #142 ) ) REPRESENTATION_CONTEXT ( 'NONE', 'WORKASPACE' ) );
#270 = DIRECTION ( 'NONE',  ( -1.224646799147353454E-16, -0.0000000000000000000, -1.000000000000000000 ) ) ;
#271 = DIRECTION ( 'NONE',  ( -1.224646799147353454E-16, -0.0000000000000000000, -1.000000000000000000 ) ) ;
#272 = EDGE_CURVE ( 'NONE', #258, #10, #24, .T. ) ;
#273 = DIRECTION ( 'NONE',  ( 1.000000000000000000, 0.0000000000000000000, 0.0000000000000000000 ) ) ;
#274 = DIRECTION ( 'NONE',  ( 1.000000000000000000, 0.0000000000000000000, 0.0000000000000000000 ) ) ;
#275 = ORIENTED_EDGE ( 'NONE', *, *, #117, .T. ) ;
#276 = EDGE_CURVE ( 'NONE', #10, #258, #170, .T. ) ;
#277 = CYLINDRICAL_SURFACE ( 'NONE', #31, 0.06250000000000002776 ) ;
#278 = CARTESIAN_POINT ( 'NONE',  ( -0.06250000000000002776, 0.0000000000000000000, 1.500000000000000222 ) ) ;
#279 = VERTEX_POINT ( 'NONE', #157 ) ;
#280 = AXIS2_PLACEMENT_3D ( 'NONE', #163, #271, #274 ) ;
#281 = ORIENTED_EDGE ( 'NONE', *, *, #222, .F. ) ;
#282 = APPLICATION_CONTEXT ( 'automotive_design' ) ;
#283 = DIRECTION ( 'NONE',  ( -1.000000000000000000, 0.0000000000000000000, 0.0000000000000000000 ) ) ;
#284 = LENGTH_MEASURE_WITH_UNIT ( LENGTH_MEASURE( 0.02539999999999999897 ), #257 );
#285 = EDGE_LOOP ( 'NONE', ( #99, #119, #78, #54 ) ) ;
#286 = LINE ( 'NONE', #75, #35 ) ;
#287 = AXIS2_PLACEMENT_3D ( 'NONE', #180, #249, #144 ) ;
#288 = DIRECTION ( 'NONE',  ( 1.224646799147353454E-16, 0.0000000000000000000, 1.000000000000000000 ) ) ;
#289 = ADVANCED_FACE ( 'NONE', ( #29 ), #115, .T. ) ;
#290 = FILL_AREA_STYLE_COLOUR ( '', #294 ) ;
#291 = CARTESIAN_POINT ( 'NONE',  ( 0.0000000000000000000, 0.0000000000000000000, 1.500000000000000222 ) ) ;
#292 = VECTOR ( 'NONE', #196, 39.37007874015748143 ) ;
#293 = EDGE_CURVE ( 'NONE', #27, #30, #61, .T. ) ;
#294 = COLOUR_RGB ( '',0.7921568627450980005, 0.8196078431372548767, 0.9333333333333333481 ) ;
#295 = ORIENTED_EDGE ( 'NONE', *, *, #174, .T. ) ;
#296 = MANIFOLD_SOLID_BREP ( 'Cut-Revolve1', #148 ) ;
#297 =( NAMED_UNIT ( * ) SI_UNIT ( $, .STERADIAN. ) SOLID_ANGLE_UNIT ( ) );
#298 = EDGE_LOOP ( 'NONE', ( #231, #38, #218, #147 ) ) ;
#299 = AXIS2_PLACEMENT_3D ( 'NONE', #62, #22, #188 ) ;
ENDSEC;
END-ISO-10303-21;
