ISO-10303-21;
HEADER;
FILE_DESCRIPTION (( 'STEP AP214' ),
    '1' );
FILE_NAME ('81464.STEP',
    '2023-06-30T22:29:01',
    ( '' ),
    ( '' ),
    'SwSTEP 2.0',
    'SolidWorks 2023',
    '' );
FILE_SCHEMA (( 'AUTOMOTIVE_DESIGN' ));
ENDSEC;

DATA;
#1 = DIMENSIONAL_EXPONENTS ( 1.000000000000000000, 0.000000000000000000, 0.000000000000000000, 0.000000000000000000, 0.000000000000000000, 0.000000000000000000, 0.000000000000000000 ) ;
#2 = SURFACE_STYLE_USAGE ( .BOTH. , #64 ) ;
#3 =( CONVERSION_BASED_UNIT ( 'INCH', #156 ) LENGTH_UNIT ( ) NAMED_UNIT ( #149 ) );
#4 = UNCERTAINTY_MEASURE_WITH_UNIT (LENGTH_MEASURE( 1.000000000000000082E-05 ), #295, 'distance_accuracy_value', 'NONE');
#5 = ORIENTED_EDGE ( 'NONE', *, *, #67, .T. ) ;
#6 = LINE ( 'NONE', #36, #131 ) ;
#7 = ADVANCED_FACE ( 'NONE', ( #270 ), #9, .T. ) ;
#8 = LENGTH_MEASURE_WITH_UNIT ( LENGTH_MEASURE( 0.02539999999999999897 ), #373 );
#9 = CYLINDRICAL_SURFACE ( 'NONE', #134, 0.1562499999999999445 ) ;
#10 = AXIS2_PLACEMENT_3D ( 'NONE', #329, #280, #136 ) ;
#11 = PRODUCT_CONTEXT ( 'NONE', #40, 'mechanical' ) ;
#12 = FILL_AREA_STYLE ('',( #71 ) ) ;
#13 = UNCERTAINTY_MEASURE_WITH_UNIT (LENGTH_MEASURE( 1.000000000000000082E-05 ), #125, 'distance_accuracy_value', 'NONE');
#14 = ORIENTED_EDGE ( 'NONE', *, *, #308, .T. ) ;
#15 = SURFACE_STYLE_FILL_AREA ( #122 ) ;
#16 = ORIENTED_EDGE ( 'NONE', *, *, #302, .T. ) ;
#17 = ORIENTED_EDGE ( 'NONE', *, *, #368, .F. ) ;
#18 = CIRCLE ( 'NONE', #328, 0.1562500000000000000 ) ;
#19 = AXIS2_PLACEMENT_3D ( 'NONE', #137, #300, #355 ) ;
#20 = SURFACE_SIDE_STYLE ('',( #360 ) ) ;
#21 = CYLINDRICAL_SURFACE ( 'NONE', #19, 0.1562499999999999445 ) ;
#22 = EDGE_CURVE ( 'NONE', #193, #191, #206, .T. ) ;
#23 =( NAMED_UNIT ( * ) SI_UNIT ( $, .STERADIAN. ) SOLID_ANGLE_UNIT ( ) );
#24 = FILL_AREA_STYLE ('',( #330 ) ) ;
#25 =( GEOMETRIC_REPRESENTATION_CONTEXT ( 3 ) GLOBAL_UNCERTAINTY_ASSIGNED_CONTEXT ( ( #13 ) ) GLOBAL_UNIT_ASSIGNED_CONTEXT ( ( #125, #341, #348 ) ) REPRESENTATION_CONTEXT ( 'NONE', 'WORKASPACE' ) );
#26 = SURFACE_STYLE_FILL_AREA ( #284 ) ;
#27 = DIRECTION ( 'NONE',  ( 0.000000000000000000, 0.000000000000000000, -1.000000000000000000 ) ) ;
#28 = DIRECTION ( 'NONE',  ( -1.224646799147352961E-16, 1.000000000000000000, -0.000000000000000000 ) ) ;
#29 = CYLINDRICAL_SURFACE ( 'NONE', #127, 0.1562499999999998612 ) ;
#30 =( LENGTH_UNIT ( ) NAMED_UNIT ( * ) SI_UNIT ( $, .METRE. ) );
#31 = DIRECTION ( 'NONE',  ( -1.224646799147352961E-16, 1.000000000000000000, -0.000000000000000000 ) ) ;
#32 = DIRECTION ( 'NONE',  ( 0.000000000000000000, 0.000000000000000000, -1.000000000000000000 ) ) ;
#33 =( NAMED_UNIT ( * ) SI_UNIT ( $, .STERADIAN. ) SOLID_ANGLE_UNIT ( ) );
#34 = SPHERICAL_SURFACE ( 'NONE', #231, 0.1562500000000000000 ) ;
#35 = STYLED_ITEM ( 'NONE', ( #321 ), #244 ) ;
#36 = CARTESIAN_POINT ( 'NONE',  ( 0.1562499999999998057, 2.500000000000000000, 1.913510623667737923E-17 ) ) ;
#37 = ADVANCED_FACE ( 'NONE', ( #358 ), #306, .T. ) ;
#38 =( NAMED_UNIT ( * ) PLANE_ANGLE_UNIT ( ) SI_UNIT ( $, .RADIAN. ) );
#39 = DIRECTION ( 'NONE',  ( 0.000000000000000000, -0.000000000000000000, 1.000000000000000000 ) ) ;
#40 = APPLICATION_CONTEXT ( 'automotive_design' ) ;
#41 = ORIENTED_EDGE ( 'NONE', *, *, #356, .T. ) ;
#42 = SURFACE_STYLE_USAGE ( .BOTH. , #314 ) ;
#43 = ORIENTED_EDGE ( 'NONE', *, *, #114, .F. ) ;
#44 =( LENGTH_UNIT ( ) NAMED_UNIT ( * ) SI_UNIT ( $, .METRE. ) );
#45 = PRODUCT_RELATED_PRODUCT_CATEGORY ( 'part', '', ( #123 ) ) ;
#46 = ORIENTED_EDGE ( 'NONE', *, *, #55, .F. ) ;
#47 = ORIENTED_EDGE ( 'NONE', *, *, #320, .F. ) ;
#48 = CARTESIAN_POINT ( 'NONE',  ( 1.530808498934191571E-16, 0.7500000000000001110, 0.000000000000000000 ) ) ;
#49 = CIRCLE ( 'NONE', #264, 0.1562499999999997780 ) ;
#50 = DIRECTION ( 'NONE',  ( -1.224646799147352961E-16, 1.000000000000000000, -0.000000000000000000 ) ) ;
#51 = CARTESIAN_POINT ( 'NONE',  ( -0.1562499999999996392, 0.7499999999999998890, 0.000000000000000000 ) ) ;
#52 = CARTESIAN_POINT ( 'NONE',  ( 1.530808498934191078E-16, 0.7499999999999998890, 0.000000000000000000 ) ) ;
#53 = SURFACE_STYLE_USAGE ( .BOTH. , #20 ) ;
#54 = CLOSED_SHELL ( 'NONE', ( #336, #7, #197, #313, #159 ) ) ;
#55 = EDGE_CURVE ( 'NONE', #191, #319, #226, .T. ) ;
#56 =( CONVERSION_BASED_UNIT ( 'INCH', #234 ) LENGTH_UNIT ( ) NAMED_UNIT ( #372 ) );
#57 = FACE_OUTER_BOUND ( 'NONE', #104, .T. ) ;
#58 = LINE ( 'NONE', #192, #162 ) ;
#59 = CIRCLE ( 'NONE', #343, 0.1562499999999999167 ) ;
#60 = PRESENTATION_STYLE_ASSIGNMENT (( #2 ) ) ;
#61 = MECHANICAL_DESIGN_GEOMETRIC_PRESENTATION_REPRESENTATION (  '', ( #146 ), #25 ) ;
#62 = PRODUCT_DEFINITION_SHAPE ( 'NONE', 'NONE',  #350 ) ;
#63 =( CONVERSION_BASED_UNIT ( 'INCH', #310 ) LENGTH_UNIT ( ) NAMED_UNIT ( #1 ) );
#64 = SURFACE_SIDE_STYLE ('',( #96 ) ) ;
#65 = CARTESIAN_POINT ( 'NONE',  ( 0.000000000000000000, 0.000000000000000000, 0.000000000000000000 ) ) ;
#66 = CARTESIAN_POINT ( 'NONE',  ( -1.913510623667739463E-17, 0.1562500000000000000, 0.000000000000000000 ) ) ;
#67 = EDGE_CURVE ( 'NONE', #193, #72, #117, .T. ) ;
#68 = PRESENTATION_LAYER_ASSIGNMENT (  '', '', ( #201 ) ) ;
#69 = DIMENSIONAL_EXPONENTS ( 1.000000000000000000, 0.000000000000000000, 0.000000000000000000, 0.000000000000000000, 0.000000000000000000, 0.000000000000000000, 0.000000000000000000 ) ;
#70 = PLANE ( 'NONE',  #115 ) ;
#71 = FILL_AREA_STYLE_COLOUR ( '', #346 ) ;
#72 = VERTEX_POINT ( 'NONE', #116 ) ;
#73 = CARTESIAN_POINT ( 'NONE',  ( 0.000000000000000000, 0.1562500000000000278, -0.1562500000000000000 ) ) ;
#74 = VERTEX_POINT ( 'NONE', #112 ) ;
#75 = MECHANICAL_DESIGN_GEOMETRIC_PRESENTATION_REPRESENTATION (  '', ( #201 ), #242 ) ;
#76 = ORIENTED_EDGE ( 'NONE', *, *, #22, .F. ) ;
#77 = DIRECTION ( 'NONE',  ( 1.000000000000000000, 0.000000000000000000, 0.000000000000000000 ) ) ;
#78 = EDGE_CURVE ( 'NONE', #165, #191, #333, .T. ) ;
#79 = DIRECTION ( 'NONE',  ( -1.000000000000000000, 0.000000000000000000, 0.000000000000000000 ) ) ;
#80 = MECHANICAL_DESIGN_GEOMETRIC_PRESENTATION_REPRESENTATION (  '', ( #35 ), #294 ) ;
#81 = CARTESIAN_POINT ( 'NONE',  ( -6.123233995736766036E-17, 2.500000000000000000, 0.000000000000000000 ) ) ;
#82 = CARTESIAN_POINT ( 'NONE',  ( -6.123233995736766036E-17, 2.500000000000000000, 0.000000000000000000 ) ) ;
#83 = SURFACE_SIDE_STYLE ('',( #227 ) ) ;
#84 = CARTESIAN_POINT ( 'NONE',  ( -6.123233995736766036E-17, 2.500000000000000000, 0.000000000000000000 ) ) ;
#85 = DIRECTION ( 'NONE',  ( -0.000000000000000000, -1.000000000000000000, -0.000000000000000000 ) ) ;
#86 = CIRCLE ( 'NONE', #287, 0.1562499999999999722 ) ;
#87 = DIRECTION ( 'NONE',  ( -0.000000000000000000, -1.000000000000000000, -0.000000000000000000 ) ) ;
#88 = CARTESIAN_POINT ( 'NONE',  ( 0.000000000000000000, 0.7500000000000001110, 0.000000000000000000 ) ) ;
#89 = MECHANICAL_DESIGN_GEOMETRIC_PRESENTATION_REPRESENTATION (  '', ( #312 ), #147 ) ;
#90 = SURFACE_STYLE_USAGE ( .BOTH. , #339 ) ;
#91 =( NAMED_UNIT ( * ) PLANE_ANGLE_UNIT ( ) SI_UNIT ( $, .RADIAN. ) );
#92 = PRESENTATION_STYLE_ASSIGNMENT (( #257 ) ) ;
#93 =( NAMED_UNIT ( * ) SI_UNIT ( $, .STERADIAN. ) SOLID_ANGLE_UNIT ( ) );
#94 = AXIS2_PLACEMENT_3D ( 'NONE', #230, #85, #27 ) ;
#95 = LENGTH_MEASURE_WITH_UNIT ( LENGTH_MEASURE( 0.02539999999999999897 ), #184 );
#96 = SURFACE_STYLE_FILL_AREA ( #269 ) ;
#97 = ADVANCED_FACE ( 'NONE', ( #208 ), #298, .F. ) ;
#98 = PRESENTATION_STYLE_ASSIGNMENT (( #303 ) ) ;
#99 = DIMENSIONAL_EXPONENTS ( 1.000000000000000000, 0.000000000000000000, 0.000000000000000000, 0.000000000000000000, 0.000000000000000000, 0.000000000000000000, 0.000000000000000000 ) ;
#100 = VECTOR ( 'NONE', #172, 39.37007874015748143 ) ;
#101 = ORIENTED_EDGE ( 'NONE', *, *, #238, .T. ) ;
#102 = DIRECTION ( 'NONE',  ( 0.000000000000000000, 1.000000000000000000, 0.000000000000000000 ) ) ;
#103 = ORIENTED_EDGE ( 'NONE', *, *, #78, .F. ) ;
#104 = EDGE_LOOP ( 'NONE', ( #76, #5, #101, #43, #46 ) ) ;
#105 = APPLICATION_PROTOCOL_DEFINITION ( 'draft international standard', 'automotive_design', 1998, #315 ) ;
#106 =( GEOMETRIC_REPRESENTATION_CONTEXT ( 3 ) GLOBAL_UNCERTAINTY_ASSIGNED_CONTEXT ( ( #181 ) ) GLOBAL_UNIT_ASSIGNED_CONTEXT ( ( #56, #148, #361 ) ) REPRESENTATION_CONTEXT ( 'NONE', 'WORKASPACE' ) );
#107 = ORIENTED_EDGE ( 'NONE', *, *, #302, .F. ) ;
#108 = ORIENTED_EDGE ( 'NONE', *, *, #276, .T. ) ;
#109 =( GEOMETRIC_REPRESENTATION_CONTEXT ( 3 ) GLOBAL_UNCERTAINTY_ASSIGNED_CONTEXT ( ( #232 ) ) GLOBAL_UNIT_ASSIGNED_CONTEXT ( ( #152, #38, #93 ) ) REPRESENTATION_CONTEXT ( 'NONE', 'WORKASPACE' ) );
#110 = DIRECTION ( 'NONE',  ( -0.000000000000000000, -1.000000000000000000, -0.000000000000000000 ) ) ;
#111 = CARTESIAN_POINT ( 'NONE',  ( -0.1562500000000000000, 0.1562500000000000278, 1.913510623667738847E-17 ) ) ;
#112 = CARTESIAN_POINT ( 'NONE',  ( 0.1562499999999999167, 2.500000000000000000, 1.913510623667738231E-17 ) ) ;
#113 = CARTESIAN_POINT ( 'NONE',  ( 0.1562500000000000000, 0.1562500000000000278, 0.000000000000000000 ) ) ;
#114 = EDGE_CURVE ( 'NONE', #319, #220, #18, .T. ) ;
#115 = AXIS2_PLACEMENT_3D ( 'NONE', #120, #121, #263 ) ;
#116 = CARTESIAN_POINT ( 'NONE',  ( 0.000000000000000000, 0.7500000000000001110, -0.1562499999999999167 ) ) ;
#117 = CIRCLE ( 'NONE', #173, 0.1562499999999999167 ) ;
#118 = CARTESIAN_POINT ( 'NONE',  ( 0.000000000000000000, 0.7500000000000001110, 0.000000000000000000 ) ) ;
#119 = SURFACE_SIDE_STYLE ('',( #26 ) ) ;
#120 = CARTESIAN_POINT ( 'NONE',  ( 0.1562499999999999167, 2.500000000000000000, 0.000000000000000000 ) ) ;
#121 = DIRECTION ( 'NONE',  ( 1.224646799147352961E-16, -1.000000000000000000, 0.000000000000000000 ) ) ;
#122 = FILL_AREA_STYLE ('',( #258 ) ) ;
#123 = PRODUCT ( '81464', '81464', '', ( #11 ) ) ;
#124 = EDGE_CURVE ( 'NONE', #135, #130, #49, .T. ) ;
#125 =( CONVERSION_BASED_UNIT ( 'INCH', #8 ) LENGTH_UNIT ( ) NAMED_UNIT ( #311 ) );
#126 = ORIENTED_EDGE ( 'NONE', *, *, #124, .T. ) ;
#127 = AXIS2_PLACEMENT_3D ( 'NONE', #84, #282, #174 ) ;
#128 = EDGE_LOOP ( 'NONE', ( #318, #133 ) ) ;
#129 = CARTESIAN_POINT ( 'NONE',  ( -1.913510623667739463E-17, 0.1562500000000000000, 0.000000000000000000 ) ) ;
#130 = VERTEX_POINT ( 'NONE', #51 ) ;
#131 = VECTOR ( 'NONE', #179, 39.37007874015748143 ) ;
#132 = SHAPE_DEFINITION_REPRESENTATION ( #62, #286 ) ;
#133 = ORIENTED_EDGE ( 'NONE', *, *, #124, .F. ) ;
#134 = AXIS2_PLACEMENT_3D ( 'NONE', #256, #277, #138 ) ;
#135 = VERTEX_POINT ( 'NONE', #170 ) ;
#136 = DIRECTION ( 'NONE',  ( 0.000000000000000000, 0.000000000000000000, -1.000000000000000000 ) ) ;
#137 = CARTESIAN_POINT ( 'NONE',  ( 0.000000000000000000, 0.000000000000000000, 0.000000000000000000 ) ) ;
#138 = DIRECTION ( 'NONE',  ( 0.000000000000000000, 0.000000000000000000, -1.000000000000000000 ) ) ;
#139 = PRESENTATION_LAYER_ASSIGNMENT (  '', '', ( #178 ) ) ;
#140 = FILL_AREA_STYLE ('',( #171 ) ) ;
#141 =( LENGTH_UNIT ( ) NAMED_UNIT ( * ) SI_UNIT ( $, .METRE. ) );
#142 = LENGTH_MEASURE_WITH_UNIT ( LENGTH_MEASURE( 0.02539999999999999897 ), #141 );
#143 = FACE_OUTER_BOUND ( 'NONE', #268, .T. ) ;
#144 = PRESENTATION_STYLE_ASSIGNMENT (( #42 ) ) ;
#145 = CLOSED_SHELL ( 'NONE', ( #37, #97, #246, #362 ) ) ;
#146 = STYLED_ITEM ( 'NONE', ( #98 ), #159 ) ;
#147 =( GEOMETRIC_REPRESENTATION_CONTEXT ( 3 ) GLOBAL_UNCERTAINTY_ASSIGNED_CONTEXT ( ( #292 ) ) GLOBAL_UNIT_ASSIGNED_CONTEXT ( ( #63, #185, #23 ) ) REPRESENTATION_CONTEXT ( 'NONE', 'WORKASPACE' ) );
#148 =( NAMED_UNIT ( * ) PLANE_ANGLE_UNIT ( ) SI_UNIT ( $, .RADIAN. ) );
#149 = DIMENSIONAL_EXPONENTS ( 1.000000000000000000, 0.000000000000000000, 0.000000000000000000, 0.000000000000000000, 0.000000000000000000, 0.000000000000000000, 0.000000000000000000 ) ;
#150 = DIRECTION ( 'NONE',  ( 0.000000000000000000, 0.000000000000000000, 1.000000000000000000 ) ) ;
#151 =( NAMED_UNIT ( * ) PLANE_ANGLE_UNIT ( ) SI_UNIT ( $, .RADIAN. ) );
#152 =( CONVERSION_BASED_UNIT ( 'INCH', #95 ) LENGTH_UNIT ( ) NAMED_UNIT ( #245 ) );
#153 = SURFACE_STYLE_FILL_AREA ( #12 ) ;
#154 = AXIS2_PLACEMENT_3D ( 'NONE', #225, #203, #79 ) ;
#155 = EDGE_LOOP ( 'NONE', ( #290, #108 ) ) ;
#156 = LENGTH_MEASURE_WITH_UNIT ( LENGTH_MEASURE( 0.02539999999999999897 ), #266 );
#157 = ORIENTED_EDGE ( 'NONE', *, *, #114, .T. ) ;
#158 = DIRECTION ( 'NONE',  ( 0.000000000000000000, 0.000000000000000000, 1.000000000000000000 ) ) ;
#159 = ADVANCED_FACE ( 'NONE', ( #279 ), #34, .T. ) ;
#160 = LINE ( 'NONE', #176, #166 ) ;
#161 = PRESENTATION_LAYER_ASSIGNMENT (  '', '', ( #309 ) ) ;
#162 = VECTOR ( 'NONE', #291, 39.37007874015748143 ) ;
#163 = ORIENTED_EDGE ( 'NONE', *, *, #276, .F. ) ;
#164 = ORIENTED_EDGE ( 'NONE', *, *, #78, .T. ) ;
#165 = VERTEX_POINT ( 'NONE', #113 ) ;
#166 = VECTOR ( 'NONE', #283, 39.37007874015748143 ) ;
#167 = DIRECTION ( 'NONE',  ( -1.000000000000000000, 0.000000000000000000, 0.000000000000000000 ) ) ;
#168 = CARTESIAN_POINT ( 'NONE',  ( -0.1562500000000000278, 2.500000000000000000, 0.000000000000000000 ) ) ;
#169 = CIRCLE ( 'NONE', #217, 0.1562499999999997780 ) ;
#170 = CARTESIAN_POINT ( 'NONE',  ( 0.1562499999999999167, 0.7499999999999998890, 1.913510623667738231E-17 ) ) ;
#171 = FILL_AREA_STYLE_COLOUR ( '', #325 ) ;
#172 = DIRECTION ( 'NONE',  ( -0.000000000000000000, -1.000000000000000000, -0.000000000000000000 ) ) ;
#173 = AXIS2_PLACEMENT_3D ( 'NONE', #88, #357, #204 ) ;
#174 = DIRECTION ( 'NONE',  ( -1.000000000000000000, 0.000000000000000000, 0.000000000000000000 ) ) ;
#175 = FILL_AREA_STYLE ('',( #347 ) ) ;
#176 = CARTESIAN_POINT ( 'NONE',  ( 0.000000000000000000, 0.000000000000000000, -0.1562499999999999445 ) ) ;
#177 = UNCERTAINTY_MEASURE_WITH_UNIT (LENGTH_MEASURE( 1.000000000000000082E-05 ), #261, 'distance_accuracy_value', 'NONE');
#178 = STYLED_ITEM ( 'NONE', ( #92 ), #248 ) ;
#179 = DIRECTION ( 'NONE',  ( -1.224646799147352961E-16, 1.000000000000000000, -0.000000000000000000 ) ) ;
#180 = DIRECTION ( 'NONE',  ( -1.000000000000000000, 0.000000000000000000, 0.000000000000000000 ) ) ;
#181 = UNCERTAINTY_MEASURE_WITH_UNIT (LENGTH_MEASURE( 1.000000000000000082E-05 ), #56, 'distance_accuracy_value', 'NONE');
#182 = EDGE_CURVE ( 'NONE', #319, #247, #323, .T. ) ;
#183 = CIRCLE ( 'NONE', #154, 0.1562500000000000000 ) ;
#184 =( LENGTH_UNIT ( ) NAMED_UNIT ( * ) SI_UNIT ( $, .METRE. ) );
#185 =( NAMED_UNIT ( * ) PLANE_ANGLE_UNIT ( ) SI_UNIT ( $, .RADIAN. ) );
#186 = UNCERTAINTY_MEASURE_WITH_UNIT (LENGTH_MEASURE( 1.000000000000000082E-05 ), #228, 'distance_accuracy_value', 'NONE');
#187 = FILL_AREA_STYLE_COLOUR ( '', #267 ) ;
#188 = AXIS2_PLACEMENT_3D ( 'NONE', #48, #275, #301 ) ;
#189 = DIRECTION ( 'NONE',  ( 1.000000000000000000, 0.000000000000000000, -1.224646799147353207E-16 ) ) ;
#190 = CARTESIAN_POINT ( 'NONE',  ( -6.123233995736766036E-17, 2.500000000000000000, 0.000000000000000000 ) ) ;
#191 = VERTEX_POINT ( 'NONE', #218 ) ;
#192 = CARTESIAN_POINT ( 'NONE',  ( -0.1562499999999999445, 2.500000000000000000, 0.000000000000000000 ) ) ;
#193 = VERTEX_POINT ( 'NONE', #239 ) ;
#194 = LENGTH_MEASURE_WITH_UNIT ( LENGTH_MEASURE( 0.02539999999999999897 ), #44 );
#195 =( GEOMETRIC_REPRESENTATION_CONTEXT ( 3 ) GLOBAL_UNCERTAINTY_ASSIGNED_CONTEXT ( ( #186 ) ) GLOBAL_UNIT_ASSIGNED_CONTEXT ( ( #228, #327, #335 ) ) REPRESENTATION_CONTEXT ( 'NONE', 'WORKASPACE' ) );
#196 = ORIENTED_EDGE ( 'NONE', *, *, #252, .T. ) ;
#197 = ADVANCED_FACE ( 'NONE', ( #216 ), #288, .T. ) ;
#198 = PRESENTATION_LAYER_ASSIGNMENT (  '', '', ( #312 ) ) ;
#199 = ORIENTED_EDGE ( 'NONE', *, *, #182, .T. ) ;
#200 = COLOUR_RGB ( '',1.000000000000000000, 0.000000000000000000, 0.000000000000000000 ) ;
#201 = STYLED_ITEM ( 'NONE', ( #144 ), #197 ) ;
#202 = CARTESIAN_POINT ( 'NONE',  ( 1.530808498934191078E-16, 0.7499999999999998890, 0.000000000000000000 ) ) ;
#203 = DIRECTION ( 'NONE',  ( 0.000000000000000000, 0.000000000000000000, -1.000000000000000000 ) ) ;
#204 = DIRECTION ( 'NONE',  ( 0.000000000000000000, 0.000000000000000000, -1.000000000000000000 ) ) ;
#205 = PRODUCT_DEFINITION_FORMATION_WITH_SPECIFIED_SOURCE ( 'ANY', '', #123, .NOT_KNOWN. ) ;
#206 = LINE ( 'NONE', #254, #100 ) ;
#207 = DIRECTION ( 'NONE',  ( 0.000000000000000000, 0.000000000000000000, -1.000000000000000000 ) ) ;
#208 = FACE_OUTER_BOUND ( 'NONE', #128, .T. ) ;
#209 = AXIS2_PLACEMENT_3D ( 'NONE', #289, #102, #39 ) ;
#210 = DIRECTION ( 'NONE',  ( -1.224646799147352961E-16, 1.000000000000000000, -0.000000000000000000 ) ) ;
#211 = DIRECTION ( 'NONE',  ( 1.000000000000000000, 0.000000000000000000, 0.000000000000000000 ) ) ;
#212 =( LENGTH_UNIT ( ) NAMED_UNIT ( * ) SI_UNIT ( $, .METRE. ) );
#213 = PRESENTATION_STYLE_ASSIGNMENT (( #90 ) ) ;
#214 = MECHANICAL_DESIGN_GEOMETRIC_PRESENTATION_REPRESENTATION (  '', ( #309 ), #195 ) ;
#215 = COLOUR_RGB ( '',0.7921568627450980005, 0.8196078431372548767, 0.9333333333333333481 ) ;
#216 = FACE_OUTER_BOUND ( 'NONE', #250, .T. ) ;
#217 = AXIS2_PLACEMENT_3D ( 'NONE', #52, #210, #307 ) ;
#218 = CARTESIAN_POINT ( 'NONE',  ( 1.913510623667739463E-17, 0.1562500000000000278, 0.1562500000000000000 ) ) ;
#219 = ORIENTED_EDGE ( 'NONE', *, *, #238, .F. ) ;
#220 = VERTEX_POINT ( 'NONE', #73 ) ;
#221 = SURFACE_STYLE_USAGE ( .BOTH. , #249 ) ;
#222 = ORIENTED_EDGE ( 'NONE', *, *, #55, .T. ) ;
#223 = ORIENTED_EDGE ( 'NONE', *, *, #22, .T. ) ;
#224 = DIRECTION ( 'NONE',  ( 0.000000000000000000, 0.000000000000000000, -1.000000000000000000 ) ) ;
#225 = CARTESIAN_POINT ( 'NONE',  ( -1.913510623667739463E-17, 0.1562500000000000000, 0.000000000000000000 ) ) ;
#226 = CIRCLE ( 'NONE', #10, 0.1562500000000000000 ) ;
#227 = SURFACE_STYLE_FILL_AREA ( #24 ) ;
#228 =( CONVERSION_BASED_UNIT ( 'INCH', #142 ) LENGTH_UNIT ( ) NAMED_UNIT ( #69 ) );
#229 = EDGE_CURVE ( 'NONE', #130, #324, #58, .T. ) ;
#230 = CARTESIAN_POINT ( 'NONE',  ( 0.000000000000000000, 0.1562500000000000278, 0.000000000000000000 ) ) ;
#231 = AXIS2_PLACEMENT_3D ( 'NONE', #66, #370, #211 ) ;
#232 = UNCERTAINTY_MEASURE_WITH_UNIT (LENGTH_MEASURE( 1.000000000000000082E-05 ), #152, 'distance_accuracy_value', 'NONE');
#233 = DIRECTION ( 'NONE',  ( -1.000000000000000000, 0.000000000000000000, 0.000000000000000000 ) ) ;
#234 = LENGTH_MEASURE_WITH_UNIT ( LENGTH_MEASURE( 0.02539999999999999897 ), #30 );
#235 = DIRECTION ( 'NONE',  ( 1.224646799147353207E-16, -0.000000000000000000, 1.000000000000000000 ) ) ;
#236 = APPLICATION_PROTOCOL_DEFINITION ( 'draft international standard', 'automotive_design', 1998, #40 ) ;
#237 = MECHANICAL_DESIGN_GEOMETRIC_PRESENTATION_REPRESENTATION (  '', ( #365 ), #109 ) ;
#238 = EDGE_CURVE ( 'NONE', #72, #220, #160, .T. ) ;
#239 = CARTESIAN_POINT ( 'NONE',  ( 1.913510623667738231E-17, 0.7500000000000001110, 0.1562499999999999167 ) ) ;
#240 = PRODUCT_DEFINITION_CONTEXT ( 'detailed design', #315, 'design' ) ;
#241 = EDGE_LOOP ( 'NONE', ( #16, #223, #103, #273, #219 ) ) ;
#242 =( GEOMETRIC_REPRESENTATION_CONTEXT ( 3 ) GLOBAL_UNCERTAINTY_ASSIGNED_CONTEXT ( ( #344 ) ) GLOBAL_UNIT_ASSIGNED_CONTEXT ( ( #3, #151, #345 ) ) REPRESENTATION_CONTEXT ( 'NONE', 'WORKASPACE' ) );
#243 = ORIENTED_EDGE ( 'NONE', *, *, #182, .F. ) ;
#244 = MANIFOLD_SOLID_BREP ( 'Revolve - Cutting Edge', #54 ) ;
#245 = DIMENSIONAL_EXPONENTS ( 1.000000000000000000, 0.000000000000000000, 0.000000000000000000, 0.000000000000000000, 0.000000000000000000, 0.000000000000000000, 0.000000000000000000 ) ;
#246 = ADVANCED_FACE ( 'NONE', ( #143 ), #29, .T. ) ;
#247 = VERTEX_POINT ( 'NONE', #255 ) ;
#248 = MANIFOLD_SOLID_BREP ( 'Revolve - Tool Body (Straight Shanked)', #145 ) ;
#249 = SURFACE_SIDE_STYLE ('',( #15 ) ) ;
#250 = EDGE_LOOP ( 'NONE', ( #107, #296 ) ) ;
#251 = AXIS2_PLACEMENT_3D ( 'NONE', #334, #87, #207 ) ;
#252 = EDGE_CURVE ( 'NONE', #220, #165, #304, .T. ) ;
#253 = PRESENTATION_STYLE_ASSIGNMENT (( #53 ) ) ;
#254 = CARTESIAN_POINT ( 'NONE',  ( 1.913510623667738539E-17, 0.000000000000000000, 0.1562499999999999445 ) ) ;
#255 = CARTESIAN_POINT ( 'NONE',  ( -9.567553118338697316E-18, 0.000000000000000000, 0.000000000000000000 ) ) ;
#256 = CARTESIAN_POINT ( 'NONE',  ( 0.000000000000000000, 0.000000000000000000, 0.000000000000000000 ) ) ;
#257 = SURFACE_STYLE_USAGE ( .BOTH. , #119 ) ;
#258 = FILL_AREA_STYLE_COLOUR ( '', #215 ) ;
#259 = COLOUR_RGB ( '',1.000000000000000000, 0.000000000000000000, 0.000000000000000000 ) ;
#260 = PRESENTATION_LAYER_ASSIGNMENT (  '', '', ( #365 ) ) ;
#261 =( CONVERSION_BASED_UNIT ( 'INCH', #338 ) LENGTH_UNIT ( ) NAMED_UNIT ( #99 ) );
#262 = SURFACE_STYLE_FILL_AREA ( #140 ) ;
#263 = DIRECTION ( 'NONE',  ( 1.000000000000000000, 1.224646799147352961E-16, 0.000000000000000000 ) ) ;
#264 = AXIS2_PLACEMENT_3D ( 'NONE', #202, #50, #167 ) ;
#265 = FACE_OUTER_BOUND ( 'NONE', #322, .T. ) ;
#266 =( LENGTH_UNIT ( ) NAMED_UNIT ( * ) SI_UNIT ( $, .METRE. ) );
#267 = COLOUR_RGB ( '',1.000000000000000000, 0.000000000000000000, 0.000000000000000000 ) ;
#268 = EDGE_LOOP ( 'NONE', ( #297, #126, #293, #163 ) ) ;
#269 = FILL_AREA_STYLE ('',( #187 ) ) ;
#270 = FACE_OUTER_BOUND ( 'NONE', #241, .T. ) ;
#271 = EDGE_LOOP ( 'NONE', ( #14, #41, #17, #352 ) ) ;
#272 = ORIENTED_EDGE ( 'NONE', *, *, #320, .T. ) ;
#273 = ORIENTED_EDGE ( 'NONE', *, *, #252, .F. ) ;
#274 = PRESENTATION_LAYER_ASSIGNMENT (  '', '', ( #146 ) ) ;
#275 = DIRECTION ( 'NONE',  ( -1.224646799147352961E-16, 1.000000000000000000, 0.000000000000000000 ) ) ;
#276 = EDGE_CURVE ( 'NONE', #74, #324, #86, .T. ) ;
#277 = DIRECTION ( 'NONE',  ( -0.000000000000000000, -1.000000000000000000, -0.000000000000000000 ) ) ;
#278 = AXIS2_PLACEMENT_3D ( 'NONE', #65, #158, #77 ) ;
#279 = FACE_OUTER_BOUND ( 'NONE', #326, .T. ) ;
#280 = DIRECTION ( 'NONE',  ( -0.000000000000000000, -1.000000000000000000, -0.000000000000000000 ) ) ;
#281 = CIRCLE ( 'NONE', #359, 0.1562499999999999722 ) ;
#282 = DIRECTION ( 'NONE',  ( -1.224646799147352961E-16, 1.000000000000000000, -0.000000000000000000 ) ) ;
#283 = DIRECTION ( 'NONE',  ( -0.000000000000000000, -1.000000000000000000, -0.000000000000000000 ) ) ;
#284 = FILL_AREA_STYLE ('',( #305 ) ) ;
#285 = CARTESIAN_POINT ( 'NONE',  ( -1.913510623667739463E-17, 0.1562500000000000000, 0.000000000000000000 ) ) ;
#286 = ADVANCED_BREP_SHAPE_REPRESENTATION ( '81464', ( #244, #248, #278 ), #353 ) ;
#287 = AXIS2_PLACEMENT_3D ( 'NONE', #82, #364, #180 ) ;
#288 = PLANE ( 'NONE',  #209 ) ;
#289 = CARTESIAN_POINT ( 'NONE',  ( 0.000000000000000000, 0.7500000000000001110, 0.000000000000000000 ) ) ;
#290 = ORIENTED_EDGE ( 'NONE', *, *, #368, .T. ) ;
#291 = DIRECTION ( 'NONE',  ( -1.224646799147352961E-16, 1.000000000000000000, -0.000000000000000000 ) ) ;
#292 = UNCERTAINTY_MEASURE_WITH_UNIT (LENGTH_MEASURE( 1.000000000000000082E-05 ), #63, 'distance_accuracy_value', 'NONE');
#293 = ORIENTED_EDGE ( 'NONE', *, *, #229, .T. ) ;
#294 =( GEOMETRIC_REPRESENTATION_CONTEXT ( 3 ) GLOBAL_UNCERTAINTY_ASSIGNED_CONTEXT ( ( #4 ) ) GLOBAL_UNIT_ASSIGNED_CONTEXT ( ( #295, #331, #367 ) ) REPRESENTATION_CONTEXT ( 'NONE', 'WORKASPACE' ) );
#295 =( CONVERSION_BASED_UNIT ( 'INCH', #194 ) LENGTH_UNIT ( ) NAMED_UNIT ( #342 ) );
#296 = ORIENTED_EDGE ( 'NONE', *, *, #67, .F. ) ;
#297 = ORIENTED_EDGE ( 'NONE', *, *, #356, .F. ) ;
#298 = PLANE ( 'NONE',  #188 ) ;
#299 = AXIS2_PLACEMENT_3D ( 'NONE', #81, #28, #332 ) ;
#300 = DIRECTION ( 'NONE',  ( -0.000000000000000000, -1.000000000000000000, -0.000000000000000000 ) ) ;
#301 = DIRECTION ( 'NONE',  ( -1.000000000000000000, -1.224646799147352961E-16, 0.000000000000000000 ) ) ;
#302 = EDGE_CURVE ( 'NONE', #72, #193, #59, .T. ) ;
#303 = SURFACE_STYLE_USAGE ( .BOTH. , #83 ) ;
#304 = CIRCLE ( 'NONE', #251, 0.1562500000000000000 ) ;
#305 = FILL_AREA_STYLE_COLOUR ( '', #371 ) ;
#306 = CYLINDRICAL_SURFACE ( 'NONE', #299, 0.1562499999999998612 ) ;
#307 = DIRECTION ( 'NONE',  ( -1.000000000000000000, 0.000000000000000000, 0.000000000000000000 ) ) ;
#308 = EDGE_CURVE ( 'NONE', #130, #135, #169, .T. ) ;
#309 = STYLED_ITEM ( 'NONE', ( #253 ), #7 ) ;
#310 = LENGTH_MEASURE_WITH_UNIT ( LENGTH_MEASURE( 0.02539999999999999897 ), #212 );
#311 = DIMENSIONAL_EXPONENTS ( 1.000000000000000000, 0.000000000000000000, 0.000000000000000000, 0.000000000000000000, 0.000000000000000000, 0.000000000000000000, 0.000000000000000000 ) ;
#312 = STYLED_ITEM ( 'NONE', ( #213 ), #313 ) ;
#313 = ADVANCED_FACE ( 'NONE', ( #57 ), #21, .T. ) ;
#314 = SURFACE_SIDE_STYLE ('',( #153 ) ) ;
#315 = APPLICATION_CONTEXT ( 'automotive_design' ) ;
#316 = DIRECTION ( 'NONE',  ( 1.000000000000000000, 0.000000000000000000, 0.000000000000000000 ) ) ;
#317 = SPHERICAL_SURFACE ( 'NONE', #349, 0.1562500000000000000 ) ;
#318 = ORIENTED_EDGE ( 'NONE', *, *, #308, .F. ) ;
#319 = VERTEX_POINT ( 'NONE', #111 ) ;
#320 = EDGE_CURVE ( 'NONE', #165, #247, #183, .T. ) ;
#321 = PRESENTATION_STYLE_ASSIGNMENT (( #221 ) ) ;
#322 = EDGE_LOOP ( 'NONE', ( #222, #199, #47, #164 ) ) ;
#323 = CIRCLE ( 'NONE', #351, 0.1562500000000000000 ) ;
#324 = VERTEX_POINT ( 'NONE', #168 ) ;
#325 = COLOUR_RGB ( '',1.000000000000000000, 0.000000000000000000, 0.000000000000000000 ) ;
#326 = EDGE_LOOP ( 'NONE', ( #243, #157, #196, #272 ) ) ;
#327 =( NAMED_UNIT ( * ) PLANE_ANGLE_UNIT ( ) SI_UNIT ( $, .RADIAN. ) );
#328 = AXIS2_PLACEMENT_3D ( 'NONE', #354, #110, #224 ) ;
#329 = CARTESIAN_POINT ( 'NONE',  ( 0.000000000000000000, 0.1562500000000000278, 0.000000000000000000 ) ) ;
#330 = FILL_AREA_STYLE_COLOUR ( '', #259 ) ;
#331 =( NAMED_UNIT ( * ) PLANE_ANGLE_UNIT ( ) SI_UNIT ( $, .RADIAN. ) );
#332 = DIRECTION ( 'NONE',  ( -1.000000000000000000, 0.000000000000000000, 0.000000000000000000 ) ) ;
#333 = CIRCLE ( 'NONE', #94, 0.1562500000000000000 ) ;
#334 = CARTESIAN_POINT ( 'NONE',  ( 0.000000000000000000, 0.1562500000000000278, 0.000000000000000000 ) ) ;
#335 =( NAMED_UNIT ( * ) SI_UNIT ( $, .STERADIAN. ) SOLID_ANGLE_UNIT ( ) );
#336 = ADVANCED_FACE ( 'NONE', ( #265 ), #317, .T. ) ;
#337 = DIRECTION ( 'NONE',  ( -0.000000000000000000, -1.000000000000000000, -0.000000000000000000 ) ) ;
#338 = LENGTH_MEASURE_WITH_UNIT ( LENGTH_MEASURE( 0.02539999999999999897 ), #369 );
#339 = SURFACE_SIDE_STYLE ('',( #262 ) ) ;
#340 = MECHANICAL_DESIGN_GEOMETRIC_PRESENTATION_REPRESENTATION (  '', ( #178 ), #106 ) ;
#341 =( NAMED_UNIT ( * ) PLANE_ANGLE_UNIT ( ) SI_UNIT ( $, .RADIAN. ) );
#342 = DIMENSIONAL_EXPONENTS ( 1.000000000000000000, 0.000000000000000000, 0.000000000000000000, 0.000000000000000000, 0.000000000000000000, 0.000000000000000000, 0.000000000000000000 ) ;
#343 = AXIS2_PLACEMENT_3D ( 'NONE', #118, #337, #32 ) ;
#344 = UNCERTAINTY_MEASURE_WITH_UNIT (LENGTH_MEASURE( 1.000000000000000082E-05 ), #3, 'distance_accuracy_value', 'NONE');
#345 =( NAMED_UNIT ( * ) SI_UNIT ( $, .STERADIAN. ) SOLID_ANGLE_UNIT ( ) );
#346 = COLOUR_RGB ( '',1.000000000000000000, 0.000000000000000000, 0.000000000000000000 ) ;
#347 = FILL_AREA_STYLE_COLOUR ( '', #200 ) ;
#348 =( NAMED_UNIT ( * ) SI_UNIT ( $, .STERADIAN. ) SOLID_ANGLE_UNIT ( ) );
#349 = AXIS2_PLACEMENT_3D ( 'NONE', #285, #150, #316 ) ;
#350 = PRODUCT_DEFINITION ( 'UNKNOWN', '', #205, #240 ) ;
#351 = AXIS2_PLACEMENT_3D ( 'NONE', #129, #235, #189 ) ;
#352 = ORIENTED_EDGE ( 'NONE', *, *, #229, .F. ) ;
#353 =( GEOMETRIC_REPRESENTATION_CONTEXT ( 3 ) GLOBAL_UNCERTAINTY_ASSIGNED_CONTEXT ( ( #177 ) ) GLOBAL_UNIT_ASSIGNED_CONTEXT ( ( #261, #91, #33 ) ) REPRESENTATION_CONTEXT ( 'NONE', 'WORKASPACE' ) );
#354 = CARTESIAN_POINT ( 'NONE',  ( 0.000000000000000000, 0.1562500000000000278, 0.000000000000000000 ) ) ;
#355 = DIRECTION ( 'NONE',  ( 0.000000000000000000, 0.000000000000000000, -1.000000000000000000 ) ) ;
#356 = EDGE_CURVE ( 'NONE', #135, #74, #6, .T. ) ;
#357 = DIRECTION ( 'NONE',  ( -0.000000000000000000, -1.000000000000000000, -0.000000000000000000 ) ) ;
#358 = FACE_OUTER_BOUND ( 'NONE', #271, .T. ) ;
#359 = AXIS2_PLACEMENT_3D ( 'NONE', #190, #31, #233 ) ;
#360 = SURFACE_STYLE_FILL_AREA ( #175 ) ;
#361 =( NAMED_UNIT ( * ) SI_UNIT ( $, .STERADIAN. ) SOLID_ANGLE_UNIT ( ) );
#362 = ADVANCED_FACE ( 'NONE', ( #366 ), #70, .F. ) ;
#363 = PRESENTATION_LAYER_ASSIGNMENT (  '', '', ( #35 ) ) ;
#364 = DIRECTION ( 'NONE',  ( -1.224646799147352961E-16, 1.000000000000000000, -0.000000000000000000 ) ) ;
#365 = STYLED_ITEM ( 'NONE', ( #60 ), #336 ) ;
#366 = FACE_OUTER_BOUND ( 'NONE', #155, .T. ) ;
#367 =( NAMED_UNIT ( * ) SI_UNIT ( $, .STERADIAN. ) SOLID_ANGLE_UNIT ( ) );
#368 = EDGE_CURVE ( 'NONE', #324, #74, #281, .T. ) ;
#369 =( LENGTH_UNIT ( ) NAMED_UNIT ( * ) SI_UNIT ( $, .METRE. ) );
#370 = DIRECTION ( 'NONE',  ( 0.000000000000000000, 0.000000000000000000, 1.000000000000000000 ) ) ;
#371 = COLOUR_RGB ( '',0.7921568627450980005, 0.8196078431372548767, 0.9333333333333333481 ) ;
#372 = DIMENSIONAL_EXPONENTS ( 1.000000000000000000, 0.000000000000000000, 0.000000000000000000, 0.000000000000000000, 0.000000000000000000, 0.000000000000000000, 0.000000000000000000 ) ;
#373 =( LENGTH_UNIT ( ) NAMED_UNIT ( * ) SI_UNIT ( $, .METRE. ) );
ENDSEC;
END-ISO-10303-21;
