ISO-10303-21;
HEADER;
FILE_DESCRIPTION (( 'STEP AP214' ),
    '1' );
FILE_NAME ('86032.STEP',
    '2023-06-23T15:40:42',
    ( '' ),
    ( '' ),
    'SwSTEP 2.0',
    'SolidWorks 2023',
    '' );
FILE_SCHEMA (( 'AUTOMOTIVE_DESIGN' ));
ENDSEC;

DATA;
#1 = FILL_AREA_STYLE ('',( #130 ) ) ;
#2 = DIRECTION ( 'NONE',  ( -0.000000000000000000, -1.000000000000000000, -0.000000000000000000 ) ) ;
#3 = COLOUR_RGB ( '',0.7921568627450980005, 0.8196078431372548767, 0.9333333333333333481 ) ;
#4 = PRODUCT_DEFINITION_SHAPE ( 'NONE', 'NONE',  #74 ) ;
#5 = CARTESIAN_POINT ( 'NONE',  ( -7.582401355855259480E-33, 0.7499999999999998890, 0.000000000000000000 ) ) ;
#6 = FILL_AREA_STYLE_COLOUR ( '', #7 ) ;
#7 = COLOUR_RGB ( '',0.7921568627450980005, 0.8196078431372548767, 0.9333333333333333481 ) ;
#8 = AXIS2_PLACEMENT_3D ( 'NONE', #185, #255, #299 ) ;
#9 = FILL_AREA_STYLE ('',( #107 ) ) ;
#10 =( NAMED_UNIT ( * ) PLANE_ANGLE_UNIT ( ) SI_UNIT ( $, .RADIAN. ) );
#11 = EDGE_LOOP ( 'NONE', ( #192, #59, #244, #294 ) ) ;
#12 = APPLICATION_CONTEXT ( 'automotive_design' ) ;
#13 =( NAMED_UNIT ( * ) SI_UNIT ( $, .STERADIAN. ) SOLID_ANGLE_UNIT ( ) );
#14 = DIMENSIONAL_EXPONENTS ( 1.000000000000000000, 0.000000000000000000, 0.000000000000000000, 0.000000000000000000, 0.000000000000000000, 0.000000000000000000, 0.000000000000000000 ) ;
#15 = SURFACE_SIDE_STYLE ('',( #287 ) ) ;
#16 =( GEOMETRIC_REPRESENTATION_CONTEXT ( 3 ) GLOBAL_UNCERTAINTY_ASSIGNED_CONTEXT ( ( #170 ) ) GLOBAL_UNIT_ASSIGNED_CONTEXT ( ( #129, #281, #150 ) ) REPRESENTATION_CONTEXT ( 'NONE', 'WORKASPACE' ) );
#17 = CYLINDRICAL_SURFACE ( 'NONE', #37, 0.1562500000000000000 ) ;
#18 = EDGE_LOOP ( 'NONE', ( #271, #139, #89, #261 ) ) ;
#19 =( LENGTH_UNIT ( ) NAMED_UNIT ( * ) SI_UNIT ( $, .METRE. ) );
#20 = VERTEX_POINT ( 'NONE', #118 ) ;
#21 = DIMENSIONAL_EXPONENTS ( 1.000000000000000000, 0.000000000000000000, 0.000000000000000000, 0.000000000000000000, 0.000000000000000000, 0.000000000000000000, 0.000000000000000000 ) ;
#22 = EDGE_CURVE ( 'NONE', #232, #275, #191, .T. ) ;
#23 = CARTESIAN_POINT ( 'NONE',  ( 0.000000000000000000, 0.000000000000000000, 0.000000000000000000 ) ) ;
#24 = COLOUR_RGB ( '',1.000000000000000000, 0.000000000000000000, 0.000000000000000000 ) ;
#25 = AXIS2_PLACEMENT_3D ( 'NONE', #100, #198, #27 ) ;
#26 = EDGE_CURVE ( 'NONE', #204, #275, #148, .T. ) ;
#27 = DIRECTION ( 'NONE',  ( -1.000000000000000000, 0.000000000000000000, 0.000000000000000000 ) ) ;
#28 = APPLICATION_CONTEXT ( 'automotive_design' ) ;
#29 = SURFACE_STYLE_FILL_AREA ( #55 ) ;
#30 = CARTESIAN_POINT ( 'NONE',  ( -0.1562500000000001388, 2.500000000000000000, 0.000000000000000000 ) ) ;
#31 = VECTOR ( 'NONE', #155, 39.37007874015748143 ) ;
#32 = PLANE ( 'NONE',  #81 ) ;
#33 = FACE_OUTER_BOUND ( 'NONE', #11, .T. ) ;
#34 =( NAMED_UNIT ( * ) PLANE_ANGLE_UNIT ( ) SI_UNIT ( $, .RADIAN. ) );
#35 = DIRECTION ( 'NONE',  ( 0.000000000000000000, -1.000000000000000000, -0.000000000000000000 ) ) ;
#36 = AXIS2_PLACEMENT_3D ( 'NONE', #196, #125, #264 ) ;
#37 = AXIS2_PLACEMENT_3D ( 'NONE', #156, #82, #221 ) ;
#38 = CARTESIAN_POINT ( 'NONE',  ( 1.913510623667739463E-17, 0.7500000000000001110, 0.1562500000000000000 ) ) ;
#39 = PRESENTATION_STYLE_ASSIGNMENT (( #114 ) ) ;
#40 = VERTEX_POINT ( 'NONE', #30 ) ;
#41 = SURFACE_SIDE_STYLE ('',( #208 ) ) ;
#42 = STYLED_ITEM ( 'NONE', ( #73 ), #126 ) ;
#43 = VERTEX_POINT ( 'NONE', #239 ) ;
#44 = DIRECTION ( 'NONE',  ( -3.498990854706722745E-17, 1.000000000000000000, -0.000000000000000000 ) ) ;
#45 = CARTESIAN_POINT ( 'NONE',  ( 1.913510623667739463E-17, 0.000000000000000000, 0.1562500000000000000 ) ) ;
#46 = EDGE_CURVE ( 'NONE', #20, #40, #218, .T. ) ;
#47 = AXIS2_PLACEMENT_3D ( 'NONE', #284, #77, #240 ) ;
#48 = MECHANICAL_DESIGN_GEOMETRIC_PRESENTATION_REPRESENTATION (  '', ( #263 ), #207 ) ;
#49 = FILL_AREA_STYLE_COLOUR ( '', #242 ) ;
#50 =( CONVERSION_BASED_UNIT ( 'INCH', #238 ) LENGTH_UNIT ( ) NAMED_UNIT ( #21 ) );
#51 = FACE_OUTER_BOUND ( 'NONE', #230, .T. ) ;
#52 =( GEOMETRIC_REPRESENTATION_CONTEXT ( 3 ) GLOBAL_UNCERTAINTY_ASSIGNED_CONTEXT ( ( #116 ) ) GLOBAL_UNIT_ASSIGNED_CONTEXT ( ( #132, #10, #13 ) ) REPRESENTATION_CONTEXT ( 'NONE', 'WORKASPACE' ) );
#53 = UNCERTAINTY_MEASURE_WITH_UNIT (LENGTH_MEASURE( 1.000000000000000082E-05 ), #91, 'distance_accuracy_value', 'NONE');
#54 = PLANE ( 'NONE',  #36 ) ;
#55 = FILL_AREA_STYLE ('',( #6 ) ) ;
#56 = DIRECTION ( 'NONE',  ( -0.000000000000000000, -1.000000000000000000, -0.000000000000000000 ) ) ;
#57 = MECHANICAL_DESIGN_GEOMETRIC_PRESENTATION_REPRESENTATION (  '', ( #246 ), #16 ) ;
#58 = CARTESIAN_POINT ( 'NONE',  ( 0.000000000000000000, 0.7500000000000001110, 0.000000000000000000 ) ) ;
#59 = ORIENTED_EDGE ( 'NONE', *, *, #307, .T. ) ;
#60 = ADVANCED_FACE ( 'NONE', ( #51 ), #54, .F. ) ;
#61 = DIRECTION ( 'NONE',  ( -1.000000000000000000, 0.000000000000000000, 0.000000000000000000 ) ) ;
#62 = ORIENTED_EDGE ( 'NONE', *, *, #250, .F. ) ;
#63 = AXIS2_PLACEMENT_3D ( 'NONE', #209, #85, #103 ) ;
#64 = CARTESIAN_POINT ( 'NONE',  ( 0.000000000000000000, 0.7500000000000001110, -0.1562500000000000000 ) ) ;
#65 = DIRECTION ( 'NONE',  ( 0.000000000000000000, 0.000000000000000000, -1.000000000000000000 ) ) ;
#66 = PRESENTATION_STYLE_ASSIGNMENT (( #258 ) ) ;
#67 = DIRECTION ( 'NONE',  ( 0.000000000000000000, 1.000000000000000000, 0.000000000000000000 ) ) ;
#68 =( GEOMETRIC_REPRESENTATION_CONTEXT ( 3 ) GLOBAL_UNCERTAINTY_ASSIGNED_CONTEXT ( ( #53 ) ) GLOBAL_UNIT_ASSIGNED_CONTEXT ( ( #91, #291, #157 ) ) REPRESENTATION_CONTEXT ( 'NONE', 'WORKASPACE' ) );
#69 = UNCERTAINTY_MEASURE_WITH_UNIT (LENGTH_MEASURE( 1.000000000000000082E-05 ), #117, 'distance_accuracy_value', 'NONE');
#70 = FILL_AREA_STYLE_COLOUR ( '', #3 ) ;
#71 = MANIFOLD_SOLID_BREP ( 'Revolve - Cutting Edge', #304 ) ;
#72 = MECHANICAL_DESIGN_GEOMETRIC_PRESENTATION_REPRESENTATION (  '', ( #283 ), #68 ) ;
#73 = PRESENTATION_STYLE_ASSIGNMENT (( #280 ) ) ;
#74 = PRODUCT_DEFINITION ( 'UNKNOWN', '', #140, #306 ) ;
#75 = AXIS2_PLACEMENT_3D ( 'NONE', #248, #131, #61 ) ;
#76 = EDGE_CURVE ( 'NONE', #164, #204, #288, .T. ) ;
#77 = DIRECTION ( 'NONE',  ( -0.000000000000000000, -1.000000000000000000, -0.000000000000000000 ) ) ;
#78 = CARTESIAN_POINT ( 'NONE',  ( 0.1562500000000000000, 0.7499999999999998890, 1.913510623667739771E-17 ) ) ;
#79 = CYLINDRICAL_SURFACE ( 'NONE', #8, 0.1562500000000000000 ) ;
#80 = CARTESIAN_POINT ( 'NONE',  ( 0.000000000000000000, 0.000000000000000000, -0.1562500000000000000 ) ) ;
#81 = AXIS2_PLACEMENT_3D ( 'NONE', #226, #35, #65 ) ;
#82 = DIRECTION ( 'NONE',  ( -0.000000000000000000, -1.000000000000000000, -0.000000000000000000 ) ) ;
#83 = EDGE_CURVE ( 'NONE', #20, #84, #194, .T. ) ;
#84 = VERTEX_POINT ( 'NONE', #78 ) ;
#85 = DIRECTION ( 'NONE',  ( -3.498990854706722745E-17, 1.000000000000000000, -0.000000000000000000 ) ) ;
#86 = AXIS2_PLACEMENT_3D ( 'NONE', #58, #56, #243 ) ;
#87 = EDGE_CURVE ( 'NONE', #40, #43, #104, .T. ) ;
#88 = CYLINDRICAL_SURFACE ( 'NONE', #305, 0.1562500000000000278 ) ;
#89 = ORIENTED_EDGE ( 'NONE', *, *, #76, .T. ) ;
#90 =( CONVERSION_BASED_UNIT ( 'INCH', #167 ) LENGTH_UNIT ( ) NAMED_UNIT ( #14 ) );
#91 =( CONVERSION_BASED_UNIT ( 'INCH', #178 ) LENGTH_UNIT ( ) NAMED_UNIT ( #166 ) );
#92 = ORIENTED_EDGE ( 'NONE', *, *, #22, .T. ) ;
#93 = PLANE ( 'NONE',  #309 ) ;
#94 = CIRCLE ( 'NONE', #63, 0.1562500000000000833 ) ;
#95 = ADVANCED_FACE ( 'NONE', ( #200 ), #286, .F. ) ;
#96 = STYLED_ITEM ( 'NONE', ( #249 ), #259 ) ;
#97 = PRODUCT_CONTEXT ( 'NONE', #12, 'mechanical' ) ;
#98 = SURFACE_STYLE_FILL_AREA ( #1 ) ;
#99 = DIRECTION ( 'NONE',  ( -1.000000000000000000, 0.000000000000000000, 0.000000000000000000 ) ) ;
#100 = CARTESIAN_POINT ( 'NONE',  ( -6.123233995736766036E-17, 2.500000000000000000, 0.000000000000000000 ) ) ;
#101 = DIRECTION ( 'NONE',  ( -0.000000000000000000, -1.000000000000000000, -0.000000000000000000 ) ) ;
#102 = EDGE_CURVE ( 'NONE', #232, #164, #295, .T. ) ;
#103 = DIRECTION ( 'NONE',  ( -1.000000000000000000, 0.000000000000000000, 0.000000000000000000 ) ) ;
#104 = CIRCLE ( 'NONE', #25, 0.1562500000000000833 ) ;
#105 = DIRECTION ( 'NONE',  ( -0.000000000000000000, -1.000000000000000000, -0.000000000000000000 ) ) ;
#106 = EDGE_LOOP ( 'NONE', ( #179, #274 ) ) ;
#107 = FILL_AREA_STYLE_COLOUR ( '', #279 ) ;
#108 = DIRECTION ( 'NONE',  ( -1.000000000000000000, 0.000000000000000000, 0.000000000000000000 ) ) ;
#109 = ORIENTED_EDGE ( 'NONE', *, *, #307, .F. ) ;
#110 = LENGTH_MEASURE_WITH_UNIT ( LENGTH_MEASURE( 0.02539999999999999897 ), #269 );
#111 = ORIENTED_EDGE ( 'NONE', *, *, #146, .F. ) ;
#112 = PRESENTATION_LAYER_ASSIGNMENT (  '', '', ( #266 ) ) ;
#113 = AXIS2_PLACEMENT_3D ( 'NONE', #285, #128, #153 ) ;
#114 = SURFACE_STYLE_USAGE ( .BOTH. , #251 ) ;
#115 = ORIENTED_EDGE ( 'NONE', *, *, #228, .T. ) ;
#116 = UNCERTAINTY_MEASURE_WITH_UNIT (LENGTH_MEASURE( 1.000000000000000082E-05 ), #132, 'distance_accuracy_value', 'NONE');
#117 =( CONVERSION_BASED_UNIT ( 'INCH', #235 ) LENGTH_UNIT ( ) NAMED_UNIT ( #224 ) );
#118 = CARTESIAN_POINT ( 'NONE',  ( -0.1562500000000000000, 0.7499999999999998890, 0.000000000000000000 ) ) ;
#119 = PRESENTATION_LAYER_ASSIGNMENT (  '', '', ( #246 ) ) ;
#120 = DIRECTION ( 'NONE',  ( -0.000000000000000000, -1.000000000000000000, -0.000000000000000000 ) ) ;
#121 = MECHANICAL_DESIGN_GEOMETRIC_PRESENTATION_REPRESENTATION (  '', ( #96 ), #149 ) ;
#122 =( NAMED_UNIT ( * ) PLANE_ANGLE_UNIT ( ) SI_UNIT ( $, .RADIAN. ) );
#123 = AXIS2_PLACEMENT_3D ( 'NONE', #296, #105, #163 ) ;
#124 =( NAMED_UNIT ( * ) PLANE_ANGLE_UNIT ( ) SI_UNIT ( $, .RADIAN. ) );
#125 = DIRECTION ( 'NONE',  ( -3.498990854706722745E-17, 1.000000000000000000, 0.000000000000000000 ) ) ;
#126 = ADVANCED_FACE ( 'NONE', ( #214 ), #32, .T. ) ;
#127 = SURFACE_SIDE_STYLE ('',( #29 ) ) ;
#128 = DIRECTION ( 'NONE',  ( 0.000000000000000000, 0.000000000000000000, 1.000000000000000000 ) ) ;
#129 =( CONVERSION_BASED_UNIT ( 'INCH', #173 ) LENGTH_UNIT ( ) NAMED_UNIT ( #301 ) );
#130 = FILL_AREA_STYLE_COLOUR ( '', #203 ) ;
#131 = DIRECTION ( 'NONE',  ( -3.498990854706722745E-17, 1.000000000000000000, -0.000000000000000000 ) ) ;
#132 =( CONVERSION_BASED_UNIT ( 'INCH', #222 ) LENGTH_UNIT ( ) NAMED_UNIT ( #303 ) );
#133 = ORIENTED_EDGE ( 'NONE', *, *, #26, .F. ) ;
#134 = MECHANICAL_DESIGN_GEOMETRIC_PRESENTATION_REPRESENTATION (  '', ( #42 ), #52 ) ;
#135 = ADVANCED_FACE ( 'NONE', ( #33 ), #88, .T. ) ;
#136 = DIRECTION ( 'NONE',  ( -1.000000000000000000, 0.000000000000000000, 0.000000000000000000 ) ) ;
#137 = ORIENTED_EDGE ( 'NONE', *, *, #146, .T. ) ;
#138 = CARTESIAN_POINT ( 'NONE',  ( 0.000000000000000000, 0.000000000000000000, -0.1562500000000000000 ) ) ;
#139 = ORIENTED_EDGE ( 'NONE', *, *, #102, .T. ) ;
#140 = PRODUCT_DEFINITION_FORMATION_WITH_SPECIFIED_SOURCE ( 'ANY', '', #219, .NOT_KNOWN. ) ;
#141 =( NAMED_UNIT ( * ) SI_UNIT ( $, .STERADIAN. ) SOLID_ANGLE_UNIT ( ) );
#142 = ORIENTED_EDGE ( 'NONE', *, *, #102, .F. ) ;
#143 = CARTESIAN_POINT ( 'NONE',  ( 0.1562499999999999722, 2.500000000000000000, 1.913510623667739771E-17 ) ) ;
#144 = SURFACE_SIDE_STYLE ('',( #147 ) ) ;
#145 = CIRCLE ( 'NONE', #172, 0.1562500000000000000 ) ;
#146 = EDGE_CURVE ( 'NONE', #164, #232, #254, .T. ) ;
#147 = SURFACE_STYLE_FILL_AREA ( #277 ) ;
#148 = CIRCLE ( 'NONE', #47, 0.1562500000000000000 ) ;
#149 =( GEOMETRIC_REPRESENTATION_CONTEXT ( 3 ) GLOBAL_UNCERTAINTY_ASSIGNED_CONTEXT ( ( #215 ) ) GLOBAL_UNIT_ASSIGNED_CONTEXT ( ( #206, #34, #292 ) ) REPRESENTATION_CONTEXT ( 'NONE', 'WORKASPACE' ) );
#150 =( NAMED_UNIT ( * ) SI_UNIT ( $, .STERADIAN. ) SOLID_ANGLE_UNIT ( ) );
#151 = DIRECTION ( 'NONE',  ( 1.000000000000000000, 3.498990854706722745E-17, 0.000000000000000000 ) ) ;
#152 =( LENGTH_UNIT ( ) NAMED_UNIT ( * ) SI_UNIT ( $, .METRE. ) );
#153 = DIRECTION ( 'NONE',  ( 1.000000000000000000, 0.000000000000000000, 0.000000000000000000 ) ) ;
#154 = MECHANICAL_DESIGN_GEOMETRIC_PRESENTATION_REPRESENTATION (  '', ( #266 ), #213 ) ;
#155 = DIRECTION ( 'NONE',  ( -3.498990854706722745E-17, 1.000000000000000000, -0.000000000000000000 ) ) ;
#156 = CARTESIAN_POINT ( 'NONE',  ( 0.000000000000000000, 0.000000000000000000, 0.000000000000000000 ) ) ;
#157 =( NAMED_UNIT ( * ) SI_UNIT ( $, .STERADIAN. ) SOLID_ANGLE_UNIT ( ) );
#158 = ORIENTED_EDGE ( 'NONE', *, *, #250, .T. ) ;
#159 = CARTESIAN_POINT ( 'NONE',  ( -6.123233995736766036E-17, 2.500000000000000000, 0.000000000000000000 ) ) ;
#160 = EDGE_LOOP ( 'NONE', ( #293, #115 ) ) ;
#161 = FACE_OUTER_BOUND ( 'NONE', #186, .T. ) ;
#162 = SURFACE_STYLE_FILL_AREA ( #273 ) ;
#163 = DIRECTION ( 'NONE',  ( 0.000000000000000000, 0.000000000000000000, -1.000000000000000000 ) ) ;
#164 = VERTEX_POINT ( 'NONE', #64 ) ;
#165 =( LENGTH_UNIT ( ) NAMED_UNIT ( * ) SI_UNIT ( $, .METRE. ) );
#166 = DIMENSIONAL_EXPONENTS ( 1.000000000000000000, 0.000000000000000000, 0.000000000000000000, 0.000000000000000000, 0.000000000000000000, 0.000000000000000000, 0.000000000000000000 ) ;
#167 = LENGTH_MEASURE_WITH_UNIT ( LENGTH_MEASURE( 0.02539999999999999897 ), #165 );
#168 = LINE ( 'NONE', #143, #169 ) ;
#169 = VECTOR ( 'NONE', #44, 39.37007874015748143 ) ;
#170 = UNCERTAINTY_MEASURE_WITH_UNIT (LENGTH_MEASURE( 1.000000000000000082E-05 ), #129, 'distance_accuracy_value', 'NONE');
#171 = ADVANCED_FACE ( 'NONE', ( #252 ), #270, .T. ) ;
#172 = AXIS2_PLACEMENT_3D ( 'NONE', #220, #225, #108 ) ;
#173 = LENGTH_MEASURE_WITH_UNIT ( LENGTH_MEASURE( 0.02539999999999999897 ), #152 );
#174 = CARTESIAN_POINT ( 'NONE',  ( 1.913510623667739463E-17, 0.000000000000000000, 0.1562500000000000000 ) ) ;
#175 = APPLICATION_PROTOCOL_DEFINITION ( 'draft international standard', 'automotive_design', 1998, #28 ) ;
#176 = DIRECTION ( 'NONE',  ( 3.498990854706722745E-17, -1.000000000000000000, 0.000000000000000000 ) ) ;
#177 = AXIS2_PLACEMENT_3D ( 'NONE', #262, #176, #151 ) ;
#178 = LENGTH_MEASURE_WITH_UNIT ( LENGTH_MEASURE( 0.02539999999999999897 ), #183 );
#179 = ORIENTED_EDGE ( 'NONE', *, *, #26, .T. ) ;
#180 = DIRECTION ( 'NONE',  ( -3.498990854706722745E-17, 1.000000000000000000, -0.000000000000000000 ) ) ;
#181 = FACE_OUTER_BOUND ( 'NONE', #18, .T. ) ;
#182 = ADVANCED_BREP_SHAPE_REPRESENTATION ( '86032', ( #71, #272, #113 ), #217 ) ;
#183 =( LENGTH_UNIT ( ) NAMED_UNIT ( * ) SI_UNIT ( $, .METRE. ) );
#184 = EDGE_LOOP ( 'NONE', ( #111, #142 ) ) ;
#185 = CARTESIAN_POINT ( 'NONE',  ( 0.000000000000000000, 0.000000000000000000, 0.000000000000000000 ) ) ;
#186 = EDGE_LOOP ( 'NONE', ( #137, #92, #133, #297 ) ) ;
#187 = FACE_OUTER_BOUND ( 'NONE', #184, .T. ) ;
#188 = AXIS2_PLACEMENT_3D ( 'NONE', #23, #120, #253 ) ;
#189 = UNCERTAINTY_MEASURE_WITH_UNIT (LENGTH_MEASURE( 1.000000000000000082E-05 ), #90, 'distance_accuracy_value', 'NONE');
#190 = CARTESIAN_POINT ( 'NONE',  ( 0.000000000000000000, 0.7500000000000001110, 0.000000000000000000 ) ) ;
#191 = LINE ( 'NONE', #174, #282 ) ;
#192 = ORIENTED_EDGE ( 'NONE', *, *, #83, .T. ) ;
#193 = DIRECTION ( 'NONE',  ( 0.000000000000000000, -0.000000000000000000, 1.000000000000000000 ) ) ;
#194 = CIRCLE ( 'NONE', #197, 0.1562500000000000000 ) ;
#195 = SURFACE_SIDE_STYLE ('',( #98 ) ) ;
#196 = CARTESIAN_POINT ( 'NONE',  ( 9.564794532282251356E-35, 0.7500000000000001110, 0.000000000000000000 ) ) ;
#197 = AXIS2_PLACEMENT_3D ( 'NONE', #5, #267, #99 ) ;
#198 = DIRECTION ( 'NONE',  ( -3.498990854706722745E-17, 1.000000000000000000, -0.000000000000000000 ) ) ;
#199 =( NAMED_UNIT ( * ) SI_UNIT ( $, .STERADIAN. ) SOLID_ANGLE_UNIT ( ) );
#200 = FACE_OUTER_BOUND ( 'NONE', #160, .T. ) ;
#201 = SURFACE_STYLE_USAGE ( .BOTH. , #127 ) ;
#202 = CLOSED_SHELL ( 'NONE', ( #135, #60, #171, #95 ) ) ;
#203 = COLOUR_RGB ( '',1.000000000000000000, 0.000000000000000000, 0.000000000000000000 ) ;
#204 = VERTEX_POINT ( 'NONE', #138 ) ;
#205 = FILL_AREA_STYLE_COLOUR ( '', #24 ) ;
#206 =( CONVERSION_BASED_UNIT ( 'INCH', #110 ) LENGTH_UNIT ( ) NAMED_UNIT ( #298 ) );
#207 =( GEOMETRIC_REPRESENTATION_CONTEXT ( 3 ) GLOBAL_UNCERTAINTY_ASSIGNED_CONTEXT ( ( #189 ) ) GLOBAL_UNIT_ASSIGNED_CONTEXT ( ( #90, #231, #141 ) ) REPRESENTATION_CONTEXT ( 'NONE', 'WORKASPACE' ) );
#208 = SURFACE_STYLE_FILL_AREA ( #236 ) ;
#209 = CARTESIAN_POINT ( 'NONE',  ( -6.123233995736766036E-17, 2.500000000000000000, 0.000000000000000000 ) ) ;
#210 = ORIENTED_EDGE ( 'NONE', *, *, #46, .T. ) ;
#211 = SURFACE_STYLE_USAGE ( .BOTH. , #41 ) ;
#212 =( NAMED_UNIT ( * ) SI_UNIT ( $, .STERADIAN. ) SOLID_ANGLE_UNIT ( ) );
#213 =( GEOMETRIC_REPRESENTATION_CONTEXT ( 3 ) GLOBAL_UNCERTAINTY_ASSIGNED_CONTEXT ( ( #69 ) ) GLOBAL_UNIT_ASSIGNED_CONTEXT ( ( #117, #122, #212 ) ) REPRESENTATION_CONTEXT ( 'NONE', 'WORKASPACE' ) );
#214 = FACE_OUTER_BOUND ( 'NONE', #106, .T. ) ;
#215 = UNCERTAINTY_MEASURE_WITH_UNIT (LENGTH_MEASURE( 1.000000000000000082E-05 ), #206, 'distance_accuracy_value', 'NONE');
#216 = PRESENTATION_STYLE_ASSIGNMENT (( #201 ) ) ;
#217 =( GEOMETRIC_REPRESENTATION_CONTEXT ( 3 ) GLOBAL_UNCERTAINTY_ASSIGNED_CONTEXT ( ( #256 ) ) GLOBAL_UNIT_ASSIGNED_CONTEXT ( ( #50, #124, #199 ) ) REPRESENTATION_CONTEXT ( 'NONE', 'WORKASPACE' ) );
#218 = LINE ( 'NONE', #265, #31 ) ;
#219 = PRODUCT ( '86032', '86032', '', ( #97 ) ) ;
#220 = CARTESIAN_POINT ( 'NONE',  ( -7.582401355855259480E-33, 0.7499999999999998890, 0.000000000000000000 ) ) ;
#221 = DIRECTION ( 'NONE',  ( 0.000000000000000000, 0.000000000000000000, -1.000000000000000000 ) ) ;
#222 = LENGTH_MEASURE_WITH_UNIT ( LENGTH_MEASURE( 0.02539999999999999897 ), #229 );
#223 = ORIENTED_EDGE ( 'NONE', *, *, #83, .F. ) ;
#224 = DIMENSIONAL_EXPONENTS ( 1.000000000000000000, 0.000000000000000000, 0.000000000000000000, 0.000000000000000000, 0.000000000000000000, 0.000000000000000000, 0.000000000000000000 ) ;
#225 = DIRECTION ( 'NONE',  ( -3.498990854706722745E-17, 1.000000000000000000, -0.000000000000000000 ) ) ;
#226 = CARTESIAN_POINT ( 'NONE',  ( 0.000000000000000000, 0.000000000000000000, 0.000000000000000000 ) ) ;
#227 = ORIENTED_EDGE ( 'NONE', *, *, #228, .F. ) ;
#228 = EDGE_CURVE ( 'NONE', #43, #40, #94, .T. ) ;
#229 =( LENGTH_UNIT ( ) NAMED_UNIT ( * ) SI_UNIT ( $, .METRE. ) );
#230 = EDGE_LOOP ( 'NONE', ( #223, #62 ) ) ;
#231 =( NAMED_UNIT ( * ) PLANE_ANGLE_UNIT ( ) SI_UNIT ( $, .RADIAN. ) );
#232 = VERTEX_POINT ( 'NONE', #38 ) ;
#233 =( LENGTH_UNIT ( ) NAMED_UNIT ( * ) SI_UNIT ( $, .METRE. ) );
#234 = PRESENTATION_LAYER_ASSIGNMENT (  '', '', ( #263 ) ) ;
#235 = LENGTH_MEASURE_WITH_UNIT ( LENGTH_MEASURE( 0.02539999999999999897 ), #19 );
#236 = FILL_AREA_STYLE ('',( #70 ) ) ;
#237 = PRESENTATION_LAYER_ASSIGNMENT (  '', '', ( #96 ) ) ;
#238 = LENGTH_MEASURE_WITH_UNIT ( LENGTH_MEASURE( 0.02539999999999999897 ), #233 );
#239 = CARTESIAN_POINT ( 'NONE',  ( 0.1562500000000000000, 2.500000000000000000, 1.913510623667739771E-17 ) ) ;
#240 = DIRECTION ( 'NONE',  ( 0.000000000000000000, 0.000000000000000000, -1.000000000000000000 ) ) ;
#241 = VECTOR ( 'NONE', #2, 39.37007874015748143 ) ;
#242 = COLOUR_RGB ( '',1.000000000000000000, 0.000000000000000000, 0.000000000000000000 ) ;
#243 = DIRECTION ( 'NONE',  ( 0.000000000000000000, 0.000000000000000000, -1.000000000000000000 ) ) ;
#244 = ORIENTED_EDGE ( 'NONE', *, *, #87, .F. ) ;
#245 = SURFACE_STYLE_USAGE ( .BOTH. , #15 ) ;
#246 = STYLED_ITEM ( 'NONE', ( #216 ), #71 ) ;
#247 = PRESENTATION_LAYER_ASSIGNMENT (  '', '', ( #283 ) ) ;
#248 = CARTESIAN_POINT ( 'NONE',  ( -6.123233995736766036E-17, 2.500000000000000000, 0.000000000000000000 ) ) ;
#249 = PRESENTATION_STYLE_ASSIGNMENT (( #245 ) ) ;
#250 = EDGE_CURVE ( 'NONE', #84, #20, #145, .T. ) ;
#251 = SURFACE_SIDE_STYLE ('',( #162 ) ) ;
#252 = FACE_OUTER_BOUND ( 'NONE', #300, .T. ) ;
#253 = DIRECTION ( 'NONE',  ( 0.000000000000000000, 0.000000000000000000, -1.000000000000000000 ) ) ;
#254 = CIRCLE ( 'NONE', #123, 0.1562500000000000000 ) ;
#255 = DIRECTION ( 'NONE',  ( -0.000000000000000000, -1.000000000000000000, -0.000000000000000000 ) ) ;
#256 = UNCERTAINTY_MEASURE_WITH_UNIT (LENGTH_MEASURE( 1.000000000000000082E-05 ), #50, 'distance_accuracy_value', 'NONE');
#257 = ADVANCED_FACE ( 'NONE', ( #181 ), #17, .T. ) ;
#258 = SURFACE_STYLE_USAGE ( .BOTH. , #144 ) ;
#259 = ADVANCED_FACE ( 'NONE', ( #161 ), #79, .T. ) ;
#260 = SHAPE_DEFINITION_REPRESENTATION ( #4, #182 ) ;
#261 = ORIENTED_EDGE ( 'NONE', *, *, #268, .F. ) ;
#262 = CARTESIAN_POINT ( 'NONE',  ( 0.1562500000000000000, 2.500000000000000000, 0.000000000000000000 ) ) ;
#263 = STYLED_ITEM ( 'NONE', ( #302 ), #272 ) ;
#264 = DIRECTION ( 'NONE',  ( -1.000000000000000000, -3.498990854706722745E-17, 0.000000000000000000 ) ) ;
#265 = CARTESIAN_POINT ( 'NONE',  ( -0.1562500000000001110, 2.500000000000000000, 0.000000000000000000 ) ) ;
#266 = STYLED_ITEM ( 'NONE', ( #66 ), #278 ) ;
#267 = DIRECTION ( 'NONE',  ( -3.498990854706722745E-17, 1.000000000000000000, -0.000000000000000000 ) ) ;
#268 = EDGE_CURVE ( 'NONE', #275, #204, #289, .T. ) ;
#269 =( LENGTH_UNIT ( ) NAMED_UNIT ( * ) SI_UNIT ( $, .METRE. ) );
#270 = CYLINDRICAL_SURFACE ( 'NONE', #75, 0.1562500000000000278 ) ;
#271 = ORIENTED_EDGE ( 'NONE', *, *, #22, .F. ) ;
#272 = MANIFOLD_SOLID_BREP ( 'Revolve - Tool Body (Straight Shanked)', #202 ) ;
#273 = FILL_AREA_STYLE ('',( #205 ) ) ;
#274 = ORIENTED_EDGE ( 'NONE', *, *, #268, .T. ) ;
#275 = VERTEX_POINT ( 'NONE', #45 ) ;
#276 = PRESENTATION_LAYER_ASSIGNMENT (  '', '', ( #42 ) ) ;
#277 = FILL_AREA_STYLE ('',( #49 ) ) ;
#278 = ADVANCED_FACE ( 'NONE', ( #187 ), #93, .T. ) ;
#279 = COLOUR_RGB ( '',1.000000000000000000, 0.000000000000000000, 0.000000000000000000 ) ;
#280 = SURFACE_STYLE_USAGE ( .BOTH. , #195 ) ;
#281 =( NAMED_UNIT ( * ) PLANE_ANGLE_UNIT ( ) SI_UNIT ( $, .RADIAN. ) );
#282 = VECTOR ( 'NONE', #101, 39.37007874015748143 ) ;
#283 = STYLED_ITEM ( 'NONE', ( #39 ), #257 ) ;
#284 = CARTESIAN_POINT ( 'NONE',  ( 0.000000000000000000, 0.000000000000000000, 0.000000000000000000 ) ) ;
#285 = CARTESIAN_POINT ( 'NONE',  ( 0.000000000000000000, 0.000000000000000000, 0.000000000000000000 ) ) ;
#286 = PLANE ( 'NONE',  #177 ) ;
#287 = SURFACE_STYLE_FILL_AREA ( #9 ) ;
#288 = LINE ( 'NONE', #80, #241 ) ;
#289 = CIRCLE ( 'NONE', #188, 0.1562500000000000000 ) ;
#290 = PRODUCT_RELATED_PRODUCT_CATEGORY ( 'part', '', ( #219 ) ) ;
#291 =( NAMED_UNIT ( * ) PLANE_ANGLE_UNIT ( ) SI_UNIT ( $, .RADIAN. ) );
#292 =( NAMED_UNIT ( * ) SI_UNIT ( $, .STERADIAN. ) SOLID_ANGLE_UNIT ( ) );
#293 = ORIENTED_EDGE ( 'NONE', *, *, #87, .T. ) ;
#294 = ORIENTED_EDGE ( 'NONE', *, *, #46, .F. ) ;
#295 = CIRCLE ( 'NONE', #86, 0.1562500000000000000 ) ;
#296 = CARTESIAN_POINT ( 'NONE',  ( 0.000000000000000000, 0.7500000000000001110, 0.000000000000000000 ) ) ;
#297 = ORIENTED_EDGE ( 'NONE', *, *, #76, .F. ) ;
#298 = DIMENSIONAL_EXPONENTS ( 1.000000000000000000, 0.000000000000000000, 0.000000000000000000, 0.000000000000000000, 0.000000000000000000, 0.000000000000000000, 0.000000000000000000 ) ;
#299 = DIRECTION ( 'NONE',  ( 0.000000000000000000, 0.000000000000000000, -1.000000000000000000 ) ) ;
#300 = EDGE_LOOP ( 'NONE', ( #109, #158, #210, #227 ) ) ;
#301 = DIMENSIONAL_EXPONENTS ( 1.000000000000000000, 0.000000000000000000, 0.000000000000000000, 0.000000000000000000, 0.000000000000000000, 0.000000000000000000, 0.000000000000000000 ) ;
#302 = PRESENTATION_STYLE_ASSIGNMENT (( #211 ) ) ;
#303 = DIMENSIONAL_EXPONENTS ( 1.000000000000000000, 0.000000000000000000, 0.000000000000000000, 0.000000000000000000, 0.000000000000000000, 0.000000000000000000, 0.000000000000000000 ) ;
#304 = CLOSED_SHELL ( 'NONE', ( #259, #278, #257, #126 ) ) ;
#305 = AXIS2_PLACEMENT_3D ( 'NONE', #159, #180, #136 ) ;
#306 = PRODUCT_DEFINITION_CONTEXT ( 'detailed design', #28, 'design' ) ;
#307 = EDGE_CURVE ( 'NONE', #84, #43, #168, .T. ) ;
#308 = APPLICATION_PROTOCOL_DEFINITION ( 'draft international standard', 'automotive_design', 1998, #12 ) ;
#309 = AXIS2_PLACEMENT_3D ( 'NONE', #190, #67, #193 ) ;
ENDSEC;
END-ISO-10303-21;
