ISO-10303-21;
HEADER;
FILE_DESCRIPTION (( 'STEP AP214' ),
    '1' );
FILE_NAME ('Micro_SEM-171-04.STEP',
    '2021-09-02T02:00:07',
    ( '' ),
    ( '' ),
    'SwSTEP 2.0',
    'SolidWorks 2020',
    '' );
FILE_SCHEMA (( 'AUTOMOTIVE_DESIGN' ));
ENDSEC;

DATA;
#1 = DIRECTION ( 'NONE',  ( 0.7071067811865531239, 8.659560562355003116E-17, -0.7071067811865419106 ) ) ;
#2 = ORIENTED_EDGE ( 'NONE', *, *, #140, .F. ) ;
#3 = VECTOR ( 'NONE', #278, 39.37007874015748143 ) ;
#4 = ORIENTED_EDGE ( 'NONE', *, *, #172, .F. ) ;
#5 = CARTESIAN_POINT ( 'NONE',  ( 3.833144481331216295E-17, 0.0000000000000000000, 0.3130000000000000004 ) ) ;
#6 = EDGE_CURVE ( 'NONE', #239, #191, #109, .T. ) ;
#7 = ORIENTED_EDGE ( 'NONE', *, *, #245, .T. ) ;
#8 = ORIENTED_EDGE ( 'NONE', *, *, #206, .T. ) ;
#9 = ORIENTED_EDGE ( 'NONE', *, *, #15, .T. ) ;
#10 = CIRCLE ( 'NONE', #144, 0.08586404999999999732 ) ;
#11 = EDGE_LOOP ( 'NONE', ( #270, #229 ) ) ;
#12 = ORIENTED_EDGE ( 'NONE', *, *, #280, .F. ) ;
#13 = LINE ( 'NONE', #299, #3 ) ;
#14 = CARTESIAN_POINT ( 'NONE',  ( -0.08586404999999995569, 1.051531339943282878E-17, 0.3130000000000000004 ) ) ;
#15 = EDGE_CURVE ( 'NONE', #191, #73, #122, .T. ) ;
#16 = DIRECTION ( 'NONE',  ( 1.000000000000000000, 0.0000000000000000000, 0.0000000000000000000 ) ) ;
#17 = DIRECTION ( 'NONE',  ( -0.1736481776669312194, 2.126576849575783625E-17, 0.9848077530122080203 ) ) ;
#18 = AXIS2_PLACEMENT_3D ( 'NONE', #294, #59, #291 ) ;
#19 = CONICAL_SURFACE ( 'NONE', #249, 0.07875000000000061118, 0.7853981633974562726 ) ;
#20 = DIRECTION ( 'NONE',  ( -0.0000000000000000000, -0.0000000000000000000, -1.000000000000000000 ) ) ;
#21 = LENGTH_MEASURE_WITH_UNIT ( LENGTH_MEASURE( 0.02539999999999999897 ), #216 );
#22 = AXIS2_PLACEMENT_3D ( 'NONE', #225, #88, #276 ) ;
#23 =( LENGTH_UNIT ( ) NAMED_UNIT ( * ) SI_UNIT ( $, .METRE. ) );
#24 = AXIS2_PLACEMENT_3D ( 'NONE', #163, #226, #16 ) ;
#25 = ORIENTED_EDGE ( 'NONE', *, *, #193, .T. ) ;
#26 = ORIENTED_EDGE ( 'NONE', *, *, #269, .F. ) ;
#27 = CIRCLE ( 'NONE', #143, 0.09375000000000001388 ) ;
#28 = CONICAL_SURFACE ( 'NONE', #254, 0.08586404999999998344, 0.1745329251994339192 ) ;
#29 = ORIENTED_EDGE ( 'NONE', *, *, #223, .F. ) ;
#30 = ORIENTED_EDGE ( 'NONE', *, *, #232, .F. ) ;
#31 = DIRECTION ( 'NONE',  ( 1.000000000000000000, 0.0000000000000000000, 0.0000000000000000000 ) ) ;
#32 = EDGE_LOOP ( 'NONE', ( #56, #213, #130, #9 ) ) ;
#33 = CIRCLE ( 'NONE', #154, 0.08586404999999998344 ) ;
#34 = VERTEX_POINT ( 'NONE', #105 ) ;
#35 = LINE ( 'NONE', #111, #106 ) ;
#36 = EDGE_CURVE ( 'NONE', #239, #121, #33, .T. ) ;
#37 = FACE_OUTER_BOUND ( 'NONE', #222, .T. ) ;
#38 = AXIS2_PLACEMENT_3D ( 'NONE', #138, #211, #279 ) ;
#39 = FACE_OUTER_BOUND ( 'NONE', #32, .T. ) ;
#40 = DIRECTION ( 'NONE',  ( -0.7071067811865531239, 0.0000000000000000000, -0.7071067811865419106 ) ) ;
#41 = DIRECTION ( 'NONE',  ( -0.0000000000000000000, -0.0000000000000000000, -1.000000000000000000 ) ) ;
#42 = COLOUR_RGB ( '',0.7921568627450980005, 0.8196078431372548767, 0.9333333333333333481 ) ;
#43 = ORIENTED_EDGE ( 'NONE', *, *, #186, .T. ) ;
#44 =( CONVERSION_BASED_UNIT ( 'INCH', #288 ) LENGTH_UNIT ( ) NAMED_UNIT ( #96 ) );
#45 = EDGE_CURVE ( 'NONE', #242, #110, #74, .T. ) ;
#46 = CONICAL_SURFACE ( 'NONE', #24, 0.08586404999999998344, 0.1745329251994339192 ) ;
#47 = CARTESIAN_POINT ( 'NONE',  ( 0.0000000000000000000, 0.0000000000000000000, 1.485000000000000986 ) ) ;
#48 = ADVANCED_FACE ( 'NONE', ( #156 ), #268, .T. ) ;
#49 = DIMENSIONAL_EXPONENTS ( 1.000000000000000000, 0.0000000000000000000, 0.0000000000000000000, 0.0000000000000000000, 0.0000000000000000000, 0.0000000000000000000, 0.0000000000000000000 ) ;
#50 = EDGE_LOOP ( 'NONE', ( #234, #168, #4, #29 ) ) ;
#51 = APPLICATION_PROTOCOL_DEFINITION ( 'draft international standard', 'automotive_design', 1998, #173 ) ;
#52 = AXIS2_PLACEMENT_3D ( 'NONE', #209, #112, #164 ) ;
#53 =( GEOMETRIC_REPRESENTATION_CONTEXT ( 3 ) GLOBAL_UNCERTAINTY_ASSIGNED_CONTEXT ( ( #187 ) ) GLOBAL_UNIT_ASSIGNED_CONTEXT ( ( #44, #233, #217 ) ) REPRESENTATION_CONTEXT ( 'NONE', 'WORKASPACE' ) );
#54 = CARTESIAN_POINT ( 'NONE',  ( -0.08586404999999995569, 1.099818857071963371E-17, 0.3130000000000000004 ) ) ;
#55 = ORIENTED_EDGE ( 'NONE', *, *, #232, .T. ) ;
#56 = ORIENTED_EDGE ( 'NONE', *, *, #186, .F. ) ;
#57 = UNCERTAINTY_MEASURE_WITH_UNIT (LENGTH_MEASURE( 1.000000000000000082E-05 ), #264, 'distance_accuracy_value', 'NONE');
#58 = DIRECTION ( 'NONE',  ( 1.000000000000000000, 0.0000000000000000000, 0.0000000000000000000 ) ) ;
#59 = DIRECTION ( 'NONE',  ( 0.0000000000000000000, 0.0000000000000000000, 1.000000000000000000 ) ) ;
#60 = AXIS2_PLACEMENT_3D ( 'NONE', #135, #65, #184 ) ;
#61 = MECHANICAL_DESIGN_GEOMETRIC_PRESENTATION_REPRESENTATION (  '', ( #95 ), #53 ) ;
#62 = DIRECTION ( 'NONE',  ( -1.224646799147353454E-16, -0.0000000000000000000, -1.000000000000000000 ) ) ;
#63 = ADVANCED_FACE ( 'NONE', ( #81 ), #244, .T. ) ;
#64 = LINE ( 'NONE', #14, #161 ) ;
#65 = DIRECTION ( 'NONE',  ( 0.0000000000000000000, 0.0000000000000000000, 1.000000000000000000 ) ) ;
#66 = PLANE ( 'NONE',  #60 ) ;
#67 = CARTESIAN_POINT ( 'NONE',  ( 0.0000000000000000000, 0.0000000000000000000, 1.500000000000000222 ) ) ;
#68 = FACE_OUTER_BOUND ( 'NONE', #50, .T. ) ;
#69 = CIRCLE ( 'NONE', #295, 0.09375000000000001388 ) ;
#70 = FILL_AREA_STYLE_COLOUR ( '', #139 ) ;
#71 = ORIENTED_EDGE ( 'NONE', *, *, #136, .T. ) ;
#72 = FACE_OUTER_BOUND ( 'NONE', #174, .T. ) ;
#73 = VERTEX_POINT ( 'NONE', #152 ) ;
#74 = CIRCLE ( 'NONE', #18, 0.07875000000000061118 ) ;
#75 = PRESENTATION_LAYER_ASSIGNMENT (  '', '', ( #95 ) ) ;
#76 =( NAMED_UNIT ( * ) SI_UNIT ( $, .STERADIAN. ) SOLID_ANGLE_UNIT ( ) );
#77 = DIMENSIONAL_EXPONENTS ( 1.000000000000000000, 0.0000000000000000000, 0.0000000000000000000, 0.0000000000000000000, 0.0000000000000000000, 0.0000000000000000000, 0.0000000000000000000 ) ;
#78 = PRODUCT_CONTEXT ( 'NONE', #284, 'mechanical' ) ;
#79 = CARTESIAN_POINT ( 'NONE',  ( 0.08586404999999999732, 1.051531339943283032E-17, -1.895600338963814870E-33 ) ) ;
#80 = AXIS2_PLACEMENT_3D ( 'NONE', #292, #177, #205 ) ;
#81 = FACE_OUTER_BOUND ( 'NONE', #146, .T. ) ;
#82 = DIRECTION ( 'NONE',  ( -0.0000000000000000000, -0.0000000000000000000, -1.000000000000000000 ) ) ;
#83 = ORIENTED_EDGE ( 'NONE', *, *, #193, .F. ) ;
#84 = CARTESIAN_POINT ( 'NONE',  ( 0.0000000000000000000, 0.0000000000000000000, 1.500000000000000222 ) ) ;
#85 = VECTOR ( 'NONE', #1, 39.37007874015748143 ) ;
#86 = VECTOR ( 'NONE', #203, 39.37007874015748143 ) ;
#87 = DIRECTION ( 'NONE',  ( 1.000000000000000000, 0.0000000000000000000, 0.0000000000000000000 ) ) ;
#88 = DIRECTION ( 'NONE',  ( 0.0000000000000000000, 0.0000000000000000000, 1.000000000000000000 ) ) ;
#89 = LINE ( 'NONE', #247, #134 ) ;
#90 = AXIS2_PLACEMENT_3D ( 'NONE', #274, #62, #199 ) ;
#91 = FACE_OUTER_BOUND ( 'NONE', #171, .T. ) ;
#92 = DIRECTION ( 'NONE',  ( 1.000000000000000000, 0.0000000000000000000, 0.0000000000000000000 ) ) ;
#93 = DIRECTION ( 'NONE',  ( 1.000000000000000000, 0.0000000000000000000, 0.0000000000000000000 ) ) ;
#94 = EDGE_CURVE ( 'NONE', #104, #34, #180, .T. ) ;
#95 = STYLED_ITEM ( 'NONE', ( #230 ), #281 ) ;
#96 = DIMENSIONAL_EXPONENTS ( 1.000000000000000000, 0.0000000000000000000, 0.0000000000000000000, 0.0000000000000000000, 0.0000000000000000000, 0.0000000000000000000, 0.0000000000000000000 ) ;
#97 = DIRECTION ( 'NONE',  ( 1.000000000000000000, 0.0000000000000000000, 0.0000000000000000000 ) ) ;
#98 = ORIENTED_EDGE ( 'NONE', *, *, #140, .T. ) ;
#99 = UNCERTAINTY_MEASURE_WITH_UNIT (LENGTH_MEASURE( 1.000000000000000082E-05 ), #192, 'distance_accuracy_value', 'NONE');
#100 = DIRECTION ( 'NONE',  ( -1.000000000000000000, 0.0000000000000000000, 0.0000000000000000000 ) ) ;
#101 = ORIENTED_EDGE ( 'NONE', *, *, #206, .F. ) ;
#102 = APPLICATION_PROTOCOL_DEFINITION ( 'draft international standard', 'automotive_design', 1998, #284 ) ;
#103 = LENGTH_MEASURE_WITH_UNIT ( LENGTH_MEASURE( 0.02539999999999999897 ), #23 );
#104 = VERTEX_POINT ( 'NONE', #79 ) ;
#105 = CARTESIAN_POINT ( 'NONE',  ( -0.08586404999999999732, 0.0000000000000000000, 2.103062679886566373E-17 ) ) ;
#106 = VECTOR ( 'NONE', #20, 39.37007874015748143 ) ;
#107 = VECTOR ( 'NONE', #40, 39.37007874015748143 ) ;
#108 = DIRECTION ( 'NONE',  ( -1.224646799147353454E-16, -0.0000000000000000000, -1.000000000000000000 ) ) ;
#109 = LINE ( 'NONE', #175, #86 ) ;
#110 = VERTEX_POINT ( 'NONE', #265 ) ;
#111 = CARTESIAN_POINT ( 'NONE',  ( 0.09375000000000001388, 1.148106374200643401E-17, 1.500000000000000222 ) ) ;
#112 = DIRECTION ( 'NONE',  ( -1.224646799147353454E-16, -0.0000000000000000000, -1.000000000000000000 ) ) ;
#113 = CARTESIAN_POINT ( 'NONE',  ( 0.07875000000000061118, 1.056257864264595965E-17, 1.500000000000000222 ) ) ;
#114 = CARTESIAN_POINT ( 'NONE',  ( -0.09375000000000001388, 0.0000000000000000000, 1.485000000000000986 ) ) ;
#115 = DIRECTION ( 'NONE',  ( 0.0000000000000000000, 0.0000000000000000000, -1.000000000000000000 ) ) ;
#116 = FILL_AREA_STYLE_COLOUR ( '', #42 ) ;
#117 = SURFACE_SIDE_STYLE ('',( #141 ) ) ;
#118 =( GEOMETRIC_REPRESENTATION_CONTEXT ( 3 ) GLOBAL_UNCERTAINTY_ASSIGNED_CONTEXT ( ( #99 ) ) GLOBAL_UNIT_ASSIGNED_CONTEXT ( ( #192, #285, #76 ) ) REPRESENTATION_CONTEXT ( 'NONE', 'WORKASPACE' ) );
#119 = FILL_AREA_STYLE ('',( #70 ) ) ;
#120 = DIRECTION ( 'NONE',  ( 1.224646799147353454E-16, 0.0000000000000000000, 1.000000000000000000 ) ) ;
#121 = VERTEX_POINT ( 'NONE', #54 ) ;
#122 = CIRCLE ( 'NONE', #286, 0.09375000000000001388 ) ;
#123 = DIRECTION ( 'NONE',  ( -1.224646799147353454E-16, -0.0000000000000000000, -1.000000000000000000 ) ) ;
#124 = ORIENTED_EDGE ( 'NONE', *, *, #45, .F. ) ;
#125 = LINE ( 'NONE', #151, #196 ) ;
#126 = PRODUCT_DEFINITION ( 'UNKNOWN', '', #267, #263 ) ;
#127 = PRODUCT_DEFINITION_SHAPE ( 'NONE', 'NONE',  #126 ) ;
#128 = AXIS2_PLACEMENT_3D ( 'NONE', #157, #123, #289 ) ;
#129 = ORIENTED_EDGE ( 'NONE', *, *, #223, .T. ) ;
#130 = ORIENTED_EDGE ( 'NONE', *, *, #6, .T. ) ;
#131 = LINE ( 'NONE', #224, #85 ) ;
#132 = PRODUCT ( 'Micro_SEM-171-04', 'Micro_SEM-171-04', '', ( #78 ) ) ;
#133 = PLANE ( 'NONE',  #22 ) ;
#134 = VECTOR ( 'NONE', #41, 39.37007874015748143 ) ;
#135 = CARTESIAN_POINT ( 'NONE',  ( 0.0000000000000000000, 0.0000000000000000000, 0.0000000000000000000 ) ) ;
#136 = EDGE_CURVE ( 'NONE', #239, #104, #125, .T. ) ;
#137 = CARTESIAN_POINT ( 'NONE',  ( 0.09375000000000004163, 1.148106374200644017E-17, 0.3577234448654141308 ) ) ;
#138 = CARTESIAN_POINT ( 'NONE',  ( 0.0000000000000000000, 0.0000000000000000000, 1.500000000000000222 ) ) ;
#139 = COLOUR_RGB ( '',0.7921568627450980005, 0.8196078431372548767, 0.9333333333333333481 ) ;
#140 = EDGE_CURVE ( 'NONE', #121, #239, #243, .T. ) ;
#141 = SURFACE_STYLE_FILL_AREA ( #212 ) ;
#142 = ORIENTED_EDGE ( 'NONE', *, *, #15, .F. ) ;
#143 = AXIS2_PLACEMENT_3D ( 'NONE', #207, #296, #87 ) ;
#144 = AXIS2_PLACEMENT_3D ( 'NONE', #208, #298, #251 ) ;
#145 = SURFACE_STYLE_USAGE ( .BOTH. , #166 ) ;
#146 = EDGE_LOOP ( 'NONE', ( #98, #71, #26, #30 ) ) ;
#147 = CARTESIAN_POINT ( 'NONE',  ( 0.0000000000000000000, 0.0000000000000000000, 0.0000000000000000000 ) ) ;
#148 = ORIENTED_EDGE ( 'NONE', *, *, #165, .F. ) ;
#149 = EDGE_CURVE ( 'NONE', #110, #231, #277, .T. ) ;
#150 = ADVANCED_BREP_SHAPE_REPRESENTATION ( 'Micro_SEM-171-04', ( #281, #162 ), #118 ) ;
#151 = CARTESIAN_POINT ( 'NONE',  ( 0.08586404999999998344, 1.051531339943282878E-17, -1.051531339943283032E-17 ) ) ;
#152 = CARTESIAN_POINT ( 'NONE',  ( -0.09374999999999995837, 0.0000000000000000000, 0.3577234448654141308 ) ) ;
#153 = ORIENTED_EDGE ( 'NONE', *, *, #6, .F. ) ;
#154 = AXIS2_PLACEMENT_3D ( 'NONE', #200, #202, #293 ) ;
#155 = MECHANICAL_DESIGN_GEOMETRIC_PRESENTATION_REPRESENTATION (  '', ( #197 ), #258 ) ;
#156 = FACE_OUTER_BOUND ( 'NONE', #271, .T. ) ;
#157 = CARTESIAN_POINT ( 'NONE',  ( 1.287754489664669484E-33, 0.0000000000000000000, 1.051531339943283186E-17 ) ) ;
#158 = FACE_OUTER_BOUND ( 'NONE', #215, .T. ) ;
#159 = ADVANCED_FACE ( 'NONE', ( #228 ), #66, .F. ) ;
#160 = CARTESIAN_POINT ( 'NONE',  ( 0.0000000000000000000, 0.0000000000000000000, 1.485000000000000986 ) ) ;
#161 = VECTOR ( 'NONE', #17, 39.37007874015747433 ) ;
#162 = AXIS2_PLACEMENT_3D ( 'NONE', #147, #235, #58 ) ;
#163 = CARTESIAN_POINT ( 'NONE',  ( 3.833144481331216295E-17, 0.0000000000000000000, 0.3130000000000000004 ) ) ;
#164 = DIRECTION ( 'NONE',  ( -1.000000000000000000, 0.0000000000000000000, 1.224646799147353454E-16 ) ) ;
#165 = EDGE_CURVE ( 'NONE', #221, #191, #35, .T. ) ;
#166 = SURFACE_SIDE_STYLE ('',( #195 ) ) ;
#167 = PRESENTATION_STYLE_ASSIGNMENT (( #214 ) ) ;
#168 = ORIENTED_EDGE ( 'NONE', *, *, #165, .T. ) ;
#169 = ADVANCED_FACE ( 'NONE', ( #91 ), #266, .T. ) ;
#170 = ORIENTED_EDGE ( 'NONE', *, *, #172, .T. ) ;
#171 = EDGE_LOOP ( 'NONE', ( #124, #25, #12, #179 ) ) ;
#172 = EDGE_CURVE ( 'NONE', #73, #191, #27, .T. ) ;
#173 = APPLICATION_CONTEXT ( 'automotive_design' ) ;
#174 = EDGE_LOOP ( 'NONE', ( #2, #43, #170, #153 ) ) ;
#175 = CARTESIAN_POINT ( 'NONE',  ( 0.08586405000000002508, 0.0000000000000000000, 0.3130000000000000004 ) ) ;
#176 = ADVANCED_FACE ( 'NONE', ( #37 ), #227, .T. ) ;
#177 = DIRECTION ( 'NONE',  ( -1.224646799147353454E-16, -0.0000000000000000000, -1.000000000000000000 ) ) ;
#178 = PRODUCT_RELATED_PRODUCT_CATEGORY ( 'part', '', ( #132 ) ) ;
#179 = ORIENTED_EDGE ( 'NONE', *, *, #149, .F. ) ;
#180 = CIRCLE ( 'NONE', #128, 0.08586404999999999732 ) ;
#181 = DIRECTION ( 'NONE',  ( -1.000000000000000000, 0.0000000000000000000, 0.0000000000000000000 ) ) ;
#182 = CARTESIAN_POINT ( 'NONE',  ( 0.0000000000000000000, 0.0000000000000000000, 1.500000000000000222 ) ) ;
#183 = DIRECTION ( 'NONE',  ( -1.000000000000000000, 0.0000000000000000000, 0.0000000000000000000 ) ) ;
#184 = DIRECTION ( 'NONE',  ( 1.000000000000000000, 0.0000000000000000000, -0.0000000000000000000 ) ) ;
#185 = DIRECTION ( 'NONE',  ( -1.000000000000000000, 0.0000000000000000000, 0.0000000000000000000 ) ) ;
#186 = EDGE_CURVE ( 'NONE', #121, #73, #64, .T. ) ;
#187 = UNCERTAINTY_MEASURE_WITH_UNIT (LENGTH_MEASURE( 1.000000000000000082E-05 ), #44, 'distance_accuracy_value', 'NONE');
#188 = CARTESIAN_POINT ( 'NONE',  ( 0.08586405000000002508, 0.0000000000000000000, 0.3130000000000000004 ) ) ;
#189 = CARTESIAN_POINT ( 'NONE',  ( 0.0000000000000000000, 0.0000000000000000000, 1.500000000000000222 ) ) ;
#190 = AXIS2_PLACEMENT_3D ( 'NONE', #84, #82, #181 ) ;
#191 = VERTEX_POINT ( 'NONE', #137 ) ;
#192 =( CONVERSION_BASED_UNIT ( 'INCH', #21 ) LENGTH_UNIT ( ) NAMED_UNIT ( #49 ) );
#193 = EDGE_CURVE ( 'NONE', #242, #221, #131, .T. ) ;
#194 = ORIENTED_EDGE ( 'NONE', *, *, #245, .F. ) ;
#195 = SURFACE_STYLE_FILL_AREA ( #119 ) ;
#196 = VECTOR ( 'NONE', #241, 39.37007874015748143 ) ;
#197 = STYLED_ITEM ( 'NONE', ( #167 ), #150 ) ;
#198 = DIRECTION ( 'NONE',  ( 0.0000000000000000000, 0.0000000000000000000, -1.000000000000000000 ) ) ;
#199 = DIRECTION ( 'NONE',  ( -1.000000000000000000, 0.0000000000000000000, 1.224646799147353454E-16 ) ) ;
#200 = CARTESIAN_POINT ( 'NONE',  ( 3.833144481331216295E-17, 0.0000000000000000000, 0.3130000000000000004 ) ) ;
#201 = AXIS2_PLACEMENT_3D ( 'NONE', #182, #275, #183 ) ;
#202 = DIRECTION ( 'NONE',  ( -1.224646799147353454E-16, -0.0000000000000000000, -1.000000000000000000 ) ) ;
#203 = DIRECTION ( 'NONE',  ( 0.1736481776669314137, 0.0000000000000000000, 0.9848077530122077983 ) ) ;
#204 = CARTESIAN_POINT ( 'NONE',  ( 4.380848717343942177E-17, 0.0000000000000000000, 0.3577234448654141308 ) ) ;
#205 = DIRECTION ( 'NONE',  ( -1.000000000000000000, 0.0000000000000000000, 0.0000000000000000000 ) ) ;
#206 = EDGE_CURVE ( 'NONE', #221, #231, #69, .T. ) ;
#207 = CARTESIAN_POINT ( 'NONE',  ( 4.380848717343942177E-17, 0.0000000000000000000, 0.3577234448654141308 ) ) ;
#208 = CARTESIAN_POINT ( 'NONE',  ( 1.287754489664669484E-33, 0.0000000000000000000, 1.051531339943283186E-17 ) ) ;
#209 = CARTESIAN_POINT ( 'NONE',  ( 0.0000000000000000000, 0.0000000000000000000, 0.0000000000000000000 ) ) ;
#210 = CLOSED_SHELL ( 'NONE', ( #63, #290, #169, #252, #48, #255, #272, #260, #176, #159 ) ) ;
#211 = DIRECTION ( 'NONE',  ( 0.0000000000000000000, 0.0000000000000000000, 1.000000000000000000 ) ) ;
#212 = FILL_AREA_STYLE ('',( #116 ) ) ;
#213 = ORIENTED_EDGE ( 'NONE', *, *, #36, .F. ) ;
#214 = SURFACE_STYLE_USAGE ( .BOTH. , #117 ) ;
#215 = EDGE_LOOP ( 'NONE', ( #7, #262 ) ) ;
#216 =( LENGTH_UNIT ( ) NAMED_UNIT ( * ) SI_UNIT ( $, .METRE. ) );
#217 =( NAMED_UNIT ( * ) SI_UNIT ( $, .STERADIAN. ) SOLID_ANGLE_UNIT ( ) );
#218 = ORIENTED_EDGE ( 'NONE', *, *, #36, .T. ) ;
#219 = ORIENTED_EDGE ( 'NONE', *, *, #136, .F. ) ;
#220 = ORIENTED_EDGE ( 'NONE', *, *, #94, .F. ) ;
#221 = VERTEX_POINT ( 'NONE', #250 ) ;
#222 = EDGE_LOOP ( 'NONE', ( #219, #218, #55, #220 ) ) ;
#223 = EDGE_CURVE ( 'NONE', #231, #73, #89, .T. ) ;
#224 = CARTESIAN_POINT ( 'NONE',  ( 0.07875000000000061118, 9.644093543285480678E-18, 1.500000000000000222 ) ) ;
#225 = CARTESIAN_POINT ( 'NONE',  ( 0.0000000000000000000, 0.0000000000000000000, 1.500000000000000222 ) ) ;
#226 = DIRECTION ( 'NONE',  ( 1.224646799147353454E-16, 0.0000000000000000000, 1.000000000000000000 ) ) ;
#227 = CYLINDRICAL_SURFACE ( 'NONE', #52, 0.08586404999999998344 ) ;
#228 = FACE_OUTER_BOUND ( 'NONE', #11, .T. ) ;
#229 = ORIENTED_EDGE ( 'NONE', *, *, #94, .T. ) ;
#230 = PRESENTATION_STYLE_ASSIGNMENT (( #145 ) ) ;
#231 = VERTEX_POINT ( 'NONE', #114 ) ;
#232 = EDGE_CURVE ( 'NONE', #121, #34, #13, .T. ) ;
#233 =( NAMED_UNIT ( * ) PLANE_ANGLE_UNIT ( ) SI_UNIT ( $, .RADIAN. ) );
#234 = ORIENTED_EDGE ( 'NONE', *, *, #280, .T. ) ;
#235 = DIRECTION ( 'NONE',  ( 0.0000000000000000000, 0.0000000000000000000, 1.000000000000000000 ) ) ;
#236 = ORIENTED_EDGE ( 'NONE', *, *, #149, .T. ) ;
#237 = CIRCLE ( 'NONE', #287, 0.09375000000000001388 ) ;
#238 =( NAMED_UNIT ( * ) SI_UNIT ( $, .STERADIAN. ) SOLID_ANGLE_UNIT ( ) );
#239 = VERTEX_POINT ( 'NONE', #188 ) ;
#240 =( NAMED_UNIT ( * ) PLANE_ANGLE_UNIT ( ) SI_UNIT ( $, .RADIAN. ) );
#241 = DIRECTION ( 'NONE',  ( -1.224646799147353454E-16, -0.0000000000000000000, -1.000000000000000000 ) ) ;
#242 = VERTEX_POINT ( 'NONE', #113 ) ;
#243 = CIRCLE ( 'NONE', #80, 0.08586404999999998344 ) ;
#244 = CYLINDRICAL_SURFACE ( 'NONE', #90, 0.08586404999999998344 ) ;
#245 = EDGE_CURVE ( 'NONE', #110, #242, #248, .T. ) ;
#246 = CARTESIAN_POINT ( 'NONE',  ( -0.07875000000000061118, 0.0000000000000000000, 1.500000000000000222 ) ) ;
#247 = CARTESIAN_POINT ( 'NONE',  ( -0.09375000000000001388, 0.0000000000000000000, 1.500000000000000222 ) ) ;
#248 = CIRCLE ( 'NONE', #38, 0.07875000000000061118 ) ;
#249 = AXIS2_PLACEMENT_3D ( 'NONE', #189, #198, #100 ) ;
#250 = CARTESIAN_POINT ( 'NONE',  ( 0.09375000000000001388, 1.148106374200643401E-17, 1.485000000000000986 ) ) ;
#251 = DIRECTION ( 'NONE',  ( -1.000000000000000000, 0.0000000000000000000, 1.224646799147353454E-16 ) ) ;
#252 = ADVANCED_FACE ( 'NONE', ( #68 ), #297, .T. ) ;
#253 = DIRECTION ( 'NONE',  ( 0.0000000000000000000, 0.0000000000000000000, -1.000000000000000000 ) ) ;
#254 = AXIS2_PLACEMENT_3D ( 'NONE', #5, #120, #93 ) ;
#255 = ADVANCED_FACE ( 'NONE', ( #158 ), #133, .T. ) ;
#256 = DIRECTION ( 'NONE',  ( 0.0000000000000000000, 0.0000000000000000000, -1.000000000000000000 ) ) ;
#257 = FACE_OUTER_BOUND ( 'NONE', #283, .T. ) ;
#258 =( GEOMETRIC_REPRESENTATION_CONTEXT ( 3 ) GLOBAL_UNCERTAINTY_ASSIGNED_CONTEXT ( ( #57 ) ) GLOBAL_UNIT_ASSIGNED_CONTEXT ( ( #264, #240, #238 ) ) REPRESENTATION_CONTEXT ( 'NONE', 'WORKASPACE' ) );
#259 =( LENGTH_UNIT ( ) NAMED_UNIT ( * ) SI_UNIT ( $, .METRE. ) );
#260 = ADVANCED_FACE ( 'NONE', ( #39 ), #46, .T. ) ;
#261 = SHAPE_DEFINITION_REPRESENTATION ( #127, #150 ) ;
#262 = ORIENTED_EDGE ( 'NONE', *, *, #45, .T. ) ;
#263 = PRODUCT_DEFINITION_CONTEXT ( 'detailed design', #173, 'design' ) ;
#264 =( CONVERSION_BASED_UNIT ( 'INCH', #103 ) LENGTH_UNIT ( ) NAMED_UNIT ( #77 ) );
#265 = CARTESIAN_POINT ( 'NONE',  ( -0.07875000000000061118, 0.0000000000000000000, 1.500000000000000222 ) ) ;
#266 = CONICAL_SURFACE ( 'NONE', #273, 0.07875000000000061118, 0.7853981633974562726 ) ;
#267 = PRODUCT_DEFINITION_FORMATION_WITH_SPECIFIED_SOURCE ( 'ANY', '', #132, .NOT_KNOWN. ) ;
#268 = CYLINDRICAL_SURFACE ( 'NONE', #190, 0.09375000000000001388 ) ;
#269 = EDGE_CURVE ( 'NONE', #34, #104, #10, .T. ) ;
#270 = ORIENTED_EDGE ( 'NONE', *, *, #269, .T. ) ;
#271 = EDGE_LOOP ( 'NONE', ( #148, #8, #129, #142 ) ) ;
#272 = ADVANCED_FACE ( 'NONE', ( #257 ), #19, .T. ) ;
#273 = AXIS2_PLACEMENT_3D ( 'NONE', #67, #115, #185 ) ;
#274 = CARTESIAN_POINT ( 'NONE',  ( 0.0000000000000000000, 0.0000000000000000000, 0.0000000000000000000 ) ) ;
#275 = DIRECTION ( 'NONE',  ( -0.0000000000000000000, -0.0000000000000000000, -1.000000000000000000 ) ) ;
#276 = DIRECTION ( 'NONE',  ( 1.000000000000000000, 0.0000000000000000000, -0.0000000000000000000 ) ) ;
#277 = LINE ( 'NONE', #246, #107 ) ;
#278 = DIRECTION ( 'NONE',  ( -1.224646799147353454E-16, -0.0000000000000000000, -1.000000000000000000 ) ) ;
#279 = DIRECTION ( 'NONE',  ( 1.000000000000000000, 0.0000000000000000000, 0.0000000000000000000 ) ) ;
#280 = EDGE_CURVE ( 'NONE', #231, #221, #237, .T. ) ;
#281 = MANIFOLD_SOLID_BREP ( 'Cut-Revolve1', #210 ) ;
#282 = PRESENTATION_LAYER_ASSIGNMENT (  '', '', ( #197 ) ) ;
#283 = EDGE_LOOP ( 'NONE', ( #83, #194, #236, #101 ) ) ;
#284 = APPLICATION_CONTEXT ( 'automotive_design' ) ;
#285 =( NAMED_UNIT ( * ) PLANE_ANGLE_UNIT ( ) SI_UNIT ( $, .RADIAN. ) );
#286 = AXIS2_PLACEMENT_3D ( 'NONE', #204, #108, #31 ) ;
#287 = AXIS2_PLACEMENT_3D ( 'NONE', #47, #256, #97 ) ;
#288 = LENGTH_MEASURE_WITH_UNIT ( LENGTH_MEASURE( 0.02539999999999999897 ), #259 );
#289 = DIRECTION ( 'NONE',  ( -1.000000000000000000, 0.0000000000000000000, 1.224646799147353454E-16 ) ) ;
#290 = ADVANCED_FACE ( 'NONE', ( #72 ), #28, .T. ) ;
#291 = DIRECTION ( 'NONE',  ( 1.000000000000000000, 0.0000000000000000000, 0.0000000000000000000 ) ) ;
#292 = CARTESIAN_POINT ( 'NONE',  ( 3.833144481331216295E-17, 0.0000000000000000000, 0.3130000000000000004 ) ) ;
#293 = DIRECTION ( 'NONE',  ( -1.000000000000000000, 0.0000000000000000000, 0.0000000000000000000 ) ) ;
#294 = CARTESIAN_POINT ( 'NONE',  ( 0.0000000000000000000, 0.0000000000000000000, 1.500000000000000222 ) ) ;
#295 = AXIS2_PLACEMENT_3D ( 'NONE', #160, #253, #92 ) ;
#296 = DIRECTION ( 'NONE',  ( -1.224646799147353454E-16, -0.0000000000000000000, -1.000000000000000000 ) ) ;
#297 = CYLINDRICAL_SURFACE ( 'NONE', #201, 0.09375000000000001388 ) ;
#298 = DIRECTION ( 'NONE',  ( -1.224646799147353454E-16, -0.0000000000000000000, -1.000000000000000000 ) ) ;
#299 = CARTESIAN_POINT ( 'NONE',  ( -0.08586404999999998344, 0.0000000000000000000, 1.051531339943283032E-17 ) ) ;
ENDSEC;
END-ISO-10303-21;
