ISO-10303-21;
HEADER;
FILE_DESCRIPTION (( 'STEP AP214' ),
    '1' );
FILE_NAME ('00525.STEP',
    '2023-06-22T14:10:22',
    ( '' ),
    ( '' ),
    'SwSTEP 2.0',
    'SolidWorks 2023',
    '' );
FILE_SCHEMA (( 'AUTOMOTIVE_DESIGN' ));
ENDSEC;

DATA;
#1 = ORIENTED_EDGE ( 'NONE', *, *, #193, .F. ) ;
#2 = DIRECTION ( 'NONE',  ( 4.259641040512536405E-17, -1.000000000000000000, 0.000000000000000000 ) ) ;
#3 =( NAMED_UNIT ( * ) SI_UNIT ( $, .STERADIAN. ) SOLID_ANGLE_UNIT ( ) );
#4 = VERTEX_POINT ( 'NONE', #26 ) ;
#5 = ADVANCED_FACE ( 'NONE', ( #96 ), #78, .T. ) ;
#6 = FILL_AREA_STYLE ('',( #188 ) ) ;
#7 = APPLICATION_CONTEXT ( 'automotive_design' ) ;
#8 = EDGE_LOOP ( 'NONE', ( #192, #118, #244, #31 ) ) ;
#9 = ADVANCED_FACE ( 'NONE', ( #148 ), #273, .T. ) ;
#10 = CARTESIAN_POINT ( 'NONE',  ( 0.000000000000000000, 3.125000000000000000, 0.000000000000000000 ) ) ;
#11 =( NAMED_UNIT ( * ) PLANE_ANGLE_UNIT ( ) SI_UNIT ( $, .RADIAN. ) );
#12 = FACE_OUTER_BOUND ( 'NONE', #164, .T. ) ;
#13 = AXIS2_PLACEMENT_3D ( 'NONE', #269, #246, #54 ) ;
#14 =( CONVERSION_BASED_UNIT ( 'INCH', #257 ) LENGTH_UNIT ( ) NAMED_UNIT ( #186 ) );
#15 = EDGE_CURVE ( 'NONE', #138, #199, #62, .T. ) ;
#16 = FILL_AREA_STYLE ('',( #149 ) ) ;
#17 = PRESENTATION_STYLE_ASSIGNMENT (( #234 ) ) ;
#18 = AXIS2_PLACEMENT_3D ( 'NONE', #290, #24, #240 ) ;
#19 = UNCERTAINTY_MEASURE_WITH_UNIT (LENGTH_MEASURE( 1.000000000000000082E-05 ), #209, 'distance_accuracy_value', 'NONE');
#20 =( CONVERSION_BASED_UNIT ( 'INCH', #65 ) LENGTH_UNIT ( ) NAMED_UNIT ( #195 ) );
#21 =( NAMED_UNIT ( * ) SI_UNIT ( $, .STERADIAN. ) SOLID_ANGLE_UNIT ( ) );
#22 = VECTOR ( 'NONE', #191, 39.37007874015748143 ) ;
#23 = CARTESIAN_POINT ( 'NONE',  ( 0.000000000000000000, 0.000000000000000000, 0.000000000000000000 ) ) ;
#24 = DIRECTION ( 'NONE',  ( -4.259641040512536405E-17, 1.000000000000000000, -0.000000000000000000 ) ) ;
#25 = SURFACE_SIDE_STYLE ('',( #34 ) ) ;
#26 = CARTESIAN_POINT ( 'NONE',  ( 0.2500000000000000555, 3.125000000000000000, 3.061616997868384251E-17 ) ) ;
#27 = CLOSED_SHELL ( 'NONE', ( #5, #207, #9, #227 ) ) ;
#28 = CIRCLE ( 'NONE', #235, 0.2500000000000001110 ) ;
#29 = CARTESIAN_POINT ( 'NONE',  ( 0.2500000000000000555, 6.000000000000000888, 3.061616997868384251E-17 ) ) ;
#30 = EDGE_CURVE ( 'NONE', #4, #272, #80, .T. ) ;
#31 = ORIENTED_EDGE ( 'NONE', *, *, #161, .F. ) ;
#32 = DIRECTION ( 'NONE',  ( -0.000000000000000000, -1.000000000000000000, -0.000000000000000000 ) ) ;
#33 = ORIENTED_EDGE ( 'NONE', *, *, #161, .T. ) ;
#34 = SURFACE_STYLE_FILL_AREA ( #6 ) ;
#35 = STYLED_ITEM ( 'NONE', ( #92 ), #131 ) ;
#36 = PRODUCT_CONTEXT ( 'NONE', #233, 'mechanical' ) ;
#37 = CARTESIAN_POINT ( 'NONE',  ( 0.000000000000000000, 3.125000000000000000, 0.000000000000000000 ) ) ;
#38 = DIRECTION ( 'NONE',  ( -1.000000000000000000, 0.000000000000000000, 0.000000000000000000 ) ) ;
#39 = DIRECTION ( 'NONE',  ( -4.259641040512536405E-17, 1.000000000000000000, -0.000000000000000000 ) ) ;
#40 =( CONVERSION_BASED_UNIT ( 'INCH', #299 ) LENGTH_UNIT ( ) NAMED_UNIT ( #71 ) );
#41 = EDGE_CURVE ( 'NONE', #199, #138, #81, .T. ) ;
#42 = CARTESIAN_POINT ( 'NONE',  ( 3.061616997868383018E-17, 0.000000000000000000, 0.2500000000000000000 ) ) ;
#43 = CIRCLE ( 'NONE', #53, 0.2500000000000001110 ) ;
#44 =( LENGTH_UNIT ( ) NAMED_UNIT ( * ) SI_UNIT ( $, .METRE. ) );
#45 = DIRECTION ( 'NONE',  ( -0.000000000000000000, -1.000000000000000000, -0.000000000000000000 ) ) ;
#46 = DIMENSIONAL_EXPONENTS ( 1.000000000000000000, 0.000000000000000000, 0.000000000000000000, 0.000000000000000000, 0.000000000000000000, 0.000000000000000000, 0.000000000000000000 ) ;
#47 = SURFACE_SIDE_STYLE ('',( #70 ) ) ;
#48 = PRODUCT_DEFINITION ( 'UNKNOWN', '', #212, #260 ) ;
#49 = COLOUR_RGB ( '',0.7921568627450980005, 0.8196078431372548767, 0.9333333333333333481 ) ;
#50 = DIRECTION ( 'NONE',  ( -4.259641040512536405E-17, 1.000000000000000000, 0.000000000000000000 ) ) ;
#51 = PLANE ( 'NONE',  #146 ) ;
#52 = ORIENTED_EDGE ( 'NONE', *, *, #30, .F. ) ;
#53 = AXIS2_PLACEMENT_3D ( 'NONE', #116, #104, #38 ) ;
#54 = DIRECTION ( 'NONE',  ( -1.000000000000000000, 0.000000000000000000, 0.000000000000000000 ) ) ;
#55 = VERTEX_POINT ( 'NONE', #102 ) ;
#56 = ADVANCED_FACE ( 'NONE', ( #12 ), #174, .T. ) ;
#57 = SURFACE_SIDE_STYLE ('',( #155 ) ) ;
#58 = SURFACE_SIDE_STYLE ('',( #259 ) ) ;
#59 = EDGE_CURVE ( 'NONE', #98, #145, #293, .T. ) ;
#60 = FACE_OUTER_BOUND ( 'NONE', #168, .T. ) ;
#61 = UNCERTAINTY_MEASURE_WITH_UNIT (LENGTH_MEASURE( 1.000000000000000082E-05 ), #206, 'distance_accuracy_value', 'NONE');
#62 = CIRCLE ( 'NONE', #184, 0.2500000000000000000 ) ;
#63 = MECHANICAL_DESIGN_GEOMETRIC_PRESENTATION_REPRESENTATION (  '', ( #204 ), #162 ) ;
#64 = UNCERTAINTY_MEASURE_WITH_UNIT (LENGTH_MEASURE( 1.000000000000000082E-05 ), #270, 'distance_accuracy_value', 'NONE');
#65 = LENGTH_MEASURE_WITH_UNIT ( LENGTH_MEASURE( 0.02539999999999999897 ), #44 );
#66 = CIRCLE ( 'NONE', #242, 0.2500000000000000000 ) ;
#67 = AXIS2_PLACEMENT_3D ( 'NONE', #79, #2, #220 ) ;
#68 = AXIS2_PLACEMENT_3D ( 'NONE', #23, #45, #129 ) ;
#69 = FACE_OUTER_BOUND ( 'NONE', #250, .T. ) ;
#70 = SURFACE_STYLE_FILL_AREA ( #210 ) ;
#71 = DIMENSIONAL_EXPONENTS ( 1.000000000000000000, 0.000000000000000000, 0.000000000000000000, 0.000000000000000000, 0.000000000000000000, 0.000000000000000000, 0.000000000000000000 ) ;
#72 = FILL_AREA_STYLE_COLOUR ( '', #103 ) ;
#73 = PRESENTATION_LAYER_ASSIGNMENT (  '', '', ( #278 ) ) ;
#74 =( GEOMETRIC_REPRESENTATION_CONTEXT ( 3 ) GLOBAL_UNCERTAINTY_ASSIGNED_CONTEXT ( ( #211 ) ) GLOBAL_UNIT_ASSIGNED_CONTEXT ( ( #20, #279, #21 ) ) REPRESENTATION_CONTEXT ( 'NONE', 'WORKASPACE' ) );
#75 = EDGE_LOOP ( 'NONE', ( #291, #141 ) ) ;
#76 = PRODUCT ( '00525', '00525', '', ( #36 ) ) ;
#77 = DIRECTION ( 'NONE',  ( -0.000000000000000000, -1.000000000000000000, -0.000000000000000000 ) ) ;
#78 = CYLINDRICAL_SURFACE ( 'NONE', #13, 0.2500000000000000555 ) ;
#79 = CARTESIAN_POINT ( 'NONE',  ( 0.2500000000000000000, 6.000000000000000888, 0.000000000000000000 ) ) ;
#80 = LINE ( 'NONE', #205, #85 ) ;
#81 = CIRCLE ( 'NONE', #160, 0.2500000000000000000 ) ;
#82 = CIRCLE ( 'NONE', #18, 0.2500000000000000000 ) ;
#83 = FILL_AREA_STYLE ('',( #306 ) ) ;
#84 = CARTESIAN_POINT ( 'NONE',  ( 0.000000000000000000, 3.125000000000000000, 0.000000000000000000 ) ) ;
#85 = VECTOR ( 'NONE', #39, 39.37007874015748143 ) ;
#86 = ADVANCED_BREP_SHAPE_REPRESENTATION ( '00525', ( #284, #178, #135 ), #275 ) ;
#87 = CIRCLE ( 'NONE', #185, 0.2500000000000000000 ) ;
#88 = DIRECTION ( 'NONE',  ( 0.000000000000000000, -1.000000000000000000, -0.000000000000000000 ) ) ;
#89 = MECHANICAL_DESIGN_GEOMETRIC_PRESENTATION_REPRESENTATION (  '', ( #115 ), #274 ) ;
#90 = MECHANICAL_DESIGN_GEOMETRIC_PRESENTATION_REPRESENTATION (  '', ( #35 ), #74 ) ;
#91 = LINE ( 'NONE', #280, #309 ) ;
#92 = PRESENTATION_STYLE_ASSIGNMENT (( #158 ) ) ;
#93 = EDGE_LOOP ( 'NONE', ( #101, #189 ) ) ;
#94 = CARTESIAN_POINT ( 'NONE',  ( 0.000000000000000000, 0.000000000000000000, -0.2500000000000000000 ) ) ;
#95 = SURFACE_STYLE_FILL_AREA ( #217 ) ;
#96 = FACE_OUTER_BOUND ( 'NONE', #8, .T. ) ;
#97 = FACE_OUTER_BOUND ( 'NONE', #93, .T. ) ;
#98 = VERTEX_POINT ( 'NONE', #202 ) ;
#99 = EDGE_CURVE ( 'NONE', #55, #4, #66, .T. ) ;
#100 = PLANE ( 'NONE',  #67 ) ;
#101 = ORIENTED_EDGE ( 'NONE', *, *, #300, .T. ) ;
#102 = CARTESIAN_POINT ( 'NONE',  ( -0.2500000000000000000, 3.125000000000000000, 0.000000000000000000 ) ) ;
#103 = COLOUR_RGB ( '',1.000000000000000000, 0.000000000000000000, 0.000000000000000000 ) ;
#104 = DIRECTION ( 'NONE',  ( -4.259641040512536405E-17, 1.000000000000000000, -0.000000000000000000 ) ) ;
#105 = DIRECTION ( 'NONE',  ( -0.000000000000000000, -1.000000000000000000, -0.000000000000000000 ) ) ;
#106 = CARTESIAN_POINT ( 'NONE',  ( 0.000000000000000000, 3.125000000000000000, 0.000000000000000000 ) ) ;
#107 = SURFACE_STYLE_USAGE ( .BOTH. , #58 ) ;
#108 =( GEOMETRIC_REPRESENTATION_CONTEXT ( 3 ) GLOBAL_UNCERTAINTY_ASSIGNED_CONTEXT ( ( #64 ) ) GLOBAL_UNIT_ASSIGNED_CONTEXT ( ( #270, #167, #3 ) ) REPRESENTATION_CONTEXT ( 'NONE', 'WORKASPACE' ) );
#109 = CARTESIAN_POINT ( 'NONE',  ( 3.061616997868383018E-17, 3.125000000000000000, 0.2500000000000000000 ) ) ;
#110 = AXIS2_PLACEMENT_3D ( 'NONE', #285, #88, #133 ) ;
#111 = ADVANCED_FACE ( 'NONE', ( #60 ), #232, .T. ) ;
#112 =( NAMED_UNIT ( * ) SI_UNIT ( $, .STERADIAN. ) SOLID_ANGLE_UNIT ( ) );
#113 = SURFACE_STYLE_USAGE ( .BOTH. , #25 ) ;
#114 = ORIENTED_EDGE ( 'NONE', *, *, #15, .F. ) ;
#115 = STYLED_ITEM ( 'NONE', ( #303 ), #56 ) ;
#116 = CARTESIAN_POINT ( 'NONE',  ( -1.224646799147354440E-16, 6.000000000000000888, 0.000000000000000000 ) ) ;
#117 = SURFACE_SIDE_STYLE ('',( #95 ) ) ;
#118 = ORIENTED_EDGE ( 'NONE', *, *, #30, .T. ) ;
#119 = ORIENTED_EDGE ( 'NONE', *, *, #239, .T. ) ;
#120 = STYLED_ITEM ( 'NONE', ( #294 ), #284 ) ;
#121 = PRODUCT_RELATED_PRODUCT_CATEGORY ( 'part', '', ( #76 ) ) ;
#122 = CARTESIAN_POINT ( 'NONE',  ( 0.000000000000000000, 0.000000000000000000, 0.000000000000000000 ) ) ;
#123 = SHAPE_DEFINITION_REPRESENTATION ( #289, #86 ) ;
#124 = DIRECTION ( 'NONE',  ( -1.000000000000000000, 0.000000000000000000, 0.000000000000000000 ) ) ;
#125 =( GEOMETRIC_REPRESENTATION_CONTEXT ( 3 ) GLOBAL_UNCERTAINTY_ASSIGNED_CONTEXT ( ( #139 ) ) GLOBAL_UNIT_ASSIGNED_CONTEXT ( ( #226, #230, #224 ) ) REPRESENTATION_CONTEXT ( 'NONE', 'WORKASPACE' ) );
#126 = CARTESIAN_POINT ( 'NONE',  ( -1.224646799147354440E-16, 6.000000000000000888, 0.000000000000000000 ) ) ;
#127 = DIRECTION ( 'NONE',  ( 1.000000000000000000, 0.000000000000000000, 0.000000000000000000 ) ) ;
#128 = DIRECTION ( 'NONE',  ( -4.259641040512536405E-17, 1.000000000000000000, -0.000000000000000000 ) ) ;
#129 = DIRECTION ( 'NONE',  ( 0.000000000000000000, 0.000000000000000000, -1.000000000000000000 ) ) ;
#130 = AXIS2_PLACEMENT_3D ( 'NONE', #106, #301, #176 ) ;
#131 = ADVANCED_FACE ( 'NONE', ( #69 ), #261, .T. ) ;
#132 = FILL_AREA_STYLE ('',( #157 ) ) ;
#133 = DIRECTION ( 'NONE',  ( 0.000000000000000000, 0.000000000000000000, -1.000000000000000000 ) ) ;
#134 = MECHANICAL_DESIGN_GEOMETRIC_PRESENTATION_REPRESENTATION (  '', ( #278 ), #222 ) ;
#135 = AXIS2_PLACEMENT_3D ( 'NONE', #255, #305, #127 ) ;
#136 = DIRECTION ( 'NONE',  ( -0.000000000000000000, -1.000000000000000000, -0.000000000000000000 ) ) ;
#137 = DIRECTION ( 'NONE',  ( 0.000000000000000000, 0.000000000000000000, -1.000000000000000000 ) ) ;
#138 = VERTEX_POINT ( 'NONE', #109 ) ;
#139 = UNCERTAINTY_MEASURE_WITH_UNIT (LENGTH_MEASURE( 1.000000000000000082E-05 ), #226, 'distance_accuracy_value', 'NONE');
#140 = DIRECTION ( 'NONE',  ( 0.000000000000000000, 0.000000000000000000, -1.000000000000000000 ) ) ;
#141 = ORIENTED_EDGE ( 'NONE', *, *, #182, .F. ) ;
#142 = COLOUR_RGB ( '',0.7921568627450980005, 0.8196078431372548767, 0.9333333333333333481 ) ;
#143 = ORIENTED_EDGE ( 'NONE', *, *, #182, .T. ) ;
#144 = DIRECTION ( 'NONE',  ( -1.000000000000000000, 0.000000000000000000, 0.000000000000000000 ) ) ;
#145 = VERTEX_POINT ( 'NONE', #42 ) ;
#146 = AXIS2_PLACEMENT_3D ( 'NONE', #213, #50, #297 ) ;
#147 =( NAMED_UNIT ( * ) PLANE_ANGLE_UNIT ( ) SI_UNIT ( $, .RADIAN. ) );
#148 = FACE_OUTER_BOUND ( 'NONE', #170, .T. ) ;
#149 = FILL_AREA_STYLE_COLOUR ( '', #150 ) ;
#150 = COLOUR_RGB ( '',1.000000000000000000, 0.000000000000000000, 0.000000000000000000 ) ;
#151 = PRESENTATION_LAYER_ASSIGNMENT (  '', '', ( #223 ) ) ;
#152 = CARTESIAN_POINT ( 'NONE',  ( -1.224646799147354440E-16, 6.000000000000000888, 0.000000000000000000 ) ) ;
#153 = DIRECTION ( 'NONE',  ( -0.000000000000000000, -1.000000000000000000, -0.000000000000000000 ) ) ;
#154 = UNCERTAINTY_MEASURE_WITH_UNIT (LENGTH_MEASURE( 1.000000000000000082E-05 ), #14, 'distance_accuracy_value', 'NONE');
#155 = SURFACE_STYLE_FILL_AREA ( #83 ) ;
#156 = PRESENTATION_LAYER_ASSIGNMENT (  '', '', ( #115 ) ) ;
#157 = FILL_AREA_STYLE_COLOUR ( '', #251 ) ;
#158 = SURFACE_STYLE_USAGE ( .BOTH. , #187 ) ;
#159 = CYLINDRICAL_SURFACE ( 'NONE', #264, 0.2500000000000000000 ) ;
#160 = AXIS2_PLACEMENT_3D ( 'NONE', #10, #252, #172 ) ;
#161 = EDGE_CURVE ( 'NONE', #55, #165, #91, .T. ) ;
#162 =( GEOMETRIC_REPRESENTATION_CONTEXT ( 3 ) GLOBAL_UNCERTAINTY_ASSIGNED_CONTEXT ( ( #19 ) ) GLOBAL_UNIT_ASSIGNED_CONTEXT ( ( #209, #262, #112 ) ) REPRESENTATION_CONTEXT ( 'NONE', 'WORKASPACE' ) );
#163 = LENGTH_MEASURE_WITH_UNIT ( LENGTH_MEASURE( 0.02539999999999999897 ), #243 );
#164 = EDGE_LOOP ( 'NONE', ( #221, #114 ) ) ;
#165 = VERTEX_POINT ( 'NONE', #263 ) ;
#166 = UNCERTAINTY_MEASURE_WITH_UNIT (LENGTH_MEASURE( 1.000000000000000082E-05 ), #40, 'distance_accuracy_value', 'NONE');
#167 =( NAMED_UNIT ( * ) PLANE_ANGLE_UNIT ( ) SI_UNIT ( $, .RADIAN. ) );
#168 = EDGE_LOOP ( 'NONE', ( #287, #296, #218, #271 ) ) ;
#169 = CARTESIAN_POINT ( 'NONE',  ( 0.000000000000000000, 3.125000000000000000, -0.2500000000000000000 ) ) ;
#170 = EDGE_LOOP ( 'NONE', ( #52, #143, #33, #215 ) ) ;
#171 = ADVANCED_FACE ( 'NONE', ( #183 ), #159, .T. ) ;
#172 = DIRECTION ( 'NONE',  ( 0.000000000000000000, 0.000000000000000000, -1.000000000000000000 ) ) ;
#173 = AXIS2_PLACEMENT_3D ( 'NONE', #126, #231, #124 ) ;
#174 = PLANE ( 'NONE',  #130 ) ;
#175 =( NAMED_UNIT ( * ) SI_UNIT ( $, .STERADIAN. ) SOLID_ANGLE_UNIT ( ) );
#176 = DIRECTION ( 'NONE',  ( 0.000000000000000000, -0.000000000000000000, 1.000000000000000000 ) ) ;
#177 =( LENGTH_UNIT ( ) NAMED_UNIT ( * ) SI_UNIT ( $, .METRE. ) );
#178 = MANIFOLD_SOLID_BREP ( 'Revolve - Tool Body (Straight Shanked)', #27 ) ;
#179 = SURFACE_STYLE_USAGE ( .BOTH. , #57 ) ;
#180 =( LENGTH_UNIT ( ) NAMED_UNIT ( * ) SI_UNIT ( $, .METRE. ) );
#181 =( NAMED_UNIT ( * ) SI_UNIT ( $, .STERADIAN. ) SOLID_ANGLE_UNIT ( ) );
#182 = EDGE_CURVE ( 'NONE', #4, #55, #82, .T. ) ;
#183 = FACE_OUTER_BOUND ( 'NONE', #214, .T. ) ;
#184 = AXIS2_PLACEMENT_3D ( 'NONE', #84, #105, #304 ) ;
#185 = AXIS2_PLACEMENT_3D ( 'NONE', #288, #32, #140 ) ;
#186 = DIMENSIONAL_EXPONENTS ( 1.000000000000000000, 0.000000000000000000, 0.000000000000000000, 0.000000000000000000, 0.000000000000000000, 0.000000000000000000, 0.000000000000000000 ) ;
#187 = SURFACE_SIDE_STYLE ('',( #237 ) ) ;
#188 = FILL_AREA_STYLE_COLOUR ( '', #49 ) ;
#189 = ORIENTED_EDGE ( 'NONE', *, *, #292, .T. ) ;
#190 = MECHANICAL_DESIGN_GEOMETRIC_PRESENTATION_REPRESENTATION (  '', ( #120 ), #125 ) ;
#191 = DIRECTION ( 'NONE',  ( -0.000000000000000000, -1.000000000000000000, -0.000000000000000000 ) ) ;
#192 = ORIENTED_EDGE ( 'NONE', *, *, #99, .T. ) ;
#193 = EDGE_CURVE ( 'NONE', #138, #145, #268, .T. ) ;
#194 = PRESENTATION_STYLE_ASSIGNMENT (( #113 ) ) ;
#195 = DIMENSIONAL_EXPONENTS ( 1.000000000000000000, 0.000000000000000000, 0.000000000000000000, 0.000000000000000000, 0.000000000000000000, 0.000000000000000000, 0.000000000000000000 ) ;
#196 = FILL_AREA_STYLE_COLOUR ( '', #142 ) ;
#197 = ORIENTED_EDGE ( 'NONE', *, *, #59, .T. ) ;
#198 = PRESENTATION_LAYER_ASSIGNMENT (  '', '', ( #35 ) ) ;
#199 = VERTEX_POINT ( 'NONE', #169 ) ;
#200 =( LENGTH_UNIT ( ) NAMED_UNIT ( * ) SI_UNIT ( $, .METRE. ) );
#201 = LENGTH_MEASURE_WITH_UNIT ( LENGTH_MEASURE( 0.02539999999999999897 ), #177 );
#202 = CARTESIAN_POINT ( 'NONE',  ( 0.000000000000000000, 0.000000000000000000, -0.2500000000000000000 ) ) ;
#203 = AXIS2_PLACEMENT_3D ( 'NONE', #122, #153, #277 ) ;
#204 = STYLED_ITEM ( 'NONE', ( #17 ), #171 ) ;
#205 = CARTESIAN_POINT ( 'NONE',  ( 0.2499999999999999167, 6.000000000000000888, 3.061616997868383634E-17 ) ) ;
#206 =( CONVERSION_BASED_UNIT ( 'INCH', #276 ) LENGTH_UNIT ( ) NAMED_UNIT ( #46 ) );
#207 = ADVANCED_FACE ( 'NONE', ( #245 ), #51, .F. ) ;
#208 =( LENGTH_UNIT ( ) NAMED_UNIT ( * ) SI_UNIT ( $, .METRE. ) );
#209 =( CONVERSION_BASED_UNIT ( 'INCH', #308 ) LENGTH_UNIT ( ) NAMED_UNIT ( #295 ) );
#210 = FILL_AREA_STYLE ('',( #72 ) ) ;
#211 = UNCERTAINTY_MEASURE_WITH_UNIT (LENGTH_MEASURE( 1.000000000000000082E-05 ), #20, 'distance_accuracy_value', 'NONE');
#212 = PRODUCT_DEFINITION_FORMATION_WITH_SPECIFIED_SOURCE ( 'ANY', '', #76, .NOT_KNOWN. ) ;
#213 = CARTESIAN_POINT ( 'NONE',  ( 2.268067724252340606E-34, 3.125000000000000000, 0.000000000000000000 ) ) ;
#214 = EDGE_LOOP ( 'NONE', ( #1, #267, #119, #298 ) ) ;
#215 = ORIENTED_EDGE ( 'NONE', *, *, #292, .F. ) ;
#216 = PRESENTATION_LAYER_ASSIGNMENT (  '', '', ( #204 ) ) ;
#217 = FILL_AREA_STYLE ('',( #196 ) ) ;
#218 = ORIENTED_EDGE ( 'NONE', *, *, #59, .F. ) ;
#219 = SURFACE_STYLE_USAGE ( .BOTH. , #117 ) ;
#220 = DIRECTION ( 'NONE',  ( 1.000000000000000000, 4.259641040512536405E-17, 0.000000000000000000 ) ) ;
#221 = ORIENTED_EDGE ( 'NONE', *, *, #41, .F. ) ;
#222 =( GEOMETRIC_REPRESENTATION_CONTEXT ( 3 ) GLOBAL_UNCERTAINTY_ASSIGNED_CONTEXT ( ( #166 ) ) GLOBAL_UNIT_ASSIGNED_CONTEXT ( ( #40, #236, #181 ) ) REPRESENTATION_CONTEXT ( 'NONE', 'WORKASPACE' ) );
#223 = STYLED_ITEM ( 'NONE', ( #194 ), #178 ) ;
#224 =( NAMED_UNIT ( * ) SI_UNIT ( $, .STERADIAN. ) SOLID_ANGLE_UNIT ( ) );
#225 = DIRECTION ( 'NONE',  ( -1.000000000000000000, 0.000000000000000000, 0.000000000000000000 ) ) ;
#226 =( CONVERSION_BASED_UNIT ( 'INCH', #201 ) LENGTH_UNIT ( ) NAMED_UNIT ( #282 ) );
#227 = ADVANCED_FACE ( 'NONE', ( #97 ), #100, .F. ) ;
#228 = COLOUR_RGB ( '',1.000000000000000000, 0.000000000000000000, 0.000000000000000000 ) ;
#229 = MECHANICAL_DESIGN_GEOMETRIC_PRESENTATION_REPRESENTATION (  '', ( #223 ), #108 ) ;
#230 =( NAMED_UNIT ( * ) PLANE_ANGLE_UNIT ( ) SI_UNIT ( $, .RADIAN. ) );
#231 = DIRECTION ( 'NONE',  ( -4.259641040512536405E-17, 1.000000000000000000, -0.000000000000000000 ) ) ;
#232 = CYLINDRICAL_SURFACE ( 'NONE', #68, 0.2500000000000000000 ) ;
#233 = APPLICATION_CONTEXT ( 'automotive_design' ) ;
#234 = SURFACE_STYLE_USAGE ( .BOTH. , #47 ) ;
#235 = AXIS2_PLACEMENT_3D ( 'NONE', #152, #302, #144 ) ;
#236 =( NAMED_UNIT ( * ) PLANE_ANGLE_UNIT ( ) SI_UNIT ( $, .RADIAN. ) );
#237 = SURFACE_STYLE_FILL_AREA ( #132 ) ;
#238 = DIMENSIONAL_EXPONENTS ( 1.000000000000000000, 0.000000000000000000, 0.000000000000000000, 0.000000000000000000, 0.000000000000000000, 0.000000000000000000, 0.000000000000000000 ) ;
#239 = EDGE_CURVE ( 'NONE', #199, #98, #265, .T. ) ;
#240 = DIRECTION ( 'NONE',  ( -1.000000000000000000, 0.000000000000000000, 0.000000000000000000 ) ) ;
#241 = ORIENTED_EDGE ( 'NONE', *, *, #248, .T. ) ;
#242 = AXIS2_PLACEMENT_3D ( 'NONE', #37, #128, #225 ) ;
#243 =( LENGTH_UNIT ( ) NAMED_UNIT ( * ) SI_UNIT ( $, .METRE. ) );
#244 = ORIENTED_EDGE ( 'NONE', *, *, #300, .F. ) ;
#245 = FACE_OUTER_BOUND ( 'NONE', #75, .T. ) ;
#246 = DIRECTION ( 'NONE',  ( -4.259641040512536405E-17, 1.000000000000000000, -0.000000000000000000 ) ) ;
#247 = CARTESIAN_POINT ( 'NONE',  ( 0.000000000000000000, 0.000000000000000000, 0.000000000000000000 ) ) ;
#248 = EDGE_CURVE ( 'NONE', #145, #98, #87, .T. ) ;
#249 = APPLICATION_PROTOCOL_DEFINITION ( 'draft international standard', 'automotive_design', 1998, #7 ) ;
#250 = EDGE_LOOP ( 'NONE', ( #197, #241 ) ) ;
#251 = COLOUR_RGB ( '',1.000000000000000000, 0.000000000000000000, 0.000000000000000000 ) ;
#252 = DIRECTION ( 'NONE',  ( -0.000000000000000000, -1.000000000000000000, -0.000000000000000000 ) ) ;
#253 = APPLICATION_PROTOCOL_DEFINITION ( 'draft international standard', 'automotive_design', 1998, #233 ) ;
#254 =( LENGTH_UNIT ( ) NAMED_UNIT ( * ) SI_UNIT ( $, .METRE. ) );
#255 = CARTESIAN_POINT ( 'NONE',  ( 0.000000000000000000, 0.000000000000000000, 0.000000000000000000 ) ) ;
#256 = PRESENTATION_STYLE_ASSIGNMENT (( #107 ) ) ;
#257 = LENGTH_MEASURE_WITH_UNIT ( LENGTH_MEASURE( 0.02539999999999999897 ), #200 );
#258 =( NAMED_UNIT ( * ) SI_UNIT ( $, .STERADIAN. ) SOLID_ANGLE_UNIT ( ) );
#259 = SURFACE_STYLE_FILL_AREA ( #16 ) ;
#260 = PRODUCT_DEFINITION_CONTEXT ( 'detailed design', #7, 'design' ) ;
#261 = PLANE ( 'NONE',  #110 ) ;
#262 =( NAMED_UNIT ( * ) PLANE_ANGLE_UNIT ( ) SI_UNIT ( $, .RADIAN. ) );
#263 = CARTESIAN_POINT ( 'NONE',  ( -0.2500000000000002776, 6.000000000000000888, 0.000000000000000000 ) ) ;
#264 = AXIS2_PLACEMENT_3D ( 'NONE', #247, #136, #137 ) ;
#265 = LINE ( 'NONE', #94, #22 ) ;
#266 = CARTESIAN_POINT ( 'NONE',  ( 3.061616997868383018E-17, 0.000000000000000000, 0.2500000000000000000 ) ) ;
#267 = ORIENTED_EDGE ( 'NONE', *, *, #15, .T. ) ;
#268 = LINE ( 'NONE', #266, #286 ) ;
#269 = CARTESIAN_POINT ( 'NONE',  ( -1.224646799147354440E-16, 6.000000000000000888, 0.000000000000000000 ) ) ;
#270 =( CONVERSION_BASED_UNIT ( 'INCH', #163 ) LENGTH_UNIT ( ) NAMED_UNIT ( #238 ) );
#271 = ORIENTED_EDGE ( 'NONE', *, *, #239, .F. ) ;
#272 = VERTEX_POINT ( 'NONE', #29 ) ;
#273 = CYLINDRICAL_SURFACE ( 'NONE', #173, 0.2500000000000000555 ) ;
#274 =( GEOMETRIC_REPRESENTATION_CONTEXT ( 3 ) GLOBAL_UNCERTAINTY_ASSIGNED_CONTEXT ( ( #61 ) ) GLOBAL_UNIT_ASSIGNED_CONTEXT ( ( #206, #147, #258 ) ) REPRESENTATION_CONTEXT ( 'NONE', 'WORKASPACE' ) );
#275 =( GEOMETRIC_REPRESENTATION_CONTEXT ( 3 ) GLOBAL_UNCERTAINTY_ASSIGNED_CONTEXT ( ( #154 ) ) GLOBAL_UNIT_ASSIGNED_CONTEXT ( ( #14, #11, #175 ) ) REPRESENTATION_CONTEXT ( 'NONE', 'WORKASPACE' ) );
#276 = LENGTH_MEASURE_WITH_UNIT ( LENGTH_MEASURE( 0.02539999999999999897 ), #254 );
#277 = DIRECTION ( 'NONE',  ( 0.000000000000000000, 0.000000000000000000, -1.000000000000000000 ) ) ;
#278 = STYLED_ITEM ( 'NONE', ( #256 ), #111 ) ;
#279 =( NAMED_UNIT ( * ) PLANE_ANGLE_UNIT ( ) SI_UNIT ( $, .RADIAN. ) );
#280 = CARTESIAN_POINT ( 'NONE',  ( -0.2500000000000002220, 6.000000000000000888, 0.000000000000000000 ) ) ;
#281 = CLOSED_SHELL ( 'NONE', ( #111, #56, #171, #131 ) ) ;
#282 = DIMENSIONAL_EXPONENTS ( 1.000000000000000000, 0.000000000000000000, 0.000000000000000000, 0.000000000000000000, 0.000000000000000000, 0.000000000000000000, 0.000000000000000000 ) ;
#283 = DIRECTION ( 'NONE',  ( -4.259641040512536405E-17, 1.000000000000000000, -0.000000000000000000 ) ) ;
#284 = MANIFOLD_SOLID_BREP ( 'Revolve - Cutting Edge', #281 ) ;
#285 = CARTESIAN_POINT ( 'NONE',  ( 0.000000000000000000, 0.000000000000000000, 0.000000000000000000 ) ) ;
#286 = VECTOR ( 'NONE', #77, 39.37007874015748143 ) ;
#287 = ORIENTED_EDGE ( 'NONE', *, *, #41, .T. ) ;
#288 = CARTESIAN_POINT ( 'NONE',  ( 0.000000000000000000, 0.000000000000000000, 0.000000000000000000 ) ) ;
#289 = PRODUCT_DEFINITION_SHAPE ( 'NONE', 'NONE',  #48 ) ;
#290 = CARTESIAN_POINT ( 'NONE',  ( 0.000000000000000000, 3.125000000000000000, 0.000000000000000000 ) ) ;
#291 = ORIENTED_EDGE ( 'NONE', *, *, #99, .F. ) ;
#292 = EDGE_CURVE ( 'NONE', #272, #165, #43, .T. ) ;
#293 = CIRCLE ( 'NONE', #203, 0.2500000000000000000 ) ;
#294 = PRESENTATION_STYLE_ASSIGNMENT (( #219 ) ) ;
#295 = DIMENSIONAL_EXPONENTS ( 1.000000000000000000, 0.000000000000000000, 0.000000000000000000, 0.000000000000000000, 0.000000000000000000, 0.000000000000000000, 0.000000000000000000 ) ;
#296 = ORIENTED_EDGE ( 'NONE', *, *, #193, .T. ) ;
#297 = DIRECTION ( 'NONE',  ( -1.000000000000000000, -4.259641040512536405E-17, 0.000000000000000000 ) ) ;
#298 = ORIENTED_EDGE ( 'NONE', *, *, #248, .F. ) ;
#299 = LENGTH_MEASURE_WITH_UNIT ( LENGTH_MEASURE( 0.02539999999999999897 ), #180 );
#300 = EDGE_CURVE ( 'NONE', #165, #272, #28, .T. ) ;
#301 = DIRECTION ( 'NONE',  ( 0.000000000000000000, 1.000000000000000000, 0.000000000000000000 ) ) ;
#302 = DIRECTION ( 'NONE',  ( -4.259641040512536405E-17, 1.000000000000000000, -0.000000000000000000 ) ) ;
#303 = PRESENTATION_STYLE_ASSIGNMENT (( #179 ) ) ;
#304 = DIRECTION ( 'NONE',  ( 0.000000000000000000, 0.000000000000000000, -1.000000000000000000 ) ) ;
#305 = DIRECTION ( 'NONE',  ( 0.000000000000000000, 0.000000000000000000, 1.000000000000000000 ) ) ;
#306 = FILL_AREA_STYLE_COLOUR ( '', #228 ) ;
#307 = PRESENTATION_LAYER_ASSIGNMENT (  '', '', ( #120 ) ) ;
#308 = LENGTH_MEASURE_WITH_UNIT ( LENGTH_MEASURE( 0.02539999999999999897 ), #208 );
#309 = VECTOR ( 'NONE', #283, 39.37007874015748143 ) ;
ENDSEC;
END-ISO-10303-21;
