ISO-10303-21;
HEADER;
FILE_DESCRIPTION (( 'STEP AP214' ),
    '1' );
FILE_NAME ('82259.STEP',
    '2023-06-23T04:26:21',
    ( '' ),
    ( '' ),
    'SwSTEP 2.0',
    'SolidWorks 2023',
    '' );
FILE_SCHEMA (( 'AUTOMOTIVE_DESIGN' ));
ENDSEC;

DATA;
#1 = DIMENSIONAL_EXPONENTS ( 1.000000000000000000, 0.000000000000000000, 0.000000000000000000, 0.000000000000000000, 0.000000000000000000, 0.000000000000000000, 0.000000000000000000 ) ;
#2 =( CONVERSION_BASED_UNIT ( 'INCH', #276 ) LENGTH_UNIT ( ) NAMED_UNIT ( #98 ) );
#3 = CIRCLE ( 'NONE', #14, 0.2500000000000002220 ) ;
#4 = VECTOR ( 'NONE', #130, 39.37007874015748143 ) ;
#5 = VERTEX_POINT ( 'NONE', #196 ) ;
#6 = PRODUCT_RELATED_PRODUCT_CATEGORY ( 'part', '', ( #164 ) ) ;
#7 =( CONVERSION_BASED_UNIT ( 'INCH', #247 ) LENGTH_UNIT ( ) NAMED_UNIT ( #191 ) );
#8 = DIRECTION ( 'NONE',  ( -0.000000000000000000, -1.000000000000000000, -0.000000000000000000 ) ) ;
#9 = UNCERTAINTY_MEASURE_WITH_UNIT (LENGTH_MEASURE( 1.000000000000000082E-05 ), #118, 'distance_accuracy_value', 'NONE');
#10 = VERTEX_POINT ( 'NONE', #80 ) ;
#11 = CARTESIAN_POINT ( 'NONE',  ( 0.000000000000000000, 0.000000000000000000, 0.000000000000000000 ) ) ;
#12 = CARTESIAN_POINT ( 'NONE',  ( -2.449293598294707400E-16, 6.000000000000000888, 0.000000000000000000 ) ) ;
#13 = MECHANICAL_DESIGN_GEOMETRIC_PRESENTATION_REPRESENTATION (  '', ( #246 ), #97 ) ;
#14 = AXIS2_PLACEMENT_3D ( 'NONE', #62, #132, #134 ) ;
#15 = CARTESIAN_POINT ( 'NONE',  ( 0.000000000000000000, 0.000000000000000000, 0.000000000000000000 ) ) ;
#16 = PRESENTATION_STYLE_ASSIGNMENT (( #282 ) ) ;
#17 = CARTESIAN_POINT ( 'NONE',  ( 0.2500000000000000000, 6.000000000000000888, 0.000000000000000000 ) ) ;
#18 = DIRECTION ( 'NONE',  ( 0.000000000000000000, 1.000000000000000000, 0.000000000000000000 ) ) ;
#19 =( CONVERSION_BASED_UNIT ( 'INCH', #237 ) LENGTH_UNIT ( ) NAMED_UNIT ( #78 ) );
#20 = DIMENSIONAL_EXPONENTS ( 1.000000000000000000, 0.000000000000000000, 0.000000000000000000, 0.000000000000000000, 0.000000000000000000, 0.000000000000000000, 0.000000000000000000 ) ;
#21 = COLOUR_RGB ( '',1.000000000000000000, 0.000000000000000000, 0.000000000000000000 ) ;
#22 = CIRCLE ( 'NONE', #110, 0.2500000000000000000 ) ;
#23 =( LENGTH_UNIT ( ) NAMED_UNIT ( * ) SI_UNIT ( $, .METRE. ) );
#24 = PRODUCT_CONTEXT ( 'NONE', #199, 'mechanical' ) ;
#25 = SURFACE_STYLE_FILL_AREA ( #192 ) ;
#26 = EDGE_LOOP ( 'NONE', ( #198, #245, #202, #28 ) ) ;
#27 = ADVANCED_FACE ( 'NONE', ( #171 ), #277, .T. ) ;
#28 = ORIENTED_EDGE ( 'NONE', *, *, #266, .F. ) ;
#29 = CLOSED_SHELL ( 'NONE', ( #115, #27, #141, #107 ) ) ;
#30 = VECTOR ( 'NONE', #236, 39.37007874015748143 ) ;
#31 = ORIENTED_EDGE ( 'NONE', *, *, #101, .T. ) ;
#32 =( NAMED_UNIT ( * ) PLANE_ANGLE_UNIT ( ) SI_UNIT ( $, .RADIAN. ) );
#33 = FILL_AREA_STYLE_COLOUR ( '', #85 ) ;
#34 = CYLINDRICAL_SURFACE ( 'NONE', #56, 0.2500000000000000000 ) ;
#35 =( GEOMETRIC_REPRESENTATION_CONTEXT ( 3 ) GLOBAL_UNCERTAINTY_ASSIGNED_CONTEXT ( ( #158 ) ) GLOBAL_UNIT_ASSIGNED_CONTEXT ( ( #7, #59, #249 ) ) REPRESENTATION_CONTEXT ( 'NONE', 'WORKASPACE' ) );
#36 = LINE ( 'NONE', #281, #30 ) ;
#37 =( CONVERSION_BASED_UNIT ( 'INCH', #216 ) LENGTH_UNIT ( ) NAMED_UNIT ( #119 ) );
#38 = DIRECTION ( 'NONE',  ( -8.519282081025069112E-17, 1.000000000000000000, -0.000000000000000000 ) ) ;
#39 = SURFACE_STYLE_FILL_AREA ( #69 ) ;
#40 =( GEOMETRIC_REPRESENTATION_CONTEXT ( 3 ) GLOBAL_UNCERTAINTY_ASSIGNED_CONTEXT ( ( #215 ) ) GLOBAL_UNIT_ASSIGNED_CONTEXT ( ( #79, #259, #231 ) ) REPRESENTATION_CONTEXT ( 'NONE', 'WORKASPACE' ) );
#41 =( NAMED_UNIT ( * ) PLANE_ANGLE_UNIT ( ) SI_UNIT ( $, .RADIAN. ) );
#42 = DIRECTION ( 'NONE',  ( 0.000000000000000000, 0.000000000000000000, 1.000000000000000000 ) ) ;
#43 = CARTESIAN_POINT ( 'NONE',  ( -2.449293598294707400E-16, 6.000000000000000888, 0.000000000000000000 ) ) ;
#44 = EDGE_CURVE ( 'NONE', #169, #10, #3, .T. ) ;
#45 = STYLED_ITEM ( 'NONE', ( #96 ), #141 ) ;
#46 = LENGTH_MEASURE_WITH_UNIT ( LENGTH_MEASURE( 0.02539999999999999897 ), #23 );
#47 =( NAMED_UNIT ( * ) SI_UNIT ( $, .STERADIAN. ) SOLID_ANGLE_UNIT ( ) );
#48 = STYLED_ITEM ( 'NONE', ( #296 ), #115 ) ;
#49 = ORIENTED_EDGE ( 'NONE', *, *, #84, .F. ) ;
#50 = CYLINDRICAL_SURFACE ( 'NONE', #180, 0.2500000000000000000 ) ;
#51 = UNCERTAINTY_MEASURE_WITH_UNIT (LENGTH_MEASURE( 1.000000000000000082E-05 ), #37, 'distance_accuracy_value', 'NONE');
#52 = VERTEX_POINT ( 'NONE', #184 ) ;
#53 = LENGTH_MEASURE_WITH_UNIT ( LENGTH_MEASURE( 0.02539999999999999897 ), #148 );
#54 = ORIENTED_EDGE ( 'NONE', *, *, #84, .T. ) ;
#55 = AXIS2_PLACEMENT_3D ( 'NONE', #303, #68, #179 ) ;
#56 = AXIS2_PLACEMENT_3D ( 'NONE', #15, #258, #233 ) ;
#57 = SURFACE_STYLE_FILL_AREA ( #293 ) ;
#58 = ORIENTED_EDGE ( 'NONE', *, *, #170, .T. ) ;
#59 =( NAMED_UNIT ( * ) PLANE_ANGLE_UNIT ( ) SI_UNIT ( $, .RADIAN. ) );
#60 = FILL_AREA_STYLE ('',( #33 ) ) ;
#61 = ADVANCED_BREP_SHAPE_REPRESENTATION ( '82259', ( #74, #76, #189 ), #150 ) ;
#62 = CARTESIAN_POINT ( 'NONE',  ( -2.449293598294707400E-16, 6.000000000000000888, 0.000000000000000000 ) ) ;
#63 = STYLED_ITEM ( 'NONE', ( #73 ), #107 ) ;
#64 = LINE ( 'NONE', #302, #123 ) ;
#65 = CARTESIAN_POINT ( 'NONE',  ( 0.000000000000000000, 3.125000000000000000, 0.000000000000000000 ) ) ;
#66 = PRODUCT_DEFINITION ( 'UNKNOWN', '', #145, #211 ) ;
#67 = CARTESIAN_POINT ( 'NONE',  ( 0.000000000000000000, 3.125000000000000000, 0.000000000000000000 ) ) ;
#68 = DIRECTION ( 'NONE',  ( -0.000000000000000000, -1.000000000000000000, -0.000000000000000000 ) ) ;
#69 = FILL_AREA_STYLE ('',( #260 ) ) ;
#70 = AXIS2_PLACEMENT_3D ( 'NONE', #11, #87, #212 ) ;
#71 = CLOSED_SHELL ( 'NONE', ( #176, #232, #286, #195 ) ) ;
#72 = CIRCLE ( 'NONE', #167, 0.2500000000000002220 ) ;
#73 = PRESENTATION_STYLE_ASSIGNMENT (( #309 ) ) ;
#74 = MANIFOLD_SOLID_BREP ( 'Revolve - Cutting Edge', #29 ) ;
#75 = SURFACE_STYLE_USAGE ( .BOTH. , #292 ) ;
#76 = MANIFOLD_SOLID_BREP ( 'Revolve - Tool Body (Straight Shanked)', #71 ) ;
#77 = ORIENTED_EDGE ( 'NONE', *, *, #187, .F. ) ;
#78 = DIMENSIONAL_EXPONENTS ( 1.000000000000000000, 0.000000000000000000, 0.000000000000000000, 0.000000000000000000, 0.000000000000000000, 0.000000000000000000, 0.000000000000000000 ) ;
#79 =( CONVERSION_BASED_UNIT ( 'INCH', #53 ) LENGTH_UNIT ( ) NAMED_UNIT ( #20 ) );
#80 = CARTESIAN_POINT ( 'NONE',  ( -0.2500000000000004996, 6.000000000000000888, 0.000000000000000000 ) ) ;
#81 = ORIENTED_EDGE ( 'NONE', *, *, #94, .F. ) ;
#82 = FACE_OUTER_BOUND ( 'NONE', #147, .T. ) ;
#83 = CARTESIAN_POINT ( 'NONE',  ( 0.000000000000000000, 3.125000000000000000, 0.000000000000000000 ) ) ;
#84 = EDGE_CURVE ( 'NONE', #301, #105, #234, .T. ) ;
#85 = COLOUR_RGB ( '',1.000000000000000000, 0.000000000000000000, 0.000000000000000000 ) ;
#86 = FACE_OUTER_BOUND ( 'NONE', #124, .T. ) ;
#87 = DIRECTION ( 'NONE',  ( -0.000000000000000000, -1.000000000000000000, -0.000000000000000000 ) ) ;
#88 = DIRECTION ( 'NONE',  ( 0.000000000000000000, -0.000000000000000000, 1.000000000000000000 ) ) ;
#89 = CIRCLE ( 'NONE', #55, 0.2500000000000000000 ) ;
#90 = UNCERTAINTY_MEASURE_WITH_UNIT (LENGTH_MEASURE( 1.000000000000000082E-05 ), #2, 'distance_accuracy_value', 'NONE');
#91 = SURFACE_SIDE_STYLE ('',( #153 ) ) ;
#92 = VECTOR ( 'NONE', #218, 39.37007874015748143 ) ;
#93 = LINE ( 'NONE', #139, #92 ) ;
#94 = EDGE_CURVE ( 'NONE', #121, #103, #269, .T. ) ;
#95 =( NAMED_UNIT ( * ) SI_UNIT ( $, .STERADIAN. ) SOLID_ANGLE_UNIT ( ) );
#96 = PRESENTATION_STYLE_ASSIGNMENT (( #75 ) ) ;
#97 =( GEOMETRIC_REPRESENTATION_CONTEXT ( 3 ) GLOBAL_UNCERTAINTY_ASSIGNED_CONTEXT ( ( #9 ) ) GLOBAL_UNIT_ASSIGNED_CONTEXT ( ( #118, #291, #47 ) ) REPRESENTATION_CONTEXT ( 'NONE', 'WORKASPACE' ) );
#98 = DIMENSIONAL_EXPONENTS ( 1.000000000000000000, 0.000000000000000000, 0.000000000000000000, 0.000000000000000000, 0.000000000000000000, 0.000000000000000000, 0.000000000000000000 ) ;
#99 = ORIENTED_EDGE ( 'NONE', *, *, #266, .T. ) ;
#100 = CARTESIAN_POINT ( 'NONE',  ( 0.000000000000000000, 0.000000000000000000, 0.000000000000000000 ) ) ;
#101 = EDGE_CURVE ( 'NONE', #103, #5, #93, .T. ) ;
#102 = DIRECTION ( 'NONE',  ( 0.000000000000000000, 0.000000000000000000, -1.000000000000000000 ) ) ;
#103 = VERTEX_POINT ( 'NONE', #144 ) ;
#104 = CARTESIAN_POINT ( 'NONE',  ( -2.449293598294707400E-16, 6.000000000000000888, 0.000000000000000000 ) ) ;
#105 = VERTEX_POINT ( 'NONE', #188 ) ;
#106 = CARTESIAN_POINT ( 'NONE',  ( 0.2500000000000000000, 6.000000000000000888, 3.061616997868385483E-17 ) ) ;
#107 = ADVANCED_FACE ( 'NONE', ( #190 ), #288, .T. ) ;
#108 =( NAMED_UNIT ( * ) SI_UNIT ( $, .STERADIAN. ) SOLID_ANGLE_UNIT ( ) );
#109 = DIRECTION ( 'NONE',  ( 8.519282081025069112E-17, -1.000000000000000000, 0.000000000000000000 ) ) ;
#110 = AXIS2_PLACEMENT_3D ( 'NONE', #67, #204, #161 ) ;
#111 = CYLINDRICAL_SURFACE ( 'NONE', #263, 0.2500000000000001110 ) ;
#112 = LENGTH_MEASURE_WITH_UNIT ( LENGTH_MEASURE( 0.02539999999999999897 ), #136 );
#113 = DIRECTION ( 'NONE',  ( -8.519282081025069112E-17, 1.000000000000000000, -0.000000000000000000 ) ) ;
#114 = AXIS2_PLACEMENT_3D ( 'NONE', #201, #152, #251 ) ;
#115 = ADVANCED_FACE ( 'NONE', ( #125 ), #50, .T. ) ;
#116 =( LENGTH_UNIT ( ) NAMED_UNIT ( * ) SI_UNIT ( $, .METRE. ) );
#117 = MECHANICAL_DESIGN_GEOMETRIC_PRESENTATION_REPRESENTATION (  '', ( #262 ), #208 ) ;
#118 =( CONVERSION_BASED_UNIT ( 'INCH', #46 ) LENGTH_UNIT ( ) NAMED_UNIT ( #308 ) );
#119 = DIMENSIONAL_EXPONENTS ( 1.000000000000000000, 0.000000000000000000, 0.000000000000000000, 0.000000000000000000, 0.000000000000000000, 0.000000000000000000, 0.000000000000000000 ) ;
#120 = CARTESIAN_POINT ( 'NONE',  ( 0.000000000000000000, 3.125000000000000000, 0.000000000000000000 ) ) ;
#121 = VERTEX_POINT ( 'NONE', #300 ) ;
#122 = PRESENTATION_LAYER_ASSIGNMENT (  '', '', ( #45 ) ) ;
#123 = VECTOR ( 'NONE', #230, 39.37007874015748143 ) ;
#124 = EDGE_LOOP ( 'NONE', ( #225, #58, #177, #229 ) ) ;
#125 = FACE_OUTER_BOUND ( 'NONE', #252, .T. ) ;
#126 = FILL_AREA_STYLE_COLOUR ( '', #140 ) ;
#127 = EDGE_LOOP ( 'NONE', ( #243, #99 ) ) ;
#128 = CIRCLE ( 'NONE', #70, 0.2500000000000000000 ) ;
#129 = EDGE_CURVE ( 'NONE', #103, #121, #155, .T. ) ;
#130 = DIRECTION ( 'NONE',  ( -8.519282081025069112E-17, 1.000000000000000000, -0.000000000000000000 ) ) ;
#131 = PLANE ( 'NONE',  #221 ) ;
#132 = DIRECTION ( 'NONE',  ( -8.519282081025069112E-17, 1.000000000000000000, -0.000000000000000000 ) ) ;
#133 = DIRECTION ( 'NONE',  ( -1.000000000000000000, 0.000000000000000000, 0.000000000000000000 ) ) ;
#134 = DIRECTION ( 'NONE',  ( -1.000000000000000000, 0.000000000000000000, 0.000000000000000000 ) ) ;
#135 = PRESENTATION_LAYER_ASSIGNMENT (  '', '', ( #200 ) ) ;
#136 =( LENGTH_UNIT ( ) NAMED_UNIT ( * ) SI_UNIT ( $, .METRE. ) );
#137 =( LENGTH_UNIT ( ) NAMED_UNIT ( * ) SI_UNIT ( $, .METRE. ) );
#138 = FILL_AREA_STYLE ('',( #265 ) ) ;
#139 = CARTESIAN_POINT ( 'NONE',  ( 3.061616997868383018E-17, 0.000000000000000000, 0.2500000000000000000 ) ) ;
#140 = COLOUR_RGB ( '',1.000000000000000000, 0.000000000000000000, 0.000000000000000000 ) ;
#141 = ADVANCED_FACE ( 'NONE', ( #227 ), #34, .T. ) ;
#142 = SURFACE_STYLE_FILL_AREA ( #268 ) ;
#143 = APPLICATION_CONTEXT ( 'automotive_design' ) ;
#144 = CARTESIAN_POINT ( 'NONE',  ( 3.061616997868383018E-17, 3.125000000000000000, 0.2500000000000000000 ) ) ;
#145 = PRODUCT_DEFINITION_FORMATION_WITH_SPECIFIED_SOURCE ( 'ANY', '', #164, .NOT_KNOWN. ) ;
#146 = EDGE_CURVE ( 'NONE', #105, #10, #278, .T. ) ;
#147 = EDGE_LOOP ( 'NONE', ( #298, #49 ) ) ;
#148 =( LENGTH_UNIT ( ) NAMED_UNIT ( * ) SI_UNIT ( $, .METRE. ) );
#149 = ORIENTED_EDGE ( 'NONE', *, *, #146, .T. ) ;
#150 =( GEOMETRIC_REPRESENTATION_CONTEXT ( 3 ) GLOBAL_UNCERTAINTY_ASSIGNED_CONTEXT ( ( #287 ) ) GLOBAL_UNIT_ASSIGNED_CONTEXT ( ( #157, #264, #240 ) ) REPRESENTATION_CONTEXT ( 'NONE', 'WORKASPACE' ) );
#151 = ORIENTED_EDGE ( 'NONE', *, *, #129, .F. ) ;
#152 = DIRECTION ( 'NONE',  ( -0.000000000000000000, -1.000000000000000000, -0.000000000000000000 ) ) ;
#153 = SURFACE_STYLE_FILL_AREA ( #60 ) ;
#154 = CYLINDRICAL_SURFACE ( 'NONE', #163, 0.2500000000000001110 ) ;
#155 = CIRCLE ( 'NONE', #114, 0.2500000000000000000 ) ;
#156 = SURFACE_STYLE_FILL_AREA ( #138 ) ;
#157 =( CONVERSION_BASED_UNIT ( 'INCH', #112 ) LENGTH_UNIT ( ) NAMED_UNIT ( #1 ) );
#158 = UNCERTAINTY_MEASURE_WITH_UNIT (LENGTH_MEASURE( 1.000000000000000082E-05 ), #7, 'distance_accuracy_value', 'NONE');
#159 = PRESENTATION_STYLE_ASSIGNMENT (( #256 ) ) ;
#160 = CARTESIAN_POINT ( 'NONE',  ( -0.2500000000000003886, 6.000000000000000888, 0.000000000000000000 ) ) ;
#161 = DIRECTION ( 'NONE',  ( -1.000000000000000000, 0.000000000000000000, 0.000000000000000000 ) ) ;
#162 = MECHANICAL_DESIGN_GEOMETRIC_PRESENTATION_REPRESENTATION (  '', ( #63 ), #35 ) ;
#163 = AXIS2_PLACEMENT_3D ( 'NONE', #12, #38, #133 ) ;
#164 = PRODUCT ( '82259', '82259', '', ( #24 ) ) ;
#165 = FILL_AREA_STYLE_COLOUR ( '', #21 ) ;
#166 = MECHANICAL_DESIGN_GEOMETRIC_PRESENTATION_REPRESENTATION (  '', ( #200 ), #172 ) ;
#167 = AXIS2_PLACEMENT_3D ( 'NONE', #104, #285, #207 ) ;
#168 = SURFACE_SIDE_STYLE ('',( #57 ) ) ;
#169 = VERTEX_POINT ( 'NONE', #106 ) ;
#170 = EDGE_CURVE ( 'NONE', #301, #169, #36, .T. ) ;
#171 = FACE_OUTER_BOUND ( 'NONE', #295, .T. ) ;
#172 =( GEOMETRIC_REPRESENTATION_CONTEXT ( 3 ) GLOBAL_UNCERTAINTY_ASSIGNED_CONTEXT ( ( #51 ) ) GLOBAL_UNIT_ASSIGNED_CONTEXT ( ( #37, #41, #213 ) ) REPRESENTATION_CONTEXT ( 'NONE', 'WORKASPACE' ) );
#173 =( LENGTH_UNIT ( ) NAMED_UNIT ( * ) SI_UNIT ( $, .METRE. ) );
#174 = ORIENTED_EDGE ( 'NONE', *, *, #94, .T. ) ;
#175 = DIRECTION ( 'NONE',  ( 0.000000000000000000, 0.000000000000000000, -1.000000000000000000 ) ) ;
#176 = ADVANCED_FACE ( 'NONE', ( #86 ), #111, .T. ) ;
#177 = ORIENTED_EDGE ( 'NONE', *, *, #257, .F. ) ;
#178 = PLANE ( 'NONE',  #255 ) ;
#179 = DIRECTION ( 'NONE',  ( 0.000000000000000000, 0.000000000000000000, -1.000000000000000000 ) ) ;
#180 = AXIS2_PLACEMENT_3D ( 'NONE', #224, #8, #102 ) ;
#181 = SURFACE_SIDE_STYLE ('',( #39 ) ) ;
#182 = DIRECTION ( 'NONE',  ( -8.519282081025069112E-17, 1.000000000000000000, 0.000000000000000000 ) ) ;
#183 = CARTESIAN_POINT ( 'NONE',  ( 9.072270897009353870E-34, 3.125000000000000000, 0.000000000000000000 ) ) ;
#184 = CARTESIAN_POINT ( 'NONE',  ( 0.000000000000000000, 0.000000000000000000, -0.2500000000000000000 ) ) ;
#185 = DIRECTION ( 'NONE',  ( -1.000000000000000000, 0.000000000000000000, 0.000000000000000000 ) ) ;
#186 = AXIS2_PLACEMENT_3D ( 'NONE', #100, #197, #175 ) ;
#187 = EDGE_CURVE ( 'NONE', #52, #5, #128, .T. ) ;
#188 = CARTESIAN_POINT ( 'NONE',  ( -0.2500000000000000000, 3.125000000000000000, 0.000000000000000000 ) ) ;
#189 = AXIS2_PLACEMENT_3D ( 'NONE', #271, #42, #242 ) ;
#190 = FACE_OUTER_BOUND ( 'NONE', #127, .T. ) ;
#191 = DIMENSIONAL_EXPONENTS ( 1.000000000000000000, 0.000000000000000000, 0.000000000000000000, 0.000000000000000000, 0.000000000000000000, 0.000000000000000000, 0.000000000000000000 ) ;
#192 = FILL_AREA_STYLE ('',( #126 ) ) ;
#193 = COLOUR_RGB ( '',1.000000000000000000, 0.000000000000000000, 0.000000000000000000 ) ;
#194 = FILL_AREA_STYLE_COLOUR ( '', #193 ) ;
#195 = ADVANCED_FACE ( 'NONE', ( #210 ), #131, .F. ) ;
#196 = CARTESIAN_POINT ( 'NONE',  ( 3.061616997868383018E-17, 0.000000000000000000, 0.2500000000000000000 ) ) ;
#197 = DIRECTION ( 'NONE',  ( 0.000000000000000000, -1.000000000000000000, -0.000000000000000000 ) ) ;
#198 = ORIENTED_EDGE ( 'NONE', *, *, #101, .F. ) ;
#199 = APPLICATION_CONTEXT ( 'automotive_design' ) ;
#200 = STYLED_ITEM ( 'NONE', ( #306 ), #27 ) ;
#201 = CARTESIAN_POINT ( 'NONE',  ( 0.000000000000000000, 3.125000000000000000, 0.000000000000000000 ) ) ;
#202 = ORIENTED_EDGE ( 'NONE', *, *, #203, .T. ) ;
#203 = EDGE_CURVE ( 'NONE', #121, #52, #64, .T. ) ;
#204 = DIRECTION ( 'NONE',  ( -8.519282081025069112E-17, 1.000000000000000000, -0.000000000000000000 ) ) ;
#205 = ORIENTED_EDGE ( 'NONE', *, *, #203, .F. ) ;
#206 = DIRECTION ( 'NONE',  ( 1.000000000000000000, 8.519282081025069112E-17, 0.000000000000000000 ) ) ;
#207 = DIRECTION ( 'NONE',  ( -1.000000000000000000, 0.000000000000000000, 0.000000000000000000 ) ) ;
#208 =( GEOMETRIC_REPRESENTATION_CONTEXT ( 3 ) GLOBAL_UNCERTAINTY_ASSIGNED_CONTEXT ( ( #297 ) ) GLOBAL_UNIT_ASSIGNED_CONTEXT ( ( #19, #235, #108 ) ) REPRESENTATION_CONTEXT ( 'NONE', 'WORKASPACE' ) );
#209 =( LENGTH_UNIT ( ) NAMED_UNIT ( * ) SI_UNIT ( $, .METRE. ) );
#210 = FACE_OUTER_BOUND ( 'NONE', #222, .T. ) ;
#211 = PRODUCT_DEFINITION_CONTEXT ( 'detailed design', #143, 'design' ) ;
#212 = DIRECTION ( 'NONE',  ( 0.000000000000000000, 0.000000000000000000, -1.000000000000000000 ) ) ;
#213 =( NAMED_UNIT ( * ) SI_UNIT ( $, .STERADIAN. ) SOLID_ANGLE_UNIT ( ) );
#214 = APPLICATION_PROTOCOL_DEFINITION ( 'draft international standard', 'automotive_design', 1998, #143 ) ;
#215 = UNCERTAINTY_MEASURE_WITH_UNIT (LENGTH_MEASURE( 1.000000000000000082E-05 ), #79, 'distance_accuracy_value', 'NONE');
#216 = LENGTH_MEASURE_WITH_UNIT ( LENGTH_MEASURE( 0.02539999999999999897 ), #209 );
#217 =( GEOMETRIC_REPRESENTATION_CONTEXT ( 3 ) GLOBAL_UNCERTAINTY_ASSIGNED_CONTEXT ( ( #90 ) ) GLOBAL_UNIT_ASSIGNED_CONTEXT ( ( #2, #32, #95 ) ) REPRESENTATION_CONTEXT ( 'NONE', 'WORKASPACE' ) );
#218 = DIRECTION ( 'NONE',  ( -0.000000000000000000, -1.000000000000000000, -0.000000000000000000 ) ) ;
#219 = AXIS2_PLACEMENT_3D ( 'NONE', #83, #113, #241 ) ;
#220 = DIRECTION ( 'NONE',  ( -0.000000000000000000, -1.000000000000000000, -0.000000000000000000 ) ) ;
#221 = AXIS2_PLACEMENT_3D ( 'NONE', #17, #109, #206 ) ;
#222 = EDGE_LOOP ( 'NONE', ( #294, #250 ) ) ;
#223 = SURFACE_STYLE_USAGE ( .BOTH. , #168 ) ;
#224 = CARTESIAN_POINT ( 'NONE',  ( 0.000000000000000000, 0.000000000000000000, 0.000000000000000000 ) ) ;
#225 = ORIENTED_EDGE ( 'NONE', *, *, #270, .T. ) ;
#226 = MECHANICAL_DESIGN_GEOMETRIC_PRESENTATION_REPRESENTATION (  '', ( #48 ), #217 ) ;
#227 = FACE_OUTER_BOUND ( 'NONE', #26, .T. ) ;
#228 = PRODUCT_DEFINITION_SHAPE ( 'NONE', 'NONE',  #66 ) ;
#229 = ORIENTED_EDGE ( 'NONE', *, *, #146, .F. ) ;
#230 = DIRECTION ( 'NONE',  ( -0.000000000000000000, -1.000000000000000000, -0.000000000000000000 ) ) ;
#231 =( NAMED_UNIT ( * ) SI_UNIT ( $, .STERADIAN. ) SOLID_ANGLE_UNIT ( ) );
#232 = ADVANCED_FACE ( 'NONE', ( #82 ), #178, .F. ) ;
#233 = DIRECTION ( 'NONE',  ( 0.000000000000000000, 0.000000000000000000, -1.000000000000000000 ) ) ;
#234 = CIRCLE ( 'NONE', #219, 0.2500000000000000000 ) ;
#235 =( NAMED_UNIT ( * ) PLANE_ANGLE_UNIT ( ) SI_UNIT ( $, .RADIAN. ) );
#236 = DIRECTION ( 'NONE',  ( -8.519282081025069112E-17, 1.000000000000000000, -0.000000000000000000 ) ) ;
#237 = LENGTH_MEASURE_WITH_UNIT ( LENGTH_MEASURE( 0.02539999999999999897 ), #137 );
#238 = PRESENTATION_LAYER_ASSIGNMENT (  '', '', ( #262 ) ) ;
#239 = SURFACE_SIDE_STYLE ('',( #142 ) ) ;
#240 =( NAMED_UNIT ( * ) SI_UNIT ( $, .STERADIAN. ) SOLID_ANGLE_UNIT ( ) );
#241 = DIRECTION ( 'NONE',  ( -1.000000000000000000, 0.000000000000000000, 0.000000000000000000 ) ) ;
#242 = DIRECTION ( 'NONE',  ( 1.000000000000000000, 0.000000000000000000, 0.000000000000000000 ) ) ;
#243 = ORIENTED_EDGE ( 'NONE', *, *, #187, .T. ) ;
#244 = SHAPE_DEFINITION_REPRESENTATION ( #228, #61 ) ;
#245 = ORIENTED_EDGE ( 'NONE', *, *, #129, .T. ) ;
#246 = STYLED_ITEM ( 'NONE', ( #16 ), #76 ) ;
#247 = LENGTH_MEASURE_WITH_UNIT ( LENGTH_MEASURE( 0.02539999999999999897 ), #116 );
#248 = ORIENTED_EDGE ( 'NONE', *, *, #44, .F. ) ;
#249 =( NAMED_UNIT ( * ) SI_UNIT ( $, .STERADIAN. ) SOLID_ANGLE_UNIT ( ) );
#250 = ORIENTED_EDGE ( 'NONE', *, *, #44, .T. ) ;
#251 = DIRECTION ( 'NONE',  ( 0.000000000000000000, 0.000000000000000000, -1.000000000000000000 ) ) ;
#252 = EDGE_LOOP ( 'NONE', ( #174, #31, #77, #205 ) ) ;
#253 = AXIS2_PLACEMENT_3D ( 'NONE', #120, #220, #267 ) ;
#254 = CARTESIAN_POINT ( 'NONE',  ( 0.2500000000000000000, 3.125000000000000000, 3.061616997868385483E-17 ) ) ;
#255 = AXIS2_PLACEMENT_3D ( 'NONE', #183, #182, #283 ) ;
#256 = SURFACE_STYLE_USAGE ( .BOTH. , #284 ) ;
#257 = EDGE_CURVE ( 'NONE', #10, #169, #72, .T. ) ;
#258 = DIRECTION ( 'NONE',  ( -0.000000000000000000, -1.000000000000000000, -0.000000000000000000 ) ) ;
#259 =( NAMED_UNIT ( * ) PLANE_ANGLE_UNIT ( ) SI_UNIT ( $, .RADIAN. ) );
#260 = FILL_AREA_STYLE_COLOUR ( '', #299 ) ;
#261 = FACE_OUTER_BOUND ( 'NONE', #275, .T. ) ;
#262 = STYLED_ITEM ( 'NONE', ( #159 ), #74 ) ;
#263 = AXIS2_PLACEMENT_3D ( 'NONE', #43, #305, #185 ) ;
#264 =( NAMED_UNIT ( * ) PLANE_ANGLE_UNIT ( ) SI_UNIT ( $, .RADIAN. ) );
#265 = FILL_AREA_STYLE_COLOUR ( '', #280 ) ;
#266 = EDGE_CURVE ( 'NONE', #5, #52, #89, .T. ) ;
#267 = DIRECTION ( 'NONE',  ( 0.000000000000000000, 0.000000000000000000, -1.000000000000000000 ) ) ;
#268 = FILL_AREA_STYLE ('',( #165 ) ) ;
#269 = CIRCLE ( 'NONE', #253, 0.2500000000000000000 ) ;
#270 = EDGE_CURVE ( 'NONE', #105, #301, #22, .T. ) ;
#271 = CARTESIAN_POINT ( 'NONE',  ( 0.000000000000000000, 0.000000000000000000, 0.000000000000000000 ) ) ;
#272 = PRESENTATION_LAYER_ASSIGNMENT (  '', '', ( #246 ) ) ;
#273 = ORIENTED_EDGE ( 'NONE', *, *, #170, .F. ) ;
#274 = PRESENTATION_LAYER_ASSIGNMENT (  '', '', ( #63 ) ) ;
#275 = EDGE_LOOP ( 'NONE', ( #273, #54, #149, #248 ) ) ;
#276 = LENGTH_MEASURE_WITH_UNIT ( LENGTH_MEASURE( 0.02539999999999999897 ), #173 );
#277 = PLANE ( 'NONE',  #289 ) ;
#278 = LINE ( 'NONE', #160, #4 ) ;
#279 = SURFACE_STYLE_USAGE ( .BOTH. , #91 ) ;
#280 = COLOUR_RGB ( '',0.7921568627450980005, 0.8196078431372548767, 0.9333333333333333481 ) ;
#281 = CARTESIAN_POINT ( 'NONE',  ( 0.2499999999999998890, 6.000000000000000888, 3.061616997868384251E-17 ) ) ;
#282 = SURFACE_STYLE_USAGE ( .BOTH. , #181 ) ;
#283 = DIRECTION ( 'NONE',  ( -1.000000000000000000, -8.519282081025069112E-17, 0.000000000000000000 ) ) ;
#284 = SURFACE_SIDE_STYLE ('',( #156 ) ) ;
#285 = DIRECTION ( 'NONE',  ( -8.519282081025069112E-17, 1.000000000000000000, -0.000000000000000000 ) ) ;
#286 = ADVANCED_FACE ( 'NONE', ( #261 ), #154, .T. ) ;
#287 = UNCERTAINTY_MEASURE_WITH_UNIT (LENGTH_MEASURE( 1.000000000000000082E-05 ), #157, 'distance_accuracy_value', 'NONE');
#288 = PLANE ( 'NONE',  #186 ) ;
#289 = AXIS2_PLACEMENT_3D ( 'NONE', #65, #18, #88 ) ;
#290 = APPLICATION_PROTOCOL_DEFINITION ( 'draft international standard', 'automotive_design', 1998, #199 ) ;
#291 =( NAMED_UNIT ( * ) PLANE_ANGLE_UNIT ( ) SI_UNIT ( $, .RADIAN. ) );
#292 = SURFACE_SIDE_STYLE ('',( #25 ) ) ;
#293 = FILL_AREA_STYLE ('',( #194 ) ) ;
#294 = ORIENTED_EDGE ( 'NONE', *, *, #257, .T. ) ;
#295 = EDGE_LOOP ( 'NONE', ( #81, #151 ) ) ;
#296 = PRESENTATION_STYLE_ASSIGNMENT (( #223 ) ) ;
#297 = UNCERTAINTY_MEASURE_WITH_UNIT (LENGTH_MEASURE( 1.000000000000000082E-05 ), #19, 'distance_accuracy_value', 'NONE');
#298 = ORIENTED_EDGE ( 'NONE', *, *, #270, .F. ) ;
#299 = COLOUR_RGB ( '',0.7921568627450980005, 0.8196078431372548767, 0.9333333333333333481 ) ;
#300 = CARTESIAN_POINT ( 'NONE',  ( 0.000000000000000000, 3.125000000000000000, -0.2500000000000000000 ) ) ;
#301 = VERTEX_POINT ( 'NONE', #254 ) ;
#302 = CARTESIAN_POINT ( 'NONE',  ( 0.000000000000000000, 0.000000000000000000, -0.2500000000000000000 ) ) ;
#303 = CARTESIAN_POINT ( 'NONE',  ( 0.000000000000000000, 0.000000000000000000, 0.000000000000000000 ) ) ;
#304 = MECHANICAL_DESIGN_GEOMETRIC_PRESENTATION_REPRESENTATION (  '', ( #45 ), #40 ) ;
#305 = DIRECTION ( 'NONE',  ( -8.519282081025069112E-17, 1.000000000000000000, -0.000000000000000000 ) ) ;
#306 = PRESENTATION_STYLE_ASSIGNMENT (( #279 ) ) ;
#307 = PRESENTATION_LAYER_ASSIGNMENT (  '', '', ( #48 ) ) ;
#308 = DIMENSIONAL_EXPONENTS ( 1.000000000000000000, 0.000000000000000000, 0.000000000000000000, 0.000000000000000000, 0.000000000000000000, 0.000000000000000000, 0.000000000000000000 ) ;
#309 = SURFACE_STYLE_USAGE ( .BOTH. , #239 ) ;
ENDSEC;
END-ISO-10303-21;
