ISO-10303-21;
HEADER;
FILE_DESCRIPTION (( 'STEP AP214' ),
    '1' );
FILE_NAME ('00435.STEP',
    '2023-06-22T14:08:04',
    ( '' ),
    ( '' ),
    'SwSTEP 2.0',
    'SolidWorks 2023',
    '' );
FILE_SCHEMA (( 'AUTOMOTIVE_DESIGN' ));
ENDSEC;

DATA;
#1 = ORIENTED_EDGE ( 'NONE', *, *, #76, .T. ) ;
#2 = AXIS2_PLACEMENT_3D ( 'NONE', #295, #57, #104 ) ;
#3 = MECHANICAL_DESIGN_GEOMETRIC_PRESENTATION_REPRESENTATION (  '', ( #180 ), #164 ) ;
#4 = CARTESIAN_POINT ( 'NONE',  ( 0.000000000000000000, 0.000000000000000000, 0.000000000000000000 ) ) ;
#5 = CARTESIAN_POINT ( 'NONE',  ( 0.000000000000000000, 0.6250000000000000000, 0.000000000000000000 ) ) ;
#6 = ORIENTED_EDGE ( 'NONE', *, *, #206, .T. ) ;
#7 = CARTESIAN_POINT ( 'NONE',  ( 0.000000000000000000, 0.6250000000000000000, 0.000000000000000000 ) ) ;
#8 = DIRECTION ( 'NONE',  ( 1.632862398863137527E-16, 1.000000000000000000, -0.000000000000000000 ) ) ;
#9 = DIRECTION ( 'NONE',  ( 0.000000000000000000, 0.000000000000000000, -1.000000000000000000 ) ) ;
#10 = FILL_AREA_STYLE ('',( #296 ) ) ;
#11 = CLOSED_SHELL ( 'NONE', ( #17, #291, #307, #119 ) ) ;
#12 = FILL_AREA_STYLE ('',( #223 ) ) ;
#13 = AXIS2_PLACEMENT_3D ( 'NONE', #306, #207, #48 ) ;
#14 = LENGTH_MEASURE_WITH_UNIT ( LENGTH_MEASURE( 0.02539999999999999897 ), #242 );
#15 = FACE_OUTER_BOUND ( 'NONE', #286, .T. ) ;
#16 = DIRECTION ( 'NONE',  ( 1.000000000000000000, 0.000000000000000000, 0.000000000000000000 ) ) ;
#17 = ADVANCED_FACE ( 'NONE', ( #120 ), #71, .T. ) ;
#18 = COLOUR_RGB ( '',1.000000000000000000, 0.000000000000000000, 0.000000000000000000 ) ;
#19 =( LENGTH_UNIT ( ) NAMED_UNIT ( * ) SI_UNIT ( $, .METRE. ) );
#20 = UNCERTAINTY_MEASURE_WITH_UNIT (LENGTH_MEASURE( 1.000000000000000082E-05 ), #130, 'distance_accuracy_value', 'NONE');
#21 = APPLICATION_CONTEXT ( 'automotive_design' ) ;
#22 = MECHANICAL_DESIGN_GEOMETRIC_PRESENTATION_REPRESENTATION (  '', ( #68 ), #237 ) ;
#23 =( NAMED_UNIT ( * ) PLANE_ANGLE_UNIT ( ) SI_UNIT ( $, .RADIAN. ) );
#24 = SURFACE_STYLE_FILL_AREA ( #277 ) ;
#25 = CIRCLE ( 'NONE', #98, 0.2500000000000000000 ) ;
#26 = CIRCLE ( 'NONE', #95, 0.2499999999999996947 ) ;
#27 = VERTEX_POINT ( 'NONE', #40 ) ;
#28 = ORIENTED_EDGE ( 'NONE', *, *, #143, .F. ) ;
#29 = VECTOR ( 'NONE', #78, 39.37007874015748143 ) ;
#30 = COLOUR_RGB ( '',0.7921568627450980005, 0.8196078431372548767, 0.9333333333333333481 ) ;
#31 = CARTESIAN_POINT ( 'NONE',  ( 0.2500000000000001665, 2.500000000000000000, 3.061616997868381785E-17 ) ) ;
#32 = EDGE_LOOP ( 'NONE', ( #148, #189, #186, #241 ) ) ;
#33 = CARTESIAN_POINT ( 'NONE',  ( 3.061616997868383018E-17, 0.000000000000000000, 0.2500000000000000000 ) ) ;
#34 = DIRECTION ( 'NONE',  ( -1.632862398863137527E-16, -1.000000000000000000, 0.000000000000000000 ) ) ;
#35 = ORIENTED_EDGE ( 'NONE', *, *, #137, .T. ) ;
#36 = CARTESIAN_POINT ( 'NONE',  ( 0.000000000000000000, 0.000000000000000000, 0.000000000000000000 ) ) ;
#37 = DIRECTION ( 'NONE',  ( 1.632862398863137527E-16, 1.000000000000000000, -0.000000000000000000 ) ) ;
#38 = COLOUR_RGB ( '',1.000000000000000000, 0.000000000000000000, 0.000000000000000000 ) ;
#39 = CARTESIAN_POINT ( 'NONE',  ( 3.061616997868383141E-16, 2.500000000000000000, 0.000000000000000000 ) ) ;
#40 = CARTESIAN_POINT ( 'NONE',  ( 3.061616997868383018E-17, 0.000000000000000000, 0.2500000000000000000 ) ) ;
#41 = CLOSED_SHELL ( 'NONE', ( #278, #145, #125, #254 ) ) ;
#42 = APPLICATION_PROTOCOL_DEFINITION ( 'draft international standard', 'automotive_design', 1998, #205 ) ;
#43 = PRESENTATION_LAYER_ASSIGNMENT (  '', '', ( #180 ) ) ;
#44 = PRODUCT ( '00435', '00435', '', ( #212 ) ) ;
#45 = CIRCLE ( 'NONE', #13, 0.2500000000000000000 ) ;
#46 = DIRECTION ( 'NONE',  ( 0.000000000000000000, 0.000000000000000000, 1.000000000000000000 ) ) ;
#47 = FILL_AREA_STYLE_COLOUR ( '', #18 ) ;
#48 = DIRECTION ( 'NONE',  ( 0.000000000000000000, 0.000000000000000000, -1.000000000000000000 ) ) ;
#49 = PRESENTATION_STYLE_ASSIGNMENT (( #66 ) ) ;
#50 = ORIENTED_EDGE ( 'NONE', *, *, #76, .F. ) ;
#51 = DIRECTION ( 'NONE',  ( 0.000000000000000000, -0.000000000000000000, 1.000000000000000000 ) ) ;
#52 = ORIENTED_EDGE ( 'NONE', *, *, #60, .T. ) ;
#53 = ADVANCED_BREP_SHAPE_REPRESENTATION ( '00435', ( #281, #274, #225 ), #122 ) ;
#54 =( NAMED_UNIT ( * ) PLANE_ANGLE_UNIT ( ) SI_UNIT ( $, .RADIAN. ) );
#55 =( NAMED_UNIT ( * ) PLANE_ANGLE_UNIT ( ) SI_UNIT ( $, .RADIAN. ) );
#56 = ORIENTED_EDGE ( 'NONE', *, *, #190, .F. ) ;
#57 = DIRECTION ( 'NONE',  ( 1.632862398863137527E-16, 1.000000000000000000, -0.000000000000000000 ) ) ;
#58 = DIRECTION ( 'NONE',  ( 0.000000000000000000, 0.000000000000000000, -1.000000000000000000 ) ) ;
#59 = ORIENTED_EDGE ( 'NONE', *, *, #304, .T. ) ;
#60 = EDGE_CURVE ( 'NONE', #248, #262, #182, .T. ) ;
#61 = LINE ( 'NONE', #153, #73 ) ;
#62 = DIRECTION ( 'NONE',  ( 1.632862398863137527E-16, 1.000000000000000000, -0.000000000000000000 ) ) ;
#63 = CARTESIAN_POINT ( 'NONE',  ( 0.000000000000000000, 0.000000000000000000, -0.2500000000000000000 ) ) ;
#64 = MECHANICAL_DESIGN_GEOMETRIC_PRESENTATION_REPRESENTATION (  '', ( #228 ), #231 ) ;
#65 = CARTESIAN_POINT ( 'NONE',  ( -0.2499999999999993894, 2.500000000000000000, 0.000000000000000000 ) ) ;
#66 = SURFACE_STYLE_USAGE ( .BOTH. , #112 ) ;
#67 =( CONVERSION_BASED_UNIT ( 'INCH', #114 ) LENGTH_UNIT ( ) NAMED_UNIT ( #221 ) );
#68 = STYLED_ITEM ( 'NONE', ( #299 ), #291 ) ;
#69 = PRODUCT_RELATED_PRODUCT_CATEGORY ( 'part', '', ( #44 ) ) ;
#70 = SURFACE_STYLE_USAGE ( .BOTH. , #255 ) ;
#71 = CYLINDRICAL_SURFACE ( 'NONE', #188, 0.2500000000000000000 ) ;
#72 = ORIENTED_EDGE ( 'NONE', *, *, #115, .T. ) ;
#73 = VECTOR ( 'NONE', #226, 39.37007874015748143 ) ;
#74 = EDGE_LOOP ( 'NONE', ( #56, #149 ) ) ;
#75 = PRESENTATION_LAYER_ASSIGNMENT (  '', '', ( #233 ) ) ;
#76 = EDGE_CURVE ( 'NONE', #288, #211, #61, .T. ) ;
#77 = VERTEX_POINT ( 'NONE', #128 ) ;
#78 = DIRECTION ( 'NONE',  ( -0.000000000000000000, -1.000000000000000000, -0.000000000000000000 ) ) ;
#79 = FACE_OUTER_BOUND ( 'NONE', #243, .T. ) ;
#80 = ORIENTED_EDGE ( 'NONE', *, *, #206, .F. ) ;
#81 = UNCERTAINTY_MEASURE_WITH_UNIT (LENGTH_MEASURE( 1.000000000000000082E-05 ), #218, 'distance_accuracy_value', 'NONE');
#82 = DIRECTION ( 'NONE',  ( -0.000000000000000000, -1.000000000000000000, -0.000000000000000000 ) ) ;
#83 = SURFACE_STYLE_FILL_AREA ( #10 ) ;
#84 = CARTESIAN_POINT ( 'NONE',  ( 3.061616997868383141E-16, 2.500000000000000000, 0.000000000000000000 ) ) ;
#85 = DIRECTION ( 'NONE',  ( 1.632862398863137527E-16, 1.000000000000000000, -0.000000000000000000 ) ) ;
#86 = PRESENTATION_STYLE_ASSIGNMENT (( #129 ) ) ;
#87 = CARTESIAN_POINT ( 'NONE',  ( 0.000000000000000000, 0.6250000000000000000, 0.000000000000000000 ) ) ;
#88 = VECTOR ( 'NONE', #178, 39.37007874015748143 ) ;
#89 = CIRCLE ( 'NONE', #273, 0.2500000000000000000 ) ;
#90 = CYLINDRICAL_SURFACE ( 'NONE', #232, 0.2500000000000000000 ) ;
#91 =( CONVERSION_BASED_UNIT ( 'INCH', #279 ) LENGTH_UNIT ( ) NAMED_UNIT ( #215 ) );
#92 = PRODUCT_DEFINITION ( 'UNKNOWN', '', #214, #165 ) ;
#93 = LENGTH_MEASURE_WITH_UNIT ( LENGTH_MEASURE( 0.02539999999999999897 ), #283 );
#94 = PRESENTATION_LAYER_ASSIGNMENT (  '', '', ( #228 ) ) ;
#95 = AXIS2_PLACEMENT_3D ( 'NONE', #39, #8, #192 ) ;
#96 = CARTESIAN_POINT ( 'NONE',  ( 0.000000000000000000, 0.6250000000000000000, 0.000000000000000000 ) ) ;
#97 = EDGE_LOOP ( 'NONE', ( #99, #35, #1, #80 ) ) ;
#98 = AXIS2_PLACEMENT_3D ( 'NONE', #7, #85, #150 ) ;
#99 = ORIENTED_EDGE ( 'NONE', *, *, #115, .F. ) ;
#100 =( NAMED_UNIT ( * ) PLANE_ANGLE_UNIT ( ) SI_UNIT ( $, .RADIAN. ) );
#101 = ORIENTED_EDGE ( 'NONE', *, *, #185, .T. ) ;
#102 = DIRECTION ( 'NONE',  ( 0.000000000000000000, 0.000000000000000000, -1.000000000000000000 ) ) ;
#103 = DIRECTION ( 'NONE',  ( 0.000000000000000000, -1.000000000000000000, -0.000000000000000000 ) ) ;
#104 = DIRECTION ( 'NONE',  ( -1.000000000000000000, 1.632862398863137527E-16, 0.000000000000000000 ) ) ;
#105 = AXIS2_PLACEMENT_3D ( 'NONE', #96, #285, #51 ) ;
#106 = SURFACE_SIDE_STYLE ('',( #195 ) ) ;
#107 = CYLINDRICAL_SURFACE ( 'NONE', #142, 0.2499999999999998612 ) ;
#108 = DIMENSIONAL_EXPONENTS ( 1.000000000000000000, 0.000000000000000000, 0.000000000000000000, 0.000000000000000000, 0.000000000000000000, 0.000000000000000000, 0.000000000000000000 ) ;
#109 = PLANE ( 'NONE',  #2 ) ;
#110 = AXIS2_PLACEMENT_3D ( 'NONE', #173, #154, #58 ) ;
#111 = FILL_AREA_STYLE_COLOUR ( '', #38 ) ;
#112 = SURFACE_SIDE_STYLE ('',( #24 ) ) ;
#113 = MECHANICAL_DESIGN_GEOMETRIC_PRESENTATION_REPRESENTATION (  '', ( #233 ), #198 ) ;
#114 = LENGTH_MEASURE_WITH_UNIT ( LENGTH_MEASURE( 0.02539999999999999897 ), #256 );
#115 = EDGE_CURVE ( 'NONE', #247, #27, #136, .T. ) ;
#116 = UNCERTAINTY_MEASURE_WITH_UNIT (LENGTH_MEASURE( 1.000000000000000082E-05 ), #91, 'distance_accuracy_value', 'NONE');
#117 = COLOUR_RGB ( '',1.000000000000000000, 0.000000000000000000, 0.000000000000000000 ) ;
#118 = EDGE_LOOP ( 'NONE', ( #59, #6 ) ) ;
#119 = ADVANCED_FACE ( 'NONE', ( #131 ), #300, .T. ) ;
#120 = FACE_OUTER_BOUND ( 'NONE', #213, .T. ) ;
#121 = PRESENTATION_LAYER_ASSIGNMENT (  '', '', ( #197 ) ) ;
#122 =( GEOMETRIC_REPRESENTATION_CONTEXT ( 3 ) GLOBAL_UNCERTAINTY_ASSIGNED_CONTEXT ( ( #199 ) ) GLOBAL_UNIT_ASSIGNED_CONTEXT ( ( #67, #235, #259 ) ) REPRESENTATION_CONTEXT ( 'NONE', 'WORKASPACE' ) );
#123 = CARTESIAN_POINT ( 'NONE',  ( -0.2499999999999995559, 2.500000000000000000, 0.000000000000000000 ) ) ;
#124 = ORIENTED_EDGE ( 'NONE', *, *, #60, .F. ) ;
#125 = ADVANCED_FACE ( 'NONE', ( #155 ), #159, .T. ) ;
#126 =( NAMED_UNIT ( * ) SI_UNIT ( $, .STERADIAN. ) SOLID_ANGLE_UNIT ( ) );
#127 = CARTESIAN_POINT ( 'NONE',  ( 3.061616997868383018E-17, 0.6250000000000000000, 0.2500000000000000000 ) ) ;
#128 = CARTESIAN_POINT ( 'NONE',  ( -0.2500000000000000000, 0.6250000000000000000, 0.000000000000000000 ) ) ;
#129 = SURFACE_STYLE_USAGE ( .BOTH. , #132 ) ;
#130 =( CONVERSION_BASED_UNIT ( 'INCH', #222 ) LENGTH_UNIT ( ) NAMED_UNIT ( #176 ) );
#131 = FACE_OUTER_BOUND ( 'NONE', #118, .T. ) ;
#132 = SURFACE_SIDE_STYLE ('',( #83 ) ) ;
#133 = EDGE_CURVE ( 'NONE', #77, #309, #25, .T. ) ;
#134 = FILL_AREA_STYLE_COLOUR ( '', #30 ) ;
#135 = PRODUCT_DEFINITION_SHAPE ( 'NONE', 'NONE',  #92 ) ;
#136 = LINE ( 'NONE', #33, #29 ) ;
#137 = EDGE_CURVE ( 'NONE', #247, #288, #208, .T. ) ;
#138 =( CONVERSION_BASED_UNIT ( 'INCH', #160 ) LENGTH_UNIT ( ) NAMED_UNIT ( #194 ) );
#139 = PRESENTATION_STYLE_ASSIGNMENT (( #219 ) ) ;
#140 =( NAMED_UNIT ( * ) PLANE_ANGLE_UNIT ( ) SI_UNIT ( $, .RADIAN. ) );
#141 = VECTOR ( 'NONE', #298, 39.37007874015748143 ) ;
#142 = AXIS2_PLACEMENT_3D ( 'NONE', #152, #272, #156 ) ;
#143 = EDGE_CURVE ( 'NONE', #309, #77, #89, .T. ) ;
#144 = FILL_AREA_STYLE_COLOUR ( '', #117 ) ;
#145 = ADVANCED_FACE ( 'NONE', ( #15 ), #109, .F. ) ;
#146 = PRESENTATION_LAYER_ASSIGNMENT (  '', '', ( #289 ) ) ;
#147 = PRESENTATION_STYLE_ASSIGNMENT (( #236 ) ) ;
#148 = ORIENTED_EDGE ( 'NONE', *, *, #133, .T. ) ;
#149 = ORIENTED_EDGE ( 'NONE', *, *, #137, .F. ) ;
#150 = DIRECTION ( 'NONE',  ( -1.000000000000000000, 0.000000000000000000, 0.000000000000000000 ) ) ;
#151 = FILL_AREA_STYLE ('',( #134 ) ) ;
#152 = CARTESIAN_POINT ( 'NONE',  ( 3.061616997868383141E-16, 2.500000000000000000, 0.000000000000000000 ) ) ;
#153 = CARTESIAN_POINT ( 'NONE',  ( 0.000000000000000000, 0.000000000000000000, -0.2500000000000000000 ) ) ;
#154 = DIRECTION ( 'NONE',  ( -0.000000000000000000, -1.000000000000000000, -0.000000000000000000 ) ) ;
#155 = FACE_OUTER_BOUND ( 'NONE', #239, .T. ) ;
#156 = DIRECTION ( 'NONE',  ( -1.000000000000000000, 0.000000000000000000, 0.000000000000000000 ) ) ;
#157 = MECHANICAL_DESIGN_GEOMETRIC_PRESENTATION_REPRESENTATION (  '', ( #197 ), #161 ) ;
#158 = COLOUR_RGB ( '',0.7921568627450980005, 0.8196078431372548767, 0.9333333333333333481 ) ;
#159 = CYLINDRICAL_SURFACE ( 'NONE', #263, 0.2499999999999998612 ) ;
#160 = LENGTH_MEASURE_WITH_UNIT ( LENGTH_MEASURE( 0.02539999999999999897 ), #284 );
#161 =( GEOMETRIC_REPRESENTATION_CONTEXT ( 3 ) GLOBAL_UNCERTAINTY_ASSIGNED_CONTEXT ( ( #290 ) ) GLOBAL_UNIT_ASSIGNED_CONTEXT ( ( #138, #100, #184 ) ) REPRESENTATION_CONTEXT ( 'NONE', 'WORKASPACE' ) );
#162 =( LENGTH_UNIT ( ) NAMED_UNIT ( * ) SI_UNIT ( $, .METRE. ) );
#163 = SURFACE_STYLE_FILL_AREA ( #302 ) ;
#164 =( GEOMETRIC_REPRESENTATION_CONTEXT ( 3 ) GLOBAL_UNCERTAINTY_ASSIGNED_CONTEXT ( ( #303 ) ) GLOBAL_UNIT_ASSIGNED_CONTEXT ( ( #193, #55, #170 ) ) REPRESENTATION_CONTEXT ( 'NONE', 'WORKASPACE' ) );
#165 = PRODUCT_DEFINITION_CONTEXT ( 'detailed design', #21, 'design' ) ;
#166 = SHAPE_DEFINITION_REPRESENTATION ( #135, #53 ) ;
#167 = SURFACE_SIDE_STYLE ('',( #260 ) ) ;
#168 = CIRCLE ( 'NONE', #201, 0.2500000000000000000 ) ;
#169 = ORIENTED_EDGE ( 'NONE', *, *, #230, .F. ) ;
#170 =( NAMED_UNIT ( * ) SI_UNIT ( $, .STERADIAN. ) SOLID_ANGLE_UNIT ( ) );
#171 =( LENGTH_UNIT ( ) NAMED_UNIT ( * ) SI_UNIT ( $, .METRE. ) );
#172 = DIRECTION ( 'NONE',  ( -1.000000000000000000, 0.000000000000000000, 0.000000000000000000 ) ) ;
#173 = CARTESIAN_POINT ( 'NONE',  ( 0.000000000000000000, 0.000000000000000000, 0.000000000000000000 ) ) ;
#174 = PRESENTATION_STYLE_ASSIGNMENT (( #297 ) ) ;
#175 =( GEOMETRIC_REPRESENTATION_CONTEXT ( 3 ) GLOBAL_UNCERTAINTY_ASSIGNED_CONTEXT ( ( #244 ) ) GLOBAL_UNIT_ASSIGNED_CONTEXT ( ( #240, #282, #261 ) ) REPRESENTATION_CONTEXT ( 'NONE', 'WORKASPACE' ) );
#176 = DIMENSIONAL_EXPONENTS ( 1.000000000000000000, 0.000000000000000000, 0.000000000000000000, 0.000000000000000000, 0.000000000000000000, 0.000000000000000000, 0.000000000000000000 ) ;
#177 = APPLICATION_PROTOCOL_DEFINITION ( 'draft international standard', 'automotive_design', 1998, #21 ) ;
#178 = DIRECTION ( 'NONE',  ( 1.632862398863137527E-16, 1.000000000000000000, -0.000000000000000000 ) ) ;
#179 = AXIS2_PLACEMENT_3D ( 'NONE', #84, #37, #266 ) ;
#180 = STYLED_ITEM ( 'NONE', ( #86 ), #274 ) ;
#181 = DIRECTION ( 'NONE',  ( -0.000000000000000000, -1.000000000000000000, -0.000000000000000000 ) ) ;
#182 = CIRCLE ( 'NONE', #179, 0.2499999999999996947 ) ;
#183 = CARTESIAN_POINT ( 'NONE',  ( 0.000000000000000000, 0.000000000000000000, 0.000000000000000000 ) ) ;
#184 =( NAMED_UNIT ( * ) SI_UNIT ( $, .STERADIAN. ) SOLID_ANGLE_UNIT ( ) );
#185 = EDGE_CURVE ( 'NONE', #77, #262, #249, .T. ) ;
#186 = ORIENTED_EDGE ( 'NONE', *, *, #252, .F. ) ;
#187 = COLOUR_RGB ( '',1.000000000000000000, 0.000000000000000000, 0.000000000000000000 ) ;
#188 = AXIS2_PLACEMENT_3D ( 'NONE', #4, #82, #250 ) ;
#189 = ORIENTED_EDGE ( 'NONE', *, *, #230, .T. ) ;
#190 = EDGE_CURVE ( 'NONE', #288, #247, #168, .T. ) ;
#191 = DIRECTION ( 'NONE',  ( -0.000000000000000000, -1.000000000000000000, -0.000000000000000000 ) ) ;
#192 = DIRECTION ( 'NONE',  ( -1.000000000000000000, 0.000000000000000000, 0.000000000000000000 ) ) ;
#193 =( CONVERSION_BASED_UNIT ( 'INCH', #14 ) LENGTH_UNIT ( ) NAMED_UNIT ( #270 ) );
#194 = DIMENSIONAL_EXPONENTS ( 1.000000000000000000, 0.000000000000000000, 0.000000000000000000, 0.000000000000000000, 0.000000000000000000, 0.000000000000000000, 0.000000000000000000 ) ;
#195 = SURFACE_STYLE_FILL_AREA ( #12 ) ;
#196 = LINE ( 'NONE', #31, #88 ) ;
#197 = STYLED_ITEM ( 'NONE', ( #147 ), #17 ) ;
#198 =( GEOMETRIC_REPRESENTATION_CONTEXT ( 3 ) GLOBAL_UNCERTAINTY_ASSIGNED_CONTEXT ( ( #20 ) ) GLOBAL_UNIT_ASSIGNED_CONTEXT ( ( #130, #140, #276 ) ) REPRESENTATION_CONTEXT ( 'NONE', 'WORKASPACE' ) );
#199 = UNCERTAINTY_MEASURE_WITH_UNIT (LENGTH_MEASURE( 1.000000000000000082E-05 ), #67, 'distance_accuracy_value', 'NONE');
#200 = DIRECTION ( 'NONE',  ( -0.000000000000000000, -1.000000000000000000, -0.000000000000000000 ) ) ;
#201 = AXIS2_PLACEMENT_3D ( 'NONE', #5, #200, #269 ) ;
#202 = AXIS2_PLACEMENT_3D ( 'NONE', #220, #34, #301 ) ;
#203 = CARTESIAN_POINT ( 'NONE',  ( 0.2500000000000000000, 0.6250000000000000000, 3.061616997868382402E-17 ) ) ;
#204 =( NAMED_UNIT ( * ) SI_UNIT ( $, .STERADIAN. ) SOLID_ANGLE_UNIT ( ) );
#205 = APPLICATION_CONTEXT ( 'automotive_design' ) ;
#206 = EDGE_CURVE ( 'NONE', #27, #211, #280, .T. ) ;
#207 = DIRECTION ( 'NONE',  ( -0.000000000000000000, -1.000000000000000000, -0.000000000000000000 ) ) ;
#208 = CIRCLE ( 'NONE', #253, 0.2500000000000000000 ) ;
#209 = MECHANICAL_DESIGN_GEOMETRIC_PRESENTATION_REPRESENTATION (  '', ( #289 ), #175 ) ;
#210 = FILL_AREA_STYLE ('',( #144 ) ) ;
#211 = VERTEX_POINT ( 'NONE', #63 ) ;
#212 = PRODUCT_CONTEXT ( 'NONE', #205, 'mechanical' ) ;
#213 = EDGE_LOOP ( 'NONE', ( #238, #72, #265, #50 ) ) ;
#214 = PRODUCT_DEFINITION_FORMATION_WITH_SPECIFIED_SOURCE ( 'ANY', '', #44, .NOT_KNOWN. ) ;
#215 = DIMENSIONAL_EXPONENTS ( 1.000000000000000000, 0.000000000000000000, 0.000000000000000000, 0.000000000000000000, 0.000000000000000000, 0.000000000000000000, 0.000000000000000000 ) ;
#216 = CARTESIAN_POINT ( 'NONE',  ( 0.2500000000000000000, 2.500000000000000000, 3.061616997868382402E-17 ) ) ;
#217 = ORIENTED_EDGE ( 'NONE', *, *, #143, .T. ) ;
#218 =( CONVERSION_BASED_UNIT ( 'INCH', #271 ) LENGTH_UNIT ( ) NAMED_UNIT ( #292 ) );
#219 = SURFACE_STYLE_USAGE ( .BOTH. , #227 ) ;
#220 = CARTESIAN_POINT ( 'NONE',  ( 0.2500000000000000000, 2.500000000000000000, 0.000000000000000000 ) ) ;
#221 = DIMENSIONAL_EXPONENTS ( 1.000000000000000000, 0.000000000000000000, 0.000000000000000000, 0.000000000000000000, 0.000000000000000000, 0.000000000000000000, 0.000000000000000000 ) ;
#222 = LENGTH_MEASURE_WITH_UNIT ( LENGTH_MEASURE( 0.02539999999999999897 ), #162 );
#223 = FILL_AREA_STYLE_COLOUR ( '', #187 ) ;
#224 = AXIS2_PLACEMENT_3D ( 'NONE', #36, #103, #9 ) ;
#225 = AXIS2_PLACEMENT_3D ( 'NONE', #258, #46, #16 ) ;
#226 = DIRECTION ( 'NONE',  ( -0.000000000000000000, -1.000000000000000000, -0.000000000000000000 ) ) ;
#227 = SURFACE_SIDE_STYLE ('',( #246 ) ) ;
#228 = STYLED_ITEM ( 'NONE', ( #174 ), #119 ) ;
#229 = FACE_OUTER_BOUND ( 'NONE', #74, .T. ) ;
#230 = EDGE_CURVE ( 'NONE', #309, #248, #196, .T. ) ;
#231 =( GEOMETRIC_REPRESENTATION_CONTEXT ( 3 ) GLOBAL_UNCERTAINTY_ASSIGNED_CONTEXT ( ( #81 ) ) GLOBAL_UNIT_ASSIGNED_CONTEXT ( ( #218, #54, #126 ) ) REPRESENTATION_CONTEXT ( 'NONE', 'WORKASPACE' ) );
#232 = AXIS2_PLACEMENT_3D ( 'NONE', #183, #181, #234 ) ;
#233 = STYLED_ITEM ( 'NONE', ( #139 ), #281 ) ;
#234 = DIRECTION ( 'NONE',  ( 0.000000000000000000, 0.000000000000000000, -1.000000000000000000 ) ) ;
#235 =( NAMED_UNIT ( * ) PLANE_ANGLE_UNIT ( ) SI_UNIT ( $, .RADIAN. ) );
#236 = SURFACE_STYLE_USAGE ( .BOTH. , #167 ) ;
#237 =( GEOMETRIC_REPRESENTATION_CONTEXT ( 3 ) GLOBAL_UNCERTAINTY_ASSIGNED_CONTEXT ( ( #116 ) ) GLOBAL_UNIT_ASSIGNED_CONTEXT ( ( #91, #23, #204 ) ) REPRESENTATION_CONTEXT ( 'NONE', 'WORKASPACE' ) );
#238 = ORIENTED_EDGE ( 'NONE', *, *, #190, .T. ) ;
#239 = EDGE_LOOP ( 'NONE', ( #169, #217, #101, #124 ) ) ;
#240 =( CONVERSION_BASED_UNIT ( 'INCH', #93 ) LENGTH_UNIT ( ) NAMED_UNIT ( #108 ) );
#241 = ORIENTED_EDGE ( 'NONE', *, *, #185, .F. ) ;
#242 =( LENGTH_UNIT ( ) NAMED_UNIT ( * ) SI_UNIT ( $, .METRE. ) );
#243 = EDGE_LOOP ( 'NONE', ( #294, #52 ) ) ;
#244 = UNCERTAINTY_MEASURE_WITH_UNIT (LENGTH_MEASURE( 1.000000000000000082E-05 ), #240, 'distance_accuracy_value', 'NONE');
#245 = CARTESIAN_POINT ( 'NONE',  ( 0.000000000000000000, 0.6250000000000000000, 0.000000000000000000 ) ) ;
#246 = SURFACE_STYLE_FILL_AREA ( #151 ) ;
#247 = VERTEX_POINT ( 'NONE', #127 ) ;
#248 = VERTEX_POINT ( 'NONE', #216 ) ;
#249 = LINE ( 'NONE', #123, #141 ) ;
#250 = DIRECTION ( 'NONE',  ( 0.000000000000000000, 0.000000000000000000, -1.000000000000000000 ) ) ;
#251 = DIRECTION ( 'NONE',  ( -1.000000000000000000, 0.000000000000000000, 0.000000000000000000 ) ) ;
#252 = EDGE_CURVE ( 'NONE', #262, #248, #26, .T. ) ;
#253 = AXIS2_PLACEMENT_3D ( 'NONE', #87, #191, #102 ) ;
#254 = ADVANCED_FACE ( 'NONE', ( #79 ), #275, .F. ) ;
#255 = SURFACE_SIDE_STYLE ('',( #163 ) ) ;
#256 =( LENGTH_UNIT ( ) NAMED_UNIT ( * ) SI_UNIT ( $, .METRE. ) );
#257 = PRESENTATION_LAYER_ASSIGNMENT (  '', '', ( #68 ) ) ;
#258 = CARTESIAN_POINT ( 'NONE',  ( 0.000000000000000000, 0.000000000000000000, 0.000000000000000000 ) ) ;
#259 =( NAMED_UNIT ( * ) SI_UNIT ( $, .STERADIAN. ) SOLID_ANGLE_UNIT ( ) );
#260 = SURFACE_STYLE_FILL_AREA ( #210 ) ;
#261 =( NAMED_UNIT ( * ) SI_UNIT ( $, .STERADIAN. ) SOLID_ANGLE_UNIT ( ) );
#262 = VERTEX_POINT ( 'NONE', #65 ) ;
#263 = AXIS2_PLACEMENT_3D ( 'NONE', #268, #267, #251 ) ;
#264 = ORIENTED_EDGE ( 'NONE', *, *, #133, .F. ) ;
#265 = ORIENTED_EDGE ( 'NONE', *, *, #304, .F. ) ;
#266 = DIRECTION ( 'NONE',  ( -1.000000000000000000, 0.000000000000000000, 0.000000000000000000 ) ) ;
#267 = DIRECTION ( 'NONE',  ( 1.632862398863137527E-16, 1.000000000000000000, -0.000000000000000000 ) ) ;
#268 = CARTESIAN_POINT ( 'NONE',  ( 3.061616997868383141E-16, 2.500000000000000000, 0.000000000000000000 ) ) ;
#269 = DIRECTION ( 'NONE',  ( 0.000000000000000000, 0.000000000000000000, -1.000000000000000000 ) ) ;
#270 = DIMENSIONAL_EXPONENTS ( 1.000000000000000000, 0.000000000000000000, 0.000000000000000000, 0.000000000000000000, 0.000000000000000000, 0.000000000000000000, 0.000000000000000000 ) ;
#271 = LENGTH_MEASURE_WITH_UNIT ( LENGTH_MEASURE( 0.02539999999999999897 ), #171 );
#272 = DIRECTION ( 'NONE',  ( 1.632862398863137527E-16, 1.000000000000000000, -0.000000000000000000 ) ) ;
#273 = AXIS2_PLACEMENT_3D ( 'NONE', #245, #62, #172 ) ;
#274 = MANIFOLD_SOLID_BREP ( 'Revolve - Tool Body (Straight Shanked)', #41 ) ;
#275 = PLANE ( 'NONE',  #202 ) ;
#276 =( NAMED_UNIT ( * ) SI_UNIT ( $, .STERADIAN. ) SOLID_ANGLE_UNIT ( ) );
#277 = FILL_AREA_STYLE ('',( #47 ) ) ;
#278 = ADVANCED_FACE ( 'NONE', ( #293 ), #107, .T. ) ;
#279 = LENGTH_MEASURE_WITH_UNIT ( LENGTH_MEASURE( 0.02539999999999999897 ), #19 );
#280 = CIRCLE ( 'NONE', #110, 0.2500000000000000000 ) ;
#281 = MANIFOLD_SOLID_BREP ( 'Revolve - Cutting Edge', #11 ) ;
#282 =( NAMED_UNIT ( * ) PLANE_ANGLE_UNIT ( ) SI_UNIT ( $, .RADIAN. ) );
#283 =( LENGTH_UNIT ( ) NAMED_UNIT ( * ) SI_UNIT ( $, .METRE. ) );
#284 =( LENGTH_UNIT ( ) NAMED_UNIT ( * ) SI_UNIT ( $, .METRE. ) );
#285 = DIRECTION ( 'NONE',  ( 0.000000000000000000, 1.000000000000000000, 0.000000000000000000 ) ) ;
#286 = EDGE_LOOP ( 'NONE', ( #264, #28 ) ) ;
#287 = FACE_OUTER_BOUND ( 'NONE', #97, .T. ) ;
#288 = VERTEX_POINT ( 'NONE', #305 ) ;
#289 = STYLED_ITEM ( 'NONE', ( #49 ), #307 ) ;
#290 = UNCERTAINTY_MEASURE_WITH_UNIT (LENGTH_MEASURE( 1.000000000000000082E-05 ), #138, 'distance_accuracy_value', 'NONE');
#291 = ADVANCED_FACE ( 'NONE', ( #229 ), #308, .T. ) ;
#292 = DIMENSIONAL_EXPONENTS ( 1.000000000000000000, 0.000000000000000000, 0.000000000000000000, 0.000000000000000000, 0.000000000000000000, 0.000000000000000000, 0.000000000000000000 ) ;
#293 = FACE_OUTER_BOUND ( 'NONE', #32, .T. ) ;
#294 = ORIENTED_EDGE ( 'NONE', *, *, #252, .T. ) ;
#295 = CARTESIAN_POINT ( 'NONE',  ( 3.332799517026350012E-33, 0.6250000000000000000, 0.000000000000000000 ) ) ;
#296 = FILL_AREA_STYLE_COLOUR ( '', #158 ) ;
#297 = SURFACE_STYLE_USAGE ( .BOTH. , #106 ) ;
#298 = DIRECTION ( 'NONE',  ( 1.632862398863137527E-16, 1.000000000000000000, -0.000000000000000000 ) ) ;
#299 = PRESENTATION_STYLE_ASSIGNMENT (( #70 ) ) ;
#300 = PLANE ( 'NONE',  #224 ) ;
#301 = DIRECTION ( 'NONE',  ( 1.000000000000000000, -1.632862398863137527E-16, 0.000000000000000000 ) ) ;
#302 = FILL_AREA_STYLE ('',( #111 ) ) ;
#303 = UNCERTAINTY_MEASURE_WITH_UNIT (LENGTH_MEASURE( 1.000000000000000082E-05 ), #193, 'distance_accuracy_value', 'NONE');
#304 = EDGE_CURVE ( 'NONE', #211, #27, #45, .T. ) ;
#305 = CARTESIAN_POINT ( 'NONE',  ( 0.000000000000000000, 0.6250000000000000000, -0.2500000000000000000 ) ) ;
#306 = CARTESIAN_POINT ( 'NONE',  ( 0.000000000000000000, 0.000000000000000000, 0.000000000000000000 ) ) ;
#307 = ADVANCED_FACE ( 'NONE', ( #287 ), #90, .T. ) ;
#308 = PLANE ( 'NONE',  #105 ) ;
#309 = VERTEX_POINT ( 'NONE', #203 ) ;
ENDSEC;
END-ISO-10303-21;
