ISO-10303-21;
HEADER;
FILE_DESCRIPTION (( 'STEP AP214' ),
    '1' );
FILE_NAME ('Micro_SME-045-2X.STEP',
    '2021-09-02T12:01:59',
    ( '' ),
    ( '' ),
    'SwSTEP 2.0',
    'SolidWorks 2020',
    '' );
FILE_SCHEMA (( 'AUTOMOTIVE_DESIGN' ));
ENDSEC;

DATA;
#1 = CARTESIAN_POINT ( 'NONE',  ( 8.327598234202006480E-18, 0.0000000000000000000, 0.06800000000000000488 ) ) ;
#2 = ORIENTED_EDGE ( 'NONE', *, *, #36, .F. ) ;
#3 = EDGE_CURVE ( 'NONE', #8, #26, #96, .T. ) ;
#4 = DIRECTION ( 'NONE',  ( 0.0000000000000000000, 0.0000000000000000000, -1.000000000000000000 ) ) ;
#5 = DIRECTION ( 'NONE',  ( 1.000000000000000000, 0.0000000000000000000, 0.0000000000000000000 ) ) ;
#6 = ORIENTED_EDGE ( 'NONE', *, *, #128, .F. ) ;
#7 = ORIENTED_EDGE ( 'NONE', *, *, #251, .F. ) ;
#8 = VERTEX_POINT ( 'NONE', #238 ) ;
#9 = AXIS2_PLACEMENT_3D ( 'NONE', #194, #195, #293 ) ;
#10 = AXIS2_PLACEMENT_3D ( 'NONE', #273, #203, #278 ) ;
#11 = SURFACE_STYLE_USAGE ( .BOTH. , #215 ) ;
#12 = SURFACE_STYLE_FILL_AREA ( #204 ) ;
#13 = ORIENTED_EDGE ( 'NONE', *, *, #266, .F. ) ;
#14 = LENGTH_MEASURE_WITH_UNIT ( LENGTH_MEASURE( 0.02539999999999999897 ), #242 );
#15 = VECTOR ( 'NONE', #168, 39.37007874015748143 ) ;
#16 = APPLICATION_CONTEXT ( 'automotive_design' ) ;
#17 =( CONVERSION_BASED_UNIT ( 'INCH', #146 ) LENGTH_UNIT ( ) NAMED_UNIT ( #239 ) );
#18 = DIRECTION ( 'NONE',  ( 1.000000000000000000, 0.0000000000000000000, 0.0000000000000000000 ) ) ;
#19 = AXIS2_PLACEMENT_3D ( 'NONE', #1, #202, #5 ) ;
#20 = MANIFOLD_SOLID_BREP ( 'Cut-Revolve1', #276 ) ;
#21 = CYLINDRICAL_SURFACE ( 'NONE', #231, 0.06250000000000002776 ) ;
#22 = CARTESIAN_POINT ( 'NONE',  ( 8.327598234202006480E-18, 0.0000000000000000000, 0.06800000000000000488 ) ) ;
#23 = CARTESIAN_POINT ( 'NONE',  ( 0.0000000000000000000, 0.0000000000000000000, 1.500000000000000222 ) ) ;
#24 = DIRECTION ( 'NONE',  ( -1.224646799147353700E-16, -0.0000000000000000000, -1.000000000000000000 ) ) ;
#25 = AXIS2_PLACEMENT_3D ( 'NONE', #294, #269, #248 ) ;
#26 = VERTEX_POINT ( 'NONE', #37 ) ;
#27 = CARTESIAN_POINT ( 'NONE',  ( 0.0000000000000000000, 0.0000000000000000000, 1.500000000000000222 ) ) ;
#28 = ORIENTED_EDGE ( 'NONE', *, *, #55, .F. ) ;
#29 = LINE ( 'NONE', #32, #292 ) ;
#30 = DIRECTION ( 'NONE',  ( -0.7071067811865462405, 0.0000000000000000000, -0.7071067811865486830 ) ) ;
#31 = COLOUR_RGB ( '',0.7921568627450980005, 0.8196078431372548767, 0.9333333333333333481 ) ;
#32 = CARTESIAN_POINT ( 'NONE',  ( 0.02247750000000001136, 0.0000000000000000000, 0.06800000000000000488 ) ) ;
#33 = ORIENTED_EDGE ( 'NONE', *, *, #222, .T. ) ;
#34 = FACE_OUTER_BOUND ( 'NONE', #136, .T. ) ;
#35 = PRESENTATION_STYLE_ASSIGNMENT (( #11 ) ) ;
#36 = EDGE_CURVE ( 'NONE', #228, #52, #218, .T. ) ;
#37 = CARTESIAN_POINT ( 'NONE',  ( -0.06249999999999999306, 0.0000000000000000000, 0.2949788766256485895 ) ) ;
#38 = DIMENSIONAL_EXPONENTS ( 1.000000000000000000, 0.0000000000000000000, 0.0000000000000000000, 0.0000000000000000000, 0.0000000000000000000, 0.0000000000000000000, 0.0000000000000000000 ) ;
#39 = PRESENTATION_LAYER_ASSIGNMENT (  '', '', ( #178 ) ) ;
#40 = CARTESIAN_POINT ( 'NONE',  ( 3.612449370756826914E-17, 0.0000000000000000000, 0.2949788766256485895 ) ) ;
#41 = AXIS2_PLACEMENT_3D ( 'NONE', #22, #58, #61 ) ;
#42 = APPLICATION_CONTEXT ( 'automotive_design' ) ;
#43 = PRODUCT_RELATED_PRODUCT_CATEGORY ( 'part', '', ( #295 ) ) ;
#44 = CARTESIAN_POINT ( 'NONE',  ( 0.02247750000000000095, 2.752699842783463224E-18, 0.0000000000000000000 ) ) ;
#45 = ADVANCED_FACE ( 'NONE', ( #166 ), #263, .T. ) ;
#46 = ORIENTED_EDGE ( 'NONE', *, *, #176, .T. ) ;
#47 = VECTOR ( 'NONE', #249, 39.37007874015748854 ) ;
#48 = CIRCLE ( 'NONE', #172, 0.06250000000000002776 ) ;
#49 = EDGE_LOOP ( 'NONE', ( #51, #252, #87, #116 ) ) ;
#50 = LINE ( 'NONE', #255, #94 ) ;
#51 = ORIENTED_EDGE ( 'NONE', *, *, #137, .F. ) ;
#52 = VERTEX_POINT ( 'NONE', #144 ) ;
#53 = VECTOR ( 'NONE', #74, 39.37007874015748143 ) ;
#54 = CARTESIAN_POINT ( 'NONE',  ( 0.06250000000000005551, 7.654042494670963708E-18, 0.2949788766256485895 ) ) ;
#55 = EDGE_CURVE ( 'NONE', #68, #187, #193, .T. ) ;
#56 = DIRECTION ( 'NONE',  ( 1.000000000000000000, 0.0000000000000000000, 0.0000000000000000000 ) ) ;
#57 = ORIENTED_EDGE ( 'NONE', *, *, #296, .T. ) ;
#58 = DIRECTION ( 'NONE',  ( -1.224646799147353700E-16, -0.0000000000000000000, -1.000000000000000000 ) ) ;
#59 = AXIS2_PLACEMENT_3D ( 'NONE', #264, #191, #56 ) ;
#60 = AXIS2_PLACEMENT_3D ( 'NONE', #161, #65, #200 ) ;
#61 = DIRECTION ( 'NONE',  ( -1.000000000000000000, 0.0000000000000000000, 0.0000000000000000000 ) ) ;
#62 = PRESENTATION_LAYER_ASSIGNMENT (  '', '', ( #118 ) ) ;
#63 = DIRECTION ( 'NONE',  ( -1.224646799147353700E-16, -0.0000000000000000000, -1.000000000000000000 ) ) ;
#64 =( LENGTH_UNIT ( ) NAMED_UNIT ( * ) SI_UNIT ( $, .METRE. ) );
#65 = DIRECTION ( 'NONE',  ( 0.0000000000000000000, 0.0000000000000000000, 1.000000000000000000 ) ) ;
#66 = VERTEX_POINT ( 'NONE', #54 ) ;
#67 = FACE_OUTER_BOUND ( 'NONE', #70, .T. ) ;
#68 = VERTEX_POINT ( 'NONE', #142 ) ;
#69 = DIRECTION ( 'NONE',  ( 1.000000000000000000, 0.0000000000000000000, 0.0000000000000000000 ) ) ;
#70 = EDGE_LOOP ( 'NONE', ( #279, #240, #6, #91 ) ) ;
#71 = FILL_AREA_STYLE_COLOUR ( '', #271 ) ;
#72 = ORIENTED_EDGE ( 'NONE', *, *, #137, .T. ) ;
#73 = DIRECTION ( 'NONE',  ( 0.0000000000000000000, 0.0000000000000000000, 1.000000000000000000 ) ) ;
#74 = DIRECTION ( 'NONE',  ( -1.224646799147353700E-16, -0.0000000000000000000, -1.000000000000000000 ) ) ;
#75 = SHAPE_DEFINITION_REPRESENTATION ( #102, #154 ) ;
#76 = ORIENTED_EDGE ( 'NONE', *, *, #296, .F. ) ;
#77 = EDGE_LOOP ( 'NONE', ( #299, #274, #85, #46 ) ) ;
#78 = UNCERTAINTY_MEASURE_WITH_UNIT (LENGTH_MEASURE( 1.000000000000000082E-05 ), #184, 'distance_accuracy_value', 'NONE');
#79 = ORIENTED_EDGE ( 'NONE', *, *, #176, .F. ) ;
#80 = CARTESIAN_POINT ( 'NONE',  ( 0.06250000000000002776, 7.654042494670959086E-18, 1.485000000000000764 ) ) ;
#81 = MECHANICAL_DESIGN_GEOMETRIC_PRESENTATION_REPRESENTATION (  '', ( #178 ), #220 ) ;
#82 = PRODUCT_DEFINITION_FORMATION_WITH_SPECIFIED_SOURCE ( 'ANY', '', #295, .NOT_KNOWN. ) ;
#83 = ADVANCED_FACE ( 'NONE', ( #192 ), #244, .T. ) ;
#84 = CARTESIAN_POINT ( 'NONE',  ( -0.02247749999999999401, 5.203371168727211732E-18, 0.06800000000000000488 ) ) ;
#85 = ORIENTED_EDGE ( 'NONE', *, *, #241, .T. ) ;
#86 = DIRECTION ( 'NONE',  ( 0.1736481776669314137, 0.0000000000000000000, 0.9848077530122077983 ) ) ;
#87 = ORIENTED_EDGE ( 'NONE', *, *, #266, .T. ) ;
#88 = DIRECTION ( 'NONE',  ( 1.000000000000000000, 0.0000000000000000000, 0.0000000000000000000 ) ) ;
#89 = LENGTH_MEASURE_WITH_UNIT ( LENGTH_MEASURE( 0.02539999999999999897 ), #64 );
#90 = EDGE_LOOP ( 'NONE', ( #256, #224 ) ) ;
#91 = ORIENTED_EDGE ( 'NONE', *, *, #3, .F. ) ;
#92 = CIRCLE ( 'NONE', #9, 0.02247750000000000095 ) ;
#93 = ORIENTED_EDGE ( 'NONE', *, *, #147, .F. ) ;
#94 = VECTOR ( 'NONE', #133, 39.37007874015747433 ) ;
#95 =( NAMED_UNIT ( * ) PLANE_ANGLE_UNIT ( ) SI_UNIT ( $, .RADIAN. ) );
#96 = LINE ( 'NONE', #288, #275 ) ;
#97 = DIRECTION ( 'NONE',  ( -1.000000000000000000, 0.0000000000000000000, 0.0000000000000000000 ) ) ;
#98 =( GEOMETRIC_REPRESENTATION_CONTEXT ( 3 ) GLOBAL_UNCERTAINTY_ASSIGNED_CONTEXT ( ( #213 ) ) GLOBAL_UNIT_ASSIGNED_CONTEXT ( ( #17, #95, #120 ) ) REPRESENTATION_CONTEXT ( 'NONE', 'WORKASPACE' ) );
#99 = CONICAL_SURFACE ( 'NONE', #19, 0.02247750000000000095, 0.1745329251994339192 ) ;
#100 = SURFACE_STYLE_FILL_AREA ( #287 ) ;
#101 = DIRECTION ( 'NONE',  ( -1.000000000000000000, 0.0000000000000000000, 1.224646799147353700E-16 ) ) ;
#102 = PRODUCT_DEFINITION_SHAPE ( 'NONE', 'NONE',  #159 ) ;
#103 = ADVANCED_FACE ( 'NONE', ( #34 ), #225, .T. ) ;
#104 = CARTESIAN_POINT ( 'NONE',  ( 0.0000000000000000000, 0.0000000000000000000, 1.500000000000000222 ) ) ;
#105 = CIRCLE ( 'NONE', #119, 0.06250000000000002776 ) ;
#106 = CARTESIAN_POINT ( 'NONE',  ( 0.0000000000000000000, 0.0000000000000000000, 0.0000000000000000000 ) ) ;
#107 = FACE_OUTER_BOUND ( 'NONE', #141, .T. ) ;
#108 = ADVANCED_FACE ( 'NONE', ( #219 ), #152, .T. ) ;
#109 = DIRECTION ( 'NONE',  ( 0.0000000000000000000, 0.0000000000000000000, -1.000000000000000000 ) ) ;
#110 = CIRCLE ( 'NONE', #10, 0.04750000000000064587 ) ;
#111 = PLANE ( 'NONE',  #60 ) ;
#112 =( NAMED_UNIT ( * ) PLANE_ANGLE_UNIT ( ) SI_UNIT ( $, .RADIAN. ) );
#113 = FACE_OUTER_BOUND ( 'NONE', #201, .T. ) ;
#114 = CARTESIAN_POINT ( 'NONE',  ( -0.04750000000000064587, 0.0000000000000000000, 1.500000000000000222 ) ) ;
#115 = EDGE_LOOP ( 'NONE', ( #28, #130, #261, #281 ) ) ;
#116 = ORIENTED_EDGE ( 'NONE', *, *, #290, .F. ) ;
#117 = DIRECTION ( 'NONE',  ( 0.0000000000000000000, 0.0000000000000000000, -1.000000000000000000 ) ) ;
#118 = STYLED_ITEM ( 'NONE', ( #35 ), #20 ) ;
#119 = AXIS2_PLACEMENT_3D ( 'NONE', #270, #63, #174 ) ;
#120 =( NAMED_UNIT ( * ) SI_UNIT ( $, .STERADIAN. ) SOLID_ANGLE_UNIT ( ) );
#121 = DIRECTION ( 'NONE',  ( 1.000000000000000000, 0.0000000000000000000, -0.0000000000000000000 ) ) ;
#122 = SURFACE_SIDE_STYLE ('',( #12 ) ) ;
#123 = VECTOR ( 'NONE', #268, 39.37007874015748143 ) ;
#124 = EDGE_CURVE ( 'NONE', #68, #228, #92, .T. ) ;
#125 = DIRECTION ( 'NONE',  ( -1.000000000000000000, 0.0000000000000000000, 0.0000000000000000000 ) ) ;
#126 = CARTESIAN_POINT ( 'NONE',  ( 0.06250000000000002776, 7.654042494670959086E-18, 1.500000000000000222 ) ) ;
#127 = DIRECTION ( 'NONE',  ( -1.224646799147353700E-16, -0.0000000000000000000, -1.000000000000000000 ) ) ;
#128 = EDGE_CURVE ( 'NONE', #26, #66, #48, .T. ) ;
#129 = FACE_OUTER_BOUND ( 'NONE', #49, .T. ) ;
#130 = ORIENTED_EDGE ( 'NONE', *, *, #124, .T. ) ;
#131 = AXIS2_PLACEMENT_3D ( 'NONE', #106, #127, #101 ) ;
#132 = CIRCLE ( 'NONE', #209, 0.02247750000000000095 ) ;
#133 = DIRECTION ( 'NONE',  ( -0.1736481776669312194, 2.126576849575783625E-17, 0.9848077530122080203 ) ) ;
#134 = ORIENTED_EDGE ( 'NONE', *, *, #241, .F. ) ;
#135 = DIRECTION ( 'NONE',  ( -0.0000000000000000000, -0.0000000000000000000, -1.000000000000000000 ) ) ;
#136 = EDGE_LOOP ( 'NONE', ( #76, #72, #7, #13 ) ) ;
#137 = EDGE_CURVE ( 'NONE', #185, #138, #155, .T. ) ;
#138 = VERTEX_POINT ( 'NONE', #80 ) ;
#139 = CIRCLE ( 'NONE', #226, 0.04750000000000064587 ) ;
#140 =( NAMED_UNIT ( * ) SI_UNIT ( $, .STERADIAN. ) SOLID_ANGLE_UNIT ( ) );
#141 = EDGE_LOOP ( 'NONE', ( #164, #167, #170, #79 ) ) ;
#142 = CARTESIAN_POINT ( 'NONE',  ( 0.02247750000000001136, 0.0000000000000000000, 0.06800000000000000488 ) ) ;
#143 = AXIS2_PLACEMENT_3D ( 'NONE', #272, #280, #69 ) ;
#144 = CARTESIAN_POINT ( 'NONE',  ( -0.02247750000000000095, 0.0000000000000000000, 5.505399685566928759E-18 ) ) ;
#145 = CARTESIAN_POINT ( 'NONE',  ( 0.0000000000000000000, 0.0000000000000000000, 1.500000000000000222 ) ) ;
#146 = LENGTH_MEASURE_WITH_UNIT ( LENGTH_MEASURE( 0.02539999999999999897 ), #206 );
#147 = EDGE_CURVE ( 'NONE', #228, #68, #237, .T. ) ;
#148 = DIRECTION ( 'NONE',  ( -0.0000000000000000000, -0.0000000000000000000, -1.000000000000000000 ) ) ;
#149 = AXIS2_PLACEMENT_3D ( 'NONE', #169, #117, #97 ) ;
#150 = CIRCLE ( 'NONE', #143, 0.06250000000000002776 ) ;
#151 = CYLINDRICAL_SURFACE ( 'NONE', #25, 0.02247750000000000095 ) ;
#152 = CYLINDRICAL_SURFACE ( 'NONE', #131, 0.02247750000000000095 ) ;
#153 = VECTOR ( 'NONE', #30, 39.37007874015748854 ) ;
#154 = ADVANCED_BREP_SHAPE_REPRESENTATION ( 'Micro_SME-045-2X', ( #20, #208 ), #165 ) ;
#155 = LINE ( 'NONE', #196, #47 ) ;
#156 = DIRECTION ( 'NONE',  ( -1.000000000000000000, 0.0000000000000000000, 0.0000000000000000000 ) ) ;
#157 = EDGE_CURVE ( 'NONE', #138, #66, #247, .T. ) ;
#158 = ORIENTED_EDGE ( 'NONE', *, *, #55, .T. ) ;
#159 = PRODUCT_DEFINITION ( 'UNKNOWN', '', #82, #205 ) ;
#160 = CYLINDRICAL_SURFACE ( 'NONE', #253, 0.06250000000000002776 ) ;
#161 = CARTESIAN_POINT ( 'NONE',  ( 0.0000000000000000000, 0.0000000000000000000, 0.0000000000000000000 ) ) ;
#162 = ADVANCED_FACE ( 'NONE', ( #175 ), #151, .T. ) ;
#163 = DIRECTION ( 'NONE',  ( -1.000000000000000000, 0.0000000000000000000, 1.224646799147353700E-16 ) ) ;
#164 = ORIENTED_EDGE ( 'NONE', *, *, #157, .F. ) ;
#165 =( GEOMETRIC_REPRESENTATION_CONTEXT ( 3 ) GLOBAL_UNCERTAINTY_ASSIGNED_CONTEXT ( ( #78 ) ) GLOBAL_UNIT_ASSIGNED_CONTEXT ( ( #184, #112, #140 ) ) REPRESENTATION_CONTEXT ( 'NONE', 'WORKASPACE' ) );
#166 = FACE_OUTER_BOUND ( 'NONE', #283, .T. ) ;
#167 = ORIENTED_EDGE ( 'NONE', *, *, #290, .T. ) ;
#168 = DIRECTION ( 'NONE',  ( -1.224646799147353700E-16, -0.0000000000000000000, -1.000000000000000000 ) ) ;
#169 = CARTESIAN_POINT ( 'NONE',  ( 0.0000000000000000000, 0.0000000000000000000, 1.500000000000000222 ) ) ;
#170 = ORIENTED_EDGE ( 'NONE', *, *, #3, .T. ) ;
#171 = ADVANCED_FACE ( 'NONE', ( #107 ), #21, .T. ) ;
#172 = AXIS2_PLACEMENT_3D ( 'NONE', #40, #289, #18 ) ;
#173 = CIRCLE ( 'NONE', #298, 0.06250000000000002776 ) ;
#174 = DIRECTION ( 'NONE',  ( 1.000000000000000000, 0.0000000000000000000, 0.0000000000000000000 ) ) ;
#175 = FACE_OUTER_BOUND ( 'NONE', #115, .T. ) ;
#176 = EDGE_CURVE ( 'NONE', #66, #26, #105, .T. ) ;
#177 = AXIS2_PLACEMENT_3D ( 'NONE', #145, #217, #121 ) ;
#178 = STYLED_ITEM ( 'NONE', ( #284 ), #154 ) ;
#179 = APPLICATION_PROTOCOL_DEFINITION ( 'draft international standard', 'automotive_design', 1998, #16 ) ;
#180 = FACE_OUTER_BOUND ( 'NONE', #90, .T. ) ;
#181 = LINE ( 'NONE', #114, #153 ) ;
#182 = EDGE_LOOP ( 'NONE', ( #258, #158, #199, #2 ) ) ;
#183 = CARTESIAN_POINT ( 'NONE',  ( -0.04750000000000064587, 0.0000000000000000000, 1.500000000000000222 ) ) ;
#184 =( CONVERSION_BASED_UNIT ( 'INCH', #89 ) LENGTH_UNIT ( ) NAMED_UNIT ( #232 ) );
#185 = VERTEX_POINT ( 'NONE', #250 ) ;
#186 =( CONVERSION_BASED_UNIT ( 'INCH', #14 ) LENGTH_UNIT ( ) NAMED_UNIT ( #38 ) );
#187 = VERTEX_POINT ( 'NONE', #44 ) ;
#188 = AXIS2_PLACEMENT_3D ( 'NONE', #23, #109, #125 ) ;
#189 = DIRECTION ( 'NONE',  ( -0.0000000000000000000, -0.0000000000000000000, -1.000000000000000000 ) ) ;
#190 = SURFACE_STYLE_USAGE ( .BOTH. , #122 ) ;
#191 = DIRECTION ( 'NONE',  ( 1.224646799147353700E-16, 0.0000000000000000000, 1.000000000000000000 ) ) ;
#192 = FACE_OUTER_BOUND ( 'NONE', #77, .T. ) ;
#193 = LINE ( 'NONE', #259, #53 ) ;
#194 = CARTESIAN_POINT ( 'NONE',  ( 8.327598234202006480E-18, 0.0000000000000000000, 0.06800000000000000488 ) ) ;
#195 = DIRECTION ( 'NONE',  ( -1.224646799147353700E-16, -0.0000000000000000000, -1.000000000000000000 ) ) ;
#196 = CARTESIAN_POINT ( 'NONE',  ( 0.04750000000000064587, 5.817072295950006528E-18, 1.500000000000000222 ) ) ;
#197 = CIRCLE ( 'NONE', #267, 0.02247750000000000095 ) ;
#198 = DIRECTION ( 'NONE',  ( -1.224646799147353700E-16, -0.0000000000000000000, -1.000000000000000000 ) ) ;
#199 = ORIENTED_EDGE ( 'NONE', *, *, #246, .F. ) ;
#200 = DIRECTION ( 'NONE',  ( 1.000000000000000000, 0.0000000000000000000, -0.0000000000000000000 ) ) ;
#201 = EDGE_LOOP ( 'NONE', ( #93, #33, #265, #134 ) ) ;
#202 = DIRECTION ( 'NONE',  ( 1.224646799147353700E-16, 0.0000000000000000000, 1.000000000000000000 ) ) ;
#203 = DIRECTION ( 'NONE',  ( 0.0000000000000000000, 0.0000000000000000000, 1.000000000000000000 ) ) ;
#204 = FILL_AREA_STYLE ('',( #71 ) ) ;
#205 = PRODUCT_DEFINITION_CONTEXT ( 'detailed design', #42, 'design' ) ;
#206 =( LENGTH_UNIT ( ) NAMED_UNIT ( * ) SI_UNIT ( $, .METRE. ) );
#207 = ADVANCED_FACE ( 'NONE', ( #129 ), #245, .T. ) ;
#208 = AXIS2_PLACEMENT_3D ( 'NONE', #214, #73, #285 ) ;
#209 = AXIS2_PLACEMENT_3D ( 'NONE', #277, #198, #163 ) ;
#210 = PRODUCT_CONTEXT ( 'NONE', #16, 'mechanical' ) ;
#211 = FILL_AREA_STYLE_COLOUR ( '', #31 ) ;
#212 = ADVANCED_FACE ( 'NONE', ( #180 ), #111, .F. ) ;
#213 = UNCERTAINTY_MEASURE_WITH_UNIT (LENGTH_MEASURE( 1.000000000000000082E-05 ), #17, 'distance_accuracy_value', 'NONE');
#214 = CARTESIAN_POINT ( 'NONE',  ( 0.0000000000000000000, 0.0000000000000000000, 0.0000000000000000000 ) ) ;
#215 = SURFACE_SIDE_STYLE ('',( #100 ) ) ;
#216 = EDGE_CURVE ( 'NONE', #286, #185, #139, .T. ) ;
#217 = DIRECTION ( 'NONE',  ( 0.0000000000000000000, 0.0000000000000000000, 1.000000000000000000 ) ) ;
#218 = LINE ( 'NONE', #234, #15 ) ;
#219 = FACE_OUTER_BOUND ( 'NONE', #182, .T. ) ;
#220 =( GEOMETRIC_REPRESENTATION_CONTEXT ( 3 ) GLOBAL_UNCERTAINTY_ASSIGNED_CONTEXT ( ( #235 ) ) GLOBAL_UNIT_ASSIGNED_CONTEXT ( ( #186, #233, #262 ) ) REPRESENTATION_CONTEXT ( 'NONE', 'WORKASPACE' ) );
#221 = ADVANCED_FACE ( 'NONE', ( #67 ), #160, .T. ) ;
#222 = EDGE_CURVE ( 'NONE', #228, #26, #50, .T. ) ;
#223 = DIRECTION ( 'NONE',  ( 0.0000000000000000000, 0.0000000000000000000, 1.000000000000000000 ) ) ;
#224 = ORIENTED_EDGE ( 'NONE', *, *, #282, .T. ) ;
#225 = CONICAL_SURFACE ( 'NONE', #149, 0.04750000000000064587, 0.7853981633974466137 ) ;
#226 = AXIS2_PLACEMENT_3D ( 'NONE', #27, #223, #230 ) ;
#227 = DIRECTION ( 'NONE',  ( -1.000000000000000000, 0.0000000000000000000, 1.224646799147353700E-16 ) ) ;
#228 = VERTEX_POINT ( 'NONE', #84 ) ;
#229 = CARTESIAN_POINT ( 'NONE',  ( 3.371085051478193277E-34, 0.0000000000000000000, 2.752699842783464379E-18 ) ) ;
#230 = DIRECTION ( 'NONE',  ( 1.000000000000000000, 0.0000000000000000000, 0.0000000000000000000 ) ) ;
#231 = AXIS2_PLACEMENT_3D ( 'NONE', #104, #148, #297 ) ;
#232 = DIMENSIONAL_EXPONENTS ( 1.000000000000000000, 0.0000000000000000000, 0.0000000000000000000, 0.0000000000000000000, 0.0000000000000000000, 0.0000000000000000000, 0.0000000000000000000 ) ;
#233 =( NAMED_UNIT ( * ) PLANE_ANGLE_UNIT ( ) SI_UNIT ( $, .RADIAN. ) );
#234 = CARTESIAN_POINT ( 'NONE',  ( -0.02247750000000000095, 0.0000000000000000000, 2.752699842783464379E-18 ) ) ;
#235 = UNCERTAINTY_MEASURE_WITH_UNIT (LENGTH_MEASURE( 1.000000000000000082E-05 ), #186, 'distance_accuracy_value', 'NONE');
#236 = APPLICATION_PROTOCOL_DEFINITION ( 'draft international standard', 'automotive_design', 1998, #42 ) ;
#237 = CIRCLE ( 'NONE', #41, 0.02247750000000000095 ) ;
#238 = CARTESIAN_POINT ( 'NONE',  ( -0.06250000000000002776, 0.0000000000000000000, 1.485000000000000764 ) ) ;
#239 = DIMENSIONAL_EXPONENTS ( 1.000000000000000000, 0.0000000000000000000, 0.0000000000000000000, 0.0000000000000000000, 0.0000000000000000000, 0.0000000000000000000, 0.0000000000000000000 ) ;
#240 = ORIENTED_EDGE ( 'NONE', *, *, #157, .T. ) ;
#241 = EDGE_CURVE ( 'NONE', #68, #66, #29, .T. ) ;
#242 =( LENGTH_UNIT ( ) NAMED_UNIT ( * ) SI_UNIT ( $, .METRE. ) );
#243 = ORIENTED_EDGE ( 'NONE', *, *, #216, .T. ) ;
#244 = CONICAL_SURFACE ( 'NONE', #59, 0.02247750000000000095, 0.1745329251994339192 ) ;
#245 = CONICAL_SURFACE ( 'NONE', #188, 0.04750000000000064587, 0.7853981633974466137 ) ;
#246 = EDGE_CURVE ( 'NONE', #52, #187, #197, .T. ) ;
#247 = LINE ( 'NONE', #126, #123 ) ;
#248 = DIRECTION ( 'NONE',  ( -1.000000000000000000, 0.0000000000000000000, 1.224646799147353700E-16 ) ) ;
#249 = DIRECTION ( 'NONE',  ( 0.7071067811865462405, 8.659560562354916834E-17, -0.7071067811865486830 ) ) ;
#250 = CARTESIAN_POINT ( 'NONE',  ( 0.04750000000000064587, 6.735557395310483192E-18, 1.500000000000000222 ) ) ;
#251 = EDGE_CURVE ( 'NONE', #8, #138, #150, .T. ) ;
#252 = ORIENTED_EDGE ( 'NONE', *, *, #216, .F. ) ;
#253 = AXIS2_PLACEMENT_3D ( 'NONE', #254, #135, #156 ) ;
#254 = CARTESIAN_POINT ( 'NONE',  ( 0.0000000000000000000, 0.0000000000000000000, 1.500000000000000222 ) ) ;
#255 = CARTESIAN_POINT ( 'NONE',  ( -0.02247749999999999401, 2.752699842783463224E-18, 0.06800000000000000488 ) ) ;
#256 = ORIENTED_EDGE ( 'NONE', *, *, #246, .T. ) ;
#257 = CARTESIAN_POINT ( 'NONE',  ( 0.0000000000000000000, 0.0000000000000000000, 1.485000000000000764 ) ) ;
#258 = ORIENTED_EDGE ( 'NONE', *, *, #147, .T. ) ;
#259 = CARTESIAN_POINT ( 'NONE',  ( 0.02247750000000000095, 2.752699842783463224E-18, -2.752699842783464379E-18 ) ) ;
#260 = ADVANCED_FACE ( 'NONE', ( #113 ), #99, .T. ) ;
#261 = ORIENTED_EDGE ( 'NONE', *, *, #36, .T. ) ;
#262 =( NAMED_UNIT ( * ) SI_UNIT ( $, .STERADIAN. ) SOLID_ANGLE_UNIT ( ) );
#263 = PLANE ( 'NONE',  #177 ) ;
#264 = CARTESIAN_POINT ( 'NONE',  ( 8.327598234202006480E-18, 0.0000000000000000000, 0.06800000000000000488 ) ) ;
#265 = ORIENTED_EDGE ( 'NONE', *, *, #128, .T. ) ;
#266 = EDGE_CURVE ( 'NONE', #286, #8, #181, .T. ) ;
#267 = AXIS2_PLACEMENT_3D ( 'NONE', #229, #24, #227 ) ;
#268 = DIRECTION ( 'NONE',  ( -0.0000000000000000000, -0.0000000000000000000, -1.000000000000000000 ) ) ;
#269 = DIRECTION ( 'NONE',  ( -1.224646799147353700E-16, -0.0000000000000000000, -1.000000000000000000 ) ) ;
#270 = CARTESIAN_POINT ( 'NONE',  ( 3.612449370756826914E-17, 0.0000000000000000000, 0.2949788766256485895 ) ) ;
#271 = COLOUR_RGB ( '',0.7921568627450980005, 0.8196078431372548767, 0.9333333333333333481 ) ;
#272 = CARTESIAN_POINT ( 'NONE',  ( 0.0000000000000000000, 0.0000000000000000000, 1.485000000000000764 ) ) ;
#273 = CARTESIAN_POINT ( 'NONE',  ( 0.0000000000000000000, 0.0000000000000000000, 1.500000000000000222 ) ) ;
#274 = ORIENTED_EDGE ( 'NONE', *, *, #124, .F. ) ;
#275 = VECTOR ( 'NONE', #189, 39.37007874015748143 ) ;
#276 = CLOSED_SHELL ( 'NONE', ( #108, #260, #103, #221, #171, #45, #207, #83, #162, #212 ) ) ;
#277 = CARTESIAN_POINT ( 'NONE',  ( 3.371085051478193277E-34, 0.0000000000000000000, 2.752699842783464379E-18 ) ) ;
#278 = DIRECTION ( 'NONE',  ( 1.000000000000000000, 0.0000000000000000000, 0.0000000000000000000 ) ) ;
#279 = ORIENTED_EDGE ( 'NONE', *, *, #251, .T. ) ;
#280 = DIRECTION ( 'NONE',  ( 0.0000000000000000000, 0.0000000000000000000, -1.000000000000000000 ) ) ;
#281 = ORIENTED_EDGE ( 'NONE', *, *, #282, .F. ) ;
#282 = EDGE_CURVE ( 'NONE', #187, #52, #132, .T. ) ;
#283 = EDGE_LOOP ( 'NONE', ( #243, #57 ) ) ;
#284 = PRESENTATION_STYLE_ASSIGNMENT (( #190 ) ) ;
#285 = DIRECTION ( 'NONE',  ( 1.000000000000000000, 0.0000000000000000000, 0.0000000000000000000 ) ) ;
#286 = VERTEX_POINT ( 'NONE', #183 ) ;
#287 = FILL_AREA_STYLE ('',( #211 ) ) ;
#288 = CARTESIAN_POINT ( 'NONE',  ( -0.06250000000000002776, 0.0000000000000000000, 1.500000000000000222 ) ) ;
#289 = DIRECTION ( 'NONE',  ( -1.224646799147353700E-16, -0.0000000000000000000, -1.000000000000000000 ) ) ;
#290 = EDGE_CURVE ( 'NONE', #138, #8, #173, .T. ) ;
#291 = MECHANICAL_DESIGN_GEOMETRIC_PRESENTATION_REPRESENTATION (  '', ( #118 ), #98 ) ;
#292 = VECTOR ( 'NONE', #86, 39.37007874015748143 ) ;
#293 = DIRECTION ( 'NONE',  ( -1.000000000000000000, 0.0000000000000000000, 0.0000000000000000000 ) ) ;
#294 = CARTESIAN_POINT ( 'NONE',  ( 0.0000000000000000000, 0.0000000000000000000, 0.0000000000000000000 ) ) ;
#295 = PRODUCT ( 'Micro_SME-045-2X', 'Micro_SME-045-2X', '', ( #210 ) ) ;
#296 = EDGE_CURVE ( 'NONE', #185, #286, #110, .T. ) ;
#297 = DIRECTION ( 'NONE',  ( -1.000000000000000000, 0.0000000000000000000, 0.0000000000000000000 ) ) ;
#298 = AXIS2_PLACEMENT_3D ( 'NONE', #257, #4, #88 ) ;
#299 = ORIENTED_EDGE ( 'NONE', *, *, #222, .F. ) ;
ENDSEC;
END-ISO-10303-21;
