ISO-10303-21;
HEADER;
FILE_DESCRIPTION (( 'STEP AP214' ),
    '1' );
FILE_NAME ('81322.STEP',
    '2023-06-30T22:23:59',
    ( '' ),
    ( '' ),
    'SwSTEP 2.0',
    'SolidWorks 2023',
    '' );
FILE_SCHEMA (( 'AUTOMOTIVE_DESIGN' ));
ENDSEC;

DATA;
#1 = AXIS2_PLACEMENT_3D ( 'NONE', #156, #92, #270 ) ;
#2 = VECTOR ( 'NONE', #215, 39.37007874015748143 ) ;
#3 = ORIENTED_EDGE ( 'NONE', *, *, #66, .F. ) ;
#4 = PLANE ( 'NONE',  #362 ) ;
#5 = EDGE_LOOP ( 'NONE', ( #140, #281 ) ) ;
#6 = ORIENTED_EDGE ( 'NONE', *, *, #130, .F. ) ;
#7 = VECTOR ( 'NONE', #313, 39.37007874015748143 ) ;
#8 =( NAMED_UNIT ( * ) SI_UNIT ( $, .STERADIAN. ) SOLID_ANGLE_UNIT ( ) );
#9 = ADVANCED_FACE ( 'NONE', ( #110 ), #171, .T. ) ;
#10 = DIRECTION ( 'NONE',  ( -0.000000000000000000, -1.000000000000000000, -0.000000000000000000 ) ) ;
#11 = PRODUCT_DEFINITION_CONTEXT ( 'detailed design', #77, 'design' ) ;
#12 = DIRECTION ( 'NONE',  ( -0.000000000000000000, -1.000000000000000000, -0.000000000000000000 ) ) ;
#13 = MECHANICAL_DESIGN_GEOMETRIC_PRESENTATION_REPRESENTATION (  '', ( #290 ), #320 ) ;
#14 = MANIFOLD_SOLID_BREP ( 'Revolve - Tool Body (Straight Shanked)', #31 ) ;
#15 =( NAMED_UNIT ( * ) SI_UNIT ( $, .STERADIAN. ) SOLID_ANGLE_UNIT ( ) );
#16 = DIRECTION ( 'NONE',  ( 0.000000000000000000, 0.000000000000000000, -1.000000000000000000 ) ) ;
#17 = EDGE_LOOP ( 'NONE', ( #305, #234 ) ) ;
#18 = DIRECTION ( 'NONE',  ( -1.000000000000000000, 0.000000000000000000, 0.000000000000000000 ) ) ;
#19 = FILL_AREA_STYLE_COLOUR ( '', #188 ) ;
#20 = ORIENTED_EDGE ( 'NONE', *, *, #241, .T. ) ;
#21 = CIRCLE ( 'NONE', #232, 0.1249999999999999861 ) ;
#22 = CARTESIAN_POINT ( 'NONE',  ( 1.530808498934190893E-17, 0.000000000000000000, 0.1249999999999999306 ) ) ;
#23 =( NAMED_UNIT ( * ) SI_UNIT ( $, .STERADIAN. ) SOLID_ANGLE_UNIT ( ) );
#24 = VERTEX_POINT ( 'NONE', #127 ) ;
#25 = DIMENSIONAL_EXPONENTS ( 1.000000000000000000, 0.000000000000000000, 0.000000000000000000, 0.000000000000000000, 0.000000000000000000, 0.000000000000000000, 0.000000000000000000 ) ;
#26 = MECHANICAL_DESIGN_GEOMETRIC_PRESENTATION_REPRESENTATION (  '', ( #297 ), #259 ) ;
#27 = ORIENTED_EDGE ( 'NONE', *, *, #76, .T. ) ;
#28 = EDGE_LOOP ( 'NONE', ( #148, #327 ) ) ;
#29 = ORIENTED_EDGE ( 'NONE', *, *, #337, .F. ) ;
#30 = CARTESIAN_POINT ( 'NONE',  ( 0.1249999999999998751, 3.000000000000000444, 0.000000000000000000 ) ) ;
#31 = CLOSED_SHELL ( 'NONE', ( #33, #254, #229, #272 ) ) ;
#32 = FILL_AREA_STYLE ('',( #347 ) ) ;
#33 = ADVANCED_FACE ( 'NONE', ( #231 ), #67, .T. ) ;
#34 = DIRECTION ( 'NONE',  ( -1.228329711887258194E-16, 1.000000000000000000, -0.000000000000000000 ) ) ;
#35 = PRODUCT_RELATED_PRODUCT_CATEGORY ( 'part', '', ( #44 ) ) ;
#36 = SURFACE_SIDE_STYLE ('',( #354 ) ) ;
#37 = SURFACE_STYLE_USAGE ( .BOTH. , #70 ) ;
#38 = MECHANICAL_DESIGN_GEOMETRIC_PRESENTATION_REPRESENTATION (  '', ( #78 ), #120 ) ;
#39 = EDGE_CURVE ( 'NONE', #24, #372, #56, .T. ) ;
#40 = SURFACE_STYLE_FILL_AREA ( #316 ) ;
#41 = PRESENTATION_STYLE_ASSIGNMENT (( #37 ) ) ;
#42 = AXIS2_PLACEMENT_3D ( 'NONE', #99, #243, #240 ) ;
#43 = APPLICATION_PROTOCOL_DEFINITION ( 'draft international standard', 'automotive_design', 1998, #77 ) ;
#44 = PRODUCT ( '81322', '81322', '', ( #50 ) ) ;
#45 = VERTEX_POINT ( 'NONE', #294 ) ;
#46 =( NAMED_UNIT ( * ) SI_UNIT ( $, .STERADIAN. ) SOLID_ANGLE_UNIT ( ) );
#47 = DIRECTION ( 'NONE',  ( 1.000000000000000000, 0.000000000000000000, 0.000000000000000000 ) ) ;
#48 = DIRECTION ( 'NONE',  ( 1.000000000000000000, 0.000000000000000000, 0.000000000000000000 ) ) ;
#49 = ORIENTED_EDGE ( 'NONE', *, *, #82, .T. ) ;
#50 = PRODUCT_CONTEXT ( 'NONE', #186, 'mechanical' ) ;
#51 = DIRECTION ( 'NONE',  ( 0.000000000000000000, 0.000000000000000000, -1.000000000000000000 ) ) ;
#52 =( GEOMETRIC_REPRESENTATION_CONTEXT ( 3 ) GLOBAL_UNCERTAINTY_ASSIGNED_CONTEXT ( ( #296 ) ) GLOBAL_UNIT_ASSIGNED_CONTEXT ( ( #185, #264, #15 ) ) REPRESENTATION_CONTEXT ( 'NONE', 'WORKASPACE' ) );
#53 =( NAMED_UNIT ( * ) SI_UNIT ( $, .STERADIAN. ) SOLID_ANGLE_UNIT ( ) );
#54 = SURFACE_STYLE_FILL_AREA ( #114 ) ;
#55 = ORIENTED_EDGE ( 'NONE', *, *, #39, .F. ) ;
#56 = CIRCLE ( 'NONE', #198, 0.1249999999999999445 ) ;
#57 = COLOUR_RGB ( '',1.000000000000000000, 0.000000000000000000, 0.000000000000000000 ) ;
#58 = ORIENTED_EDGE ( 'NONE', *, *, #369, .F. ) ;
#59 = EDGE_LOOP ( 'NONE', ( #237, #262, #58, #221 ) ) ;
#60 = CARTESIAN_POINT ( 'NONE',  ( 0.1249999999999997641, 3.000000000000000444, 1.530808498934189352E-17 ) ) ;
#61 = AXIS2_PLACEMENT_3D ( 'NONE', #109, #228, #86 ) ;
#62 = EDGE_LOOP ( 'NONE', ( #201, #311, #106, #55 ) ) ;
#63 = FILL_AREA_STYLE_COLOUR ( '', #57 ) ;
#64 = CARTESIAN_POINT ( 'NONE',  ( 0.1249999999999999861, 0.1250000000000000000, 0.000000000000000000 ) ) ;
#65 = UNCERTAINTY_MEASURE_WITH_UNIT (LENGTH_MEASURE( 1.000000000000000082E-05 ), #217, 'distance_accuracy_value', 'NONE');
#66 = EDGE_CURVE ( 'NONE', #195, #102, #226, .T. ) ;
#67 = CYLINDRICAL_SURFACE ( 'NONE', #360, 0.1249999999999998335 ) ;
#68 = AXIS2_PLACEMENT_3D ( 'NONE', #184, #71, #236 ) ;
#69 = CARTESIAN_POINT ( 'NONE',  ( 0.000000000000000000, 0.000000000000000000, -0.1249999999999999306 ) ) ;
#70 = SURFACE_SIDE_STYLE ('',( #152 ) ) ;
#71 = DIRECTION ( 'NONE',  ( -0.000000000000000000, -1.000000000000000000, -0.000000000000000000 ) ) ;
#72 = SURFACE_STYLE_USAGE ( .BOTH. , #36 ) ;
#73 =( NAMED_UNIT ( * ) PLANE_ANGLE_UNIT ( ) SI_UNIT ( $, .RADIAN. ) );
#74 = CIRCLE ( 'NONE', #199, 0.1249999999999999861 ) ;
#75 = SURFACE_STYLE_USAGE ( .BOTH. , #163 ) ;
#76 = EDGE_CURVE ( 'NONE', #283, #146, #227, .T. ) ;
#77 = APPLICATION_CONTEXT ( 'automotive_design' ) ;
#78 = STYLED_ITEM ( 'NONE', ( #79 ), #141 ) ;
#79 = PRESENTATION_STYLE_ASSIGNMENT (( #75 ) ) ;
#80 = DIMENSIONAL_EXPONENTS ( 1.000000000000000000, 0.000000000000000000, 0.000000000000000000, 0.000000000000000000, 0.000000000000000000, 0.000000000000000000, 0.000000000000000000 ) ;
#81 = PLANE ( 'NONE',  #274 ) ;
#82 = EDGE_CURVE ( 'NONE', #223, #330, #220, .T. ) ;
#83 = PLANE ( 'NONE',  #103 ) ;
#84 = MECHANICAL_DESIGN_GEOMETRIC_PRESENTATION_REPRESENTATION (  '', ( #177 ), #168 ) ;
#85 = PRESENTATION_LAYER_ASSIGNMENT (  '', '', ( #238 ) ) ;
#86 = DIRECTION ( 'NONE',  ( -1.000000000000000000, 0.000000000000000000, 0.000000000000000000 ) ) ;
#87 = ORIENTED_EDGE ( 'NONE', *, *, #149, .F. ) ;
#88 = SURFACE_SIDE_STYLE ('',( #235 ) ) ;
#89 = ORIENTED_EDGE ( 'NONE', *, *, #312, .T. ) ;
#90 = CARTESIAN_POINT ( 'NONE',  ( 0.000000000000000000, 0.1250000000000000000, 0.000000000000000000 ) ) ;
#91 = VECTOR ( 'NONE', #247, 39.37007874015748143 ) ;
#92 = DIRECTION ( 'NONE',  ( 1.224646799147353207E-16, -0.000000000000000000, 1.000000000000000000 ) ) ;
#93 = DIRECTION ( 'NONE',  ( -1.000000000000000000, 0.000000000000000000, 0.000000000000000000 ) ) ;
#94 = FILL_AREA_STYLE_COLOUR ( '', #216 ) ;
#95 = DIRECTION ( 'NONE',  ( -1.228329711887258194E-16, 1.000000000000000000, -0.000000000000000000 ) ) ;
#96 =( NAMED_UNIT ( * ) PLANE_ANGLE_UNIT ( ) SI_UNIT ( $, .RADIAN. ) );
#97 = FACE_OUTER_BOUND ( 'NONE', #174, .T. ) ;
#98 = DIRECTION ( 'NONE',  ( 0.000000000000000000, 1.000000000000000000, 0.000000000000000000 ) ) ;
#99 = CARTESIAN_POINT ( 'NONE',  ( 1.844336024200839662E-16, 1.000000000000000000, 0.000000000000000000 ) ) ;
#100 = PRODUCT_DEFINITION ( 'UNKNOWN', '', #194, #11 ) ;
#101 = FILL_AREA_STYLE_COLOUR ( '', #244 ) ;
#102 = VERTEX_POINT ( 'NONE', #121 ) ;
#103 = AXIS2_PLACEMENT_3D ( 'NONE', #282, #338, #230 ) ;
#104 = LENGTH_MEASURE_WITH_UNIT ( LENGTH_MEASURE( 0.02539999999999999897 ), #273 );
#105 = DIRECTION ( 'NONE',  ( 0.000000000000000000, 0.000000000000000000, 1.000000000000000000 ) ) ;
#106 = ORIENTED_EDGE ( 'NONE', *, *, #351, .T. ) ;
#107 = AXIS2_PLACEMENT_3D ( 'NONE', #319, #12, #321 ) ;
#108 = DIRECTION ( 'NONE',  ( -0.000000000000000000, -1.000000000000000000, -0.000000000000000000 ) ) ;
#109 = CARTESIAN_POINT ( 'NONE',  ( 1.844336024200839662E-16, 1.000000000000000000, 0.000000000000000000 ) ) ;
#110 = FACE_OUTER_BOUND ( 'NONE', #368, .T. ) ;
#111 = DIRECTION ( 'NONE',  ( 1.228329711887258194E-16, -1.000000000000000000, 0.000000000000000000 ) ) ;
#112 = AXIS2_PLACEMENT_3D ( 'NONE', #280, #176, #256 ) ;
#113 = AXIS2_PLACEMENT_3D ( 'NONE', #147, #352, #318 ) ;
#114 = FILL_AREA_STYLE ('',( #307 ) ) ;
#115 = ORIENTED_EDGE ( 'NONE', *, *, #351, .F. ) ;
#116 = DIRECTION ( 'NONE',  ( 0.000000000000000000, 0.000000000000000000, -1.000000000000000000 ) ) ;
#117 = ORIENTED_EDGE ( 'NONE', *, *, #130, .T. ) ;
#118 =( NAMED_UNIT ( * ) PLANE_ANGLE_UNIT ( ) SI_UNIT ( $, .RADIAN. ) );
#119 = UNCERTAINTY_MEASURE_WITH_UNIT (LENGTH_MEASURE( 1.000000000000000082E-05 ), #366, 'distance_accuracy_value', 'NONE');
#120 =( GEOMETRIC_REPRESENTATION_CONTEXT ( 3 ) GLOBAL_UNCERTAINTY_ASSIGNED_CONTEXT ( ( #158 ) ) GLOBAL_UNIT_ASSIGNED_CONTEXT ( ( #306, #73, #53 ) ) REPRESENTATION_CONTEXT ( 'NONE', 'WORKASPACE' ) );
#121 = CARTESIAN_POINT ( 'NONE',  ( -7.654042494670957545E-18, 0.000000000000000000, 0.000000000000000000 ) ) ;
#122 = ADVANCED_FACE ( 'NONE', ( #97 ), #359, .T. ) ;
#123 = LENGTH_MEASURE_WITH_UNIT ( LENGTH_MEASURE( 0.02539999999999999897 ), #181 );
#124 = LINE ( 'NONE', #69, #248 ) ;
#125 = LINE ( 'NONE', #22, #91 ) ;
#126 = AXIS2_PLACEMENT_3D ( 'NONE', #218, #105, #48 ) ;
#127 = CARTESIAN_POINT ( 'NONE',  ( 0.1249999999999998751, 3.000000000000000444, 1.530808498934190276E-17 ) ) ;
#128 = DIRECTION ( 'NONE',  ( -0.000000000000000000, -1.000000000000000000, -0.000000000000000000 ) ) ;
#129 =( LENGTH_UNIT ( ) NAMED_UNIT ( * ) SI_UNIT ( $, .METRE. ) );
#130 = EDGE_CURVE ( 'NONE', #258, #336, #125, .T. ) ;
#131 = CARTESIAN_POINT ( 'NONE',  ( 0.000000000000000000, 0.000000000000000000, 0.000000000000000000 ) ) ;
#132 = SHAPE_DEFINITION_REPRESENTATION ( #358, #345 ) ;
#133 = DIMENSIONAL_EXPONENTS ( 1.000000000000000000, 0.000000000000000000, 0.000000000000000000, 0.000000000000000000, 0.000000000000000000, 0.000000000000000000, 0.000000000000000000 ) ;
#134 = FACE_OUTER_BOUND ( 'NONE', #59, .T. ) ;
#135 = ORIENTED_EDGE ( 'NONE', *, *, #82, .F. ) ;
#136 = MANIFOLD_SOLID_BREP ( 'Revolve - Cutting Edge', #295 ) ;
#137 = PRESENTATION_STYLE_ASSIGNMENT (( #203 ) ) ;
#138 = DIMENSIONAL_EXPONENTS ( 1.000000000000000000, 0.000000000000000000, 0.000000000000000000, 0.000000000000000000, 0.000000000000000000, 0.000000000000000000, 0.000000000000000000 ) ;
#139 = DIRECTION ( 'NONE',  ( -1.228329711887258194E-16, 1.000000000000000000, -0.000000000000000000 ) ) ;
#140 = ORIENTED_EDGE ( 'NONE', *, *, #219, .T. ) ;
#141 = ADVANCED_FACE ( 'NONE', ( #134 ), #299, .T. ) ;
#142 = CARTESIAN_POINT ( 'NONE',  ( -0.1250000000000000000, 0.1250000000000000000, 1.530808498934191201E-17 ) ) ;
#143 = ORIENTED_EDGE ( 'NONE', *, *, #190, .T. ) ;
#144 = STYLED_ITEM ( 'NONE', ( #242 ), #361 ) ;
#145 = CARTESIAN_POINT ( 'NONE',  ( 0.000000000000000000, 1.000000000000000000, 0.000000000000000000 ) ) ;
#146 = VERTEX_POINT ( 'NONE', #225 ) ;
#147 = CARTESIAN_POINT ( 'NONE',  ( 0.000000000000000000, 1.000000000000000000, 0.000000000000000000 ) ) ;
#148 = ORIENTED_EDGE ( 'NONE', *, *, #342, .F. ) ;
#149 = EDGE_CURVE ( 'NONE', #336, #195, #74, .T. ) ;
#150 = COLOUR_RGB ( '',1.000000000000000000, 0.000000000000000000, 0.000000000000000000 ) ;
#151 = AXIS2_PLACEMENT_3D ( 'NONE', #145, #108, #172 ) ;
#152 = SURFACE_STYLE_FILL_AREA ( #245 ) ;
#153 = CARTESIAN_POINT ( 'NONE',  ( -0.1249999999999999029, 3.000000000000000444, 0.000000000000000000 ) ) ;
#154 = FACE_OUTER_BOUND ( 'NONE', #332, .T. ) ;
#155 = UNCERTAINTY_MEASURE_WITH_UNIT (LENGTH_MEASURE( 1.000000000000000082E-05 ), #263, 'distance_accuracy_value', 'NONE');
#156 = CARTESIAN_POINT ( 'NONE',  ( -1.530808498934191509E-17, 0.1250000000000000000, 0.000000000000000000 ) ) ;
#157 = CIRCLE ( 'NONE', #68, 0.1249999999999999861 ) ;
#158 = UNCERTAINTY_MEASURE_WITH_UNIT (LENGTH_MEASURE( 1.000000000000000082E-05 ), #306, 'distance_accuracy_value', 'NONE');
#159 = FILL_AREA_STYLE ('',( #101 ) ) ;
#160 =( CONVERSION_BASED_UNIT ( 'INCH', #104 ) LENGTH_UNIT ( ) NAMED_UNIT ( #341 ) );
#161 = SURFACE_STYLE_FILL_AREA ( #159 ) ;
#162 = ORIENTED_EDGE ( 'NONE', *, *, #325, .F. ) ;
#163 = SURFACE_SIDE_STYLE ('',( #224 ) ) ;
#164 = CIRCLE ( 'NONE', #326, 0.1249999999999999445 ) ;
#165 = PRESENTATION_STYLE_ASSIGNMENT (( #275 ) ) ;
#166 = SURFACE_SIDE_STYLE ('',( #54 ) ) ;
#167 = ORIENTED_EDGE ( 'NONE', *, *, #369, .T. ) ;
#168 =( GEOMETRIC_REPRESENTATION_CONTEXT ( 3 ) GLOBAL_UNCERTAINTY_ASSIGNED_CONTEXT ( ( #292 ) ) GLOBAL_UNIT_ASSIGNED_CONTEXT ( ( #286, #308, #340 ) ) REPRESENTATION_CONTEXT ( 'NONE', 'WORKASPACE' ) );
#169 = AXIS2_PLACEMENT_3D ( 'NONE', #331, #191, #47 ) ;
#170 = CIRCLE ( 'NONE', #298, 0.1250000000000000000 ) ;
#171 = CYLINDRICAL_SURFACE ( 'NONE', #112, 0.1249999999999999306 ) ;
#172 = DIRECTION ( 'NONE',  ( 0.000000000000000000, 0.000000000000000000, -1.000000000000000000 ) ) ;
#173 = DIMENSIONAL_EXPONENTS ( 1.000000000000000000, 0.000000000000000000, 0.000000000000000000, 0.000000000000000000, 0.000000000000000000, 0.000000000000000000, 0.000000000000000000 ) ;
#174 = EDGE_LOOP ( 'NONE', ( #3, #278, #49, #167 ) ) ;
#175 = CYLINDRICAL_SURFACE ( 'NONE', #310, 0.1249999999999998335 ) ;
#176 = DIRECTION ( 'NONE',  ( -0.000000000000000000, -1.000000000000000000, -0.000000000000000000 ) ) ;
#177 = STYLED_ITEM ( 'NONE', ( #137 ), #9 ) ;
#178 = COLOUR_RGB ( '',1.000000000000000000, 0.000000000000000000, 0.000000000000000000 ) ;
#179 = LENGTH_MEASURE_WITH_UNIT ( LENGTH_MEASURE( 0.02539999999999999897 ), #205 );
#180 =( LENGTH_UNIT ( ) NAMED_UNIT ( * ) SI_UNIT ( $, .METRE. ) );
#181 =( LENGTH_UNIT ( ) NAMED_UNIT ( * ) SI_UNIT ( $, .METRE. ) );
#182 = PRESENTATION_LAYER_ASSIGNMENT (  '', '', ( #290 ) ) ;
#183 = LENGTH_MEASURE_WITH_UNIT ( LENGTH_MEASURE( 0.02539999999999999897 ), #180 );
#184 = CARTESIAN_POINT ( 'NONE',  ( 0.000000000000000000, 0.1250000000000000000, 0.000000000000000000 ) ) ;
#185 =( CONVERSION_BASED_UNIT ( 'INCH', #123 ) LENGTH_UNIT ( ) NAMED_UNIT ( #80 ) );
#186 = APPLICATION_CONTEXT ( 'automotive_design' ) ;
#187 = COLOUR_RGB ( '',0.7921568627450980005, 0.8196078431372548767, 0.9333333333333333481 ) ;
#188 = COLOUR_RGB ( '',1.000000000000000000, 0.000000000000000000, 0.000000000000000000 ) ;
#189 = MECHANICAL_DESIGN_GEOMETRIC_PRESENTATION_REPRESENTATION (  '', ( #144 ), #208 ) ;
#190 = EDGE_CURVE ( 'NONE', #146, #24, #346, .T. ) ;
#191 = DIRECTION ( 'NONE',  ( 0.000000000000000000, 0.000000000000000000, 1.000000000000000000 ) ) ;
#192 = STYLED_ITEM ( 'NONE', ( #211 ), #14 ) ;
#193 = PRESENTATION_LAYER_ASSIGNMENT (  '', '', ( #144 ) ) ;
#194 = PRODUCT_DEFINITION_FORMATION_WITH_SPECIFIED_SOURCE ( 'ANY', '', #44, .NOT_KNOWN. ) ;
#195 = VERTEX_POINT ( 'NONE', #142 ) ;
#196 = DIRECTION ( 'NONE',  ( 1.000000000000000000, 1.228329711887258194E-16, 0.000000000000000000 ) ) ;
#197 = ORIENTED_EDGE ( 'NONE', *, *, #312, .F. ) ;
#198 = AXIS2_PLACEMENT_3D ( 'NONE', #268, #95, #214 ) ;
#199 = AXIS2_PLACEMENT_3D ( 'NONE', #300, #303, #51 ) ;
#200 =( GEOMETRIC_REPRESENTATION_CONTEXT ( 3 ) GLOBAL_UNCERTAINTY_ASSIGNED_CONTEXT ( ( #364 ) ) GLOBAL_UNIT_ASSIGNED_CONTEXT ( ( #160, #323, #46 ) ) REPRESENTATION_CONTEXT ( 'NONE', 'WORKASPACE' ) );
#201 = ORIENTED_EDGE ( 'NONE', *, *, #190, .F. ) ;
#202 = FACE_OUTER_BOUND ( 'NONE', #62, .T. ) ;
#203 = SURFACE_STYLE_USAGE ( .BOTH. , #88 ) ;
#204 = DIRECTION ( 'NONE',  ( -1.000000000000000000, 0.000000000000000000, 0.000000000000000000 ) ) ;
#205 =( LENGTH_UNIT ( ) NAMED_UNIT ( * ) SI_UNIT ( $, .METRE. ) );
#206 = PRESENTATION_LAYER_ASSIGNMENT (  '', '', ( #177 ) ) ;
#207 = PRESENTATION_LAYER_ASSIGNMENT (  '', '', ( #78 ) ) ;
#208 =( GEOMETRIC_REPRESENTATION_CONTEXT ( 3 ) GLOBAL_UNCERTAINTY_ASSIGNED_CONTEXT ( ( #155 ) ) GLOBAL_UNIT_ASSIGNED_CONTEXT ( ( #263, #118, #239 ) ) REPRESENTATION_CONTEXT ( 'NONE', 'WORKASPACE' ) );
#209 =( NAMED_UNIT ( * ) PLANE_ANGLE_UNIT ( ) SI_UNIT ( $, .RADIAN. ) );
#210 = DIRECTION ( 'NONE',  ( -0.000000000000000000, -1.000000000000000000, -0.000000000000000000 ) ) ;
#211 = PRESENTATION_STYLE_ASSIGNMENT (( #72 ) ) ;
#212 = SURFACE_SIDE_STYLE ('',( #40 ) ) ;
#213 = EDGE_CURVE ( 'NONE', #146, #283, #284, .T. ) ;
#214 = DIRECTION ( 'NONE',  ( -1.000000000000000000, 0.000000000000000000, 0.000000000000000000 ) ) ;
#215 = DIRECTION ( 'NONE',  ( -1.228329711887258194E-16, 1.000000000000000000, -0.000000000000000000 ) ) ;
#216 = COLOUR_RGB ( '',1.000000000000000000, 0.000000000000000000, 0.000000000000000000 ) ;
#217 =( CONVERSION_BASED_UNIT ( 'INCH', #183 ) LENGTH_UNIT ( ) NAMED_UNIT ( #173 ) );
#218 = CARTESIAN_POINT ( 'NONE',  ( -1.530808498934191509E-17, 0.1250000000000000000, 0.000000000000000000 ) ) ;
#219 = EDGE_CURVE ( 'NONE', #372, #24, #164, .T. ) ;
#220 = CIRCLE ( 'NONE', #107, 0.1249999999999999861 ) ;
#221 = ORIENTED_EDGE ( 'NONE', *, *, #337, .T. ) ;
#222 = AXIS2_PLACEMENT_3D ( 'NONE', #328, #249, #301 ) ;
#223 = VERTEX_POINT ( 'NONE', #285 ) ;
#224 = SURFACE_STYLE_FILL_AREA ( #324 ) ;
#225 = CARTESIAN_POINT ( 'NONE',  ( 0.1249999999999998751, 1.000000000000000000, 1.530808498934190276E-17 ) ) ;
#226 = CIRCLE ( 'NONE', #1, 0.1250000000000000000 ) ;
#227 = CIRCLE ( 'NONE', #42, 0.1249999999999997086 ) ;
#228 = DIRECTION ( 'NONE',  ( -1.228329711887258194E-16, 1.000000000000000000, -0.000000000000000000 ) ) ;
#229 = ADVANCED_FACE ( 'NONE', ( #202 ), #175, .T. ) ;
#230 = DIRECTION ( 'NONE',  ( -1.000000000000000000, -1.228329711887258194E-16, 0.000000000000000000 ) ) ;
#231 = FACE_OUTER_BOUND ( 'NONE', #350, .T. ) ;
#232 = AXIS2_PLACEMENT_3D ( 'NONE', #90, #210, #116 ) ;
#233 = PRESENTATION_STYLE_ASSIGNMENT (( #343 ) ) ;
#234 = ORIENTED_EDGE ( 'NONE', *, *, #213, .F. ) ;
#235 = SURFACE_STYLE_FILL_AREA ( #32 ) ;
#236 = DIRECTION ( 'NONE',  ( 0.000000000000000000, 0.000000000000000000, -1.000000000000000000 ) ) ;
#237 = ORIENTED_EDGE ( 'NONE', *, *, #149, .T. ) ;
#238 = STYLED_ITEM ( 'NONE', ( #41 ), #122 ) ;
#239 =( NAMED_UNIT ( * ) SI_UNIT ( $, .STERADIAN. ) SOLID_ANGLE_UNIT ( ) );
#240 = DIRECTION ( 'NONE',  ( -1.000000000000000000, 0.000000000000000000, 0.000000000000000000 ) ) ;
#241 = EDGE_CURVE ( 'NONE', #258, #45, #335, .T. ) ;
#242 = PRESENTATION_STYLE_ASSIGNMENT (( #287 ) ) ;
#243 = DIRECTION ( 'NONE',  ( -1.228329711887258194E-16, 1.000000000000000000, -0.000000000000000000 ) ) ;
#244 = COLOUR_RGB ( '',0.7921568627450980005, 0.8196078431372548767, 0.9333333333333333481 ) ;
#245 = FILL_AREA_STYLE ('',( #63 ) ) ;
#246 = CARTESIAN_POINT ( 'NONE',  ( -6.123233995736772199E-17, 3.000000000000000444, 0.000000000000000000 ) ) ;
#247 = DIRECTION ( 'NONE',  ( -0.000000000000000000, -1.000000000000000000, -0.000000000000000000 ) ) ;
#248 = VECTOR ( 'NONE', #10, 39.37007874015748143 ) ;
#249 = DIRECTION ( 'NONE',  ( 0.000000000000000000, 0.000000000000000000, 1.000000000000000000 ) ) ;
#250 = FACE_OUTER_BOUND ( 'NONE', #17, .T. ) ;
#251 = PRESENTATION_LAYER_ASSIGNMENT (  '', '', ( #192 ) ) ;
#252 = DIMENSIONAL_EXPONENTS ( 1.000000000000000000, 0.000000000000000000, 0.000000000000000000, 0.000000000000000000, 0.000000000000000000, 0.000000000000000000, 0.000000000000000000 ) ;
#253 =( LENGTH_UNIT ( ) NAMED_UNIT ( * ) SI_UNIT ( $, .METRE. ) );
#254 = ADVANCED_FACE ( 'NONE', ( #250 ), #83, .F. ) ;
#255 = CARTESIAN_POINT ( 'NONE',  ( 1.530808498934190585E-17, 1.000000000000000000, 0.1249999999999998751 ) ) ;
#256 = DIRECTION ( 'NONE',  ( 0.000000000000000000, 0.000000000000000000, -1.000000000000000000 ) ) ;
#257 = CARTESIAN_POINT ( 'NONE',  ( -6.123233995736772199E-17, 3.000000000000000444, 0.000000000000000000 ) ) ;
#258 = VERTEX_POINT ( 'NONE', #255 ) ;
#259 =( GEOMETRIC_REPRESENTATION_CONTEXT ( 3 ) GLOBAL_UNCERTAINTY_ASSIGNED_CONTEXT ( ( #119 ) ) GLOBAL_UNIT_ASSIGNED_CONTEXT ( ( #366, #357, #23 ) ) REPRESENTATION_CONTEXT ( 'NONE', 'WORKASPACE' ) );
#260 = FACE_OUTER_BOUND ( 'NONE', #28, .T. ) ;
#261 = LINE ( 'NONE', #153, #2 ) ;
#262 = ORIENTED_EDGE ( 'NONE', *, *, #66, .T. ) ;
#263 =( CONVERSION_BASED_UNIT ( 'INCH', #291 ) LENGTH_UNIT ( ) NAMED_UNIT ( #138 ) );
#264 =( NAMED_UNIT ( * ) PLANE_ANGLE_UNIT ( ) SI_UNIT ( $, .RADIAN. ) );
#265 = MECHANICAL_DESIGN_GEOMETRIC_PRESENTATION_REPRESENTATION (  '', ( #238 ), #279 ) ;
#266 = DIRECTION ( 'NONE',  ( 0.000000000000000000, -0.000000000000000000, 1.000000000000000000 ) ) ;
#267 =( NAMED_UNIT ( * ) SI_UNIT ( $, .STERADIAN. ) SOLID_ANGLE_UNIT ( ) );
#268 = CARTESIAN_POINT ( 'NONE',  ( -6.123233995736772199E-17, 3.000000000000000444, 0.000000000000000000 ) ) ;
#269 =( LENGTH_UNIT ( ) NAMED_UNIT ( * ) SI_UNIT ( $, .METRE. ) );
#270 = DIRECTION ( 'NONE',  ( 1.000000000000000000, 0.000000000000000000, -1.224646799147353207E-16 ) ) ;
#271 = DIRECTION ( 'NONE',  ( 0.000000000000000000, 0.000000000000000000, -1.000000000000000000 ) ) ;
#272 = ADVANCED_FACE ( 'NONE', ( #370 ), #81, .F. ) ;
#273 =( LENGTH_UNIT ( ) NAMED_UNIT ( * ) SI_UNIT ( $, .METRE. ) );
#274 = AXIS2_PLACEMENT_3D ( 'NONE', #30, #111, #196 ) ;
#275 = SURFACE_STYLE_USAGE ( .BOTH. , #334 ) ;
#276 =( LENGTH_UNIT ( ) NAMED_UNIT ( * ) SI_UNIT ( $, .METRE. ) );
#277 = CARTESIAN_POINT ( 'NONE',  ( -6.123233995736772199E-17, 3.000000000000000444, 0.000000000000000000 ) ) ;
#278 = ORIENTED_EDGE ( 'NONE', *, *, #325, .T. ) ;
#279 =( GEOMETRIC_REPRESENTATION_CONTEXT ( 3 ) GLOBAL_UNCERTAINTY_ASSIGNED_CONTEXT ( ( #65 ) ) GLOBAL_UNIT_ASSIGNED_CONTEXT ( ( #217, #209, #8 ) ) REPRESENTATION_CONTEXT ( 'NONE', 'WORKASPACE' ) );
#280 = CARTESIAN_POINT ( 'NONE',  ( 0.000000000000000000, 0.000000000000000000, 0.000000000000000000 ) ) ;
#281 = ORIENTED_EDGE ( 'NONE', *, *, #39, .T. ) ;
#282 = CARTESIAN_POINT ( 'NONE',  ( 1.844336024200838922E-16, 1.000000000000000000, 0.000000000000000000 ) ) ;
#283 = VERTEX_POINT ( 'NONE', #348 ) ;
#284 = CIRCLE ( 'NONE', #61, 0.1249999999999997086 ) ;
#285 = CARTESIAN_POINT ( 'NONE',  ( 0.000000000000000000, 0.1250000000000000000, -0.1249999999999999861 ) ) ;
#286 =( CONVERSION_BASED_UNIT ( 'INCH', #179 ) LENGTH_UNIT ( ) NAMED_UNIT ( #371 ) );
#287 = SURFACE_STYLE_USAGE ( .BOTH. , #212 ) ;
#288 = FILL_AREA_STYLE_COLOUR ( '', #187 ) ;
#289 = DIRECTION ( 'NONE',  ( -1.228329711887258194E-16, 1.000000000000000000, -0.000000000000000000 ) ) ;
#290 = STYLED_ITEM ( 'NONE', ( #233 ), #293 ) ;
#291 = LENGTH_MEASURE_WITH_UNIT ( LENGTH_MEASURE( 0.02539999999999999897 ), #269 );
#292 = UNCERTAINTY_MEASURE_WITH_UNIT (LENGTH_MEASURE( 1.000000000000000082E-05 ), #286, 'distance_accuracy_value', 'NONE');
#293 = ADVANCED_FACE ( 'NONE', ( #260 ), #4, .T. ) ;
#294 = CARTESIAN_POINT ( 'NONE',  ( 0.000000000000000000, 1.000000000000000000, -0.1249999999999998751 ) ) ;
#295 = CLOSED_SHELL ( 'NONE', ( #141, #9, #293, #361, #122 ) ) ;
#296 = UNCERTAINTY_MEASURE_WITH_UNIT (LENGTH_MEASURE( 1.000000000000000082E-05 ), #185, 'distance_accuracy_value', 'NONE');
#297 = STYLED_ITEM ( 'NONE', ( #165 ), #136 ) ;
#298 = AXIS2_PLACEMENT_3D ( 'NONE', #363, #16, #18 ) ;
#299 = SPHERICAL_SURFACE ( 'NONE', #169, 0.1250000000000000000 ) ;
#300 = CARTESIAN_POINT ( 'NONE',  ( 0.000000000000000000, 0.1250000000000000000, 0.000000000000000000 ) ) ;
#301 = DIRECTION ( 'NONE',  ( 1.000000000000000000, 0.000000000000000000, 0.000000000000000000 ) ) ;
#302 = MECHANICAL_DESIGN_GEOMETRIC_PRESENTATION_REPRESENTATION (  '', ( #192 ), #52 ) ;
#303 = DIRECTION ( 'NONE',  ( -0.000000000000000000, -1.000000000000000000, -0.000000000000000000 ) ) ;
#304 = CIRCLE ( 'NONE', #113, 0.1249999999999998751 ) ;
#305 = ORIENTED_EDGE ( 'NONE', *, *, #76, .F. ) ;
#306 =( CONVERSION_BASED_UNIT ( 'INCH', #367 ) LENGTH_UNIT ( ) NAMED_UNIT ( #252 ) );
#307 = FILL_AREA_STYLE_COLOUR ( '', #178 ) ;
#308 =( NAMED_UNIT ( * ) PLANE_ANGLE_UNIT ( ) SI_UNIT ( $, .RADIAN. ) );
#309 =( CONVERSION_BASED_UNIT ( 'INCH', #339 ) LENGTH_UNIT ( ) NAMED_UNIT ( #133 ) );
#310 = AXIS2_PLACEMENT_3D ( 'NONE', #257, #34, #373 ) ;
#311 = ORIENTED_EDGE ( 'NONE', *, *, #213, .T. ) ;
#312 = EDGE_CURVE ( 'NONE', #45, #223, #124, .T. ) ;
#313 = DIRECTION ( 'NONE',  ( -1.228329711887258194E-16, 1.000000000000000000, -0.000000000000000000 ) ) ;
#314 = ORIENTED_EDGE ( 'NONE', *, *, #342, .T. ) ;
#315 = PRESENTATION_LAYER_ASSIGNMENT (  '', '', ( #297 ) ) ;
#316 = FILL_AREA_STYLE ('',( #94 ) ) ;
#317 = FILL_AREA_STYLE ('',( #288 ) ) ;
#318 = DIRECTION ( 'NONE',  ( 0.000000000000000000, 0.000000000000000000, -1.000000000000000000 ) ) ;
#319 = CARTESIAN_POINT ( 'NONE',  ( 0.000000000000000000, 0.1250000000000000000, 0.000000000000000000 ) ) ;
#320 =( GEOMETRIC_REPRESENTATION_CONTEXT ( 3 ) GLOBAL_UNCERTAINTY_ASSIGNED_CONTEXT ( ( #355 ) ) GLOBAL_UNIT_ASSIGNED_CONTEXT ( ( #309, #96, #267 ) ) REPRESENTATION_CONTEXT ( 'NONE', 'WORKASPACE' ) );
#321 = DIRECTION ( 'NONE',  ( 0.000000000000000000, 0.000000000000000000, -1.000000000000000000 ) ) ;
#322 = CARTESIAN_POINT ( 'NONE',  ( 0.000000000000000000, 1.000000000000000000, 0.000000000000000000 ) ) ;
#323 =( NAMED_UNIT ( * ) PLANE_ANGLE_UNIT ( ) SI_UNIT ( $, .RADIAN. ) );
#324 = FILL_AREA_STYLE ('',( #19 ) ) ;
#325 = EDGE_CURVE ( 'NONE', #195, #223, #21, .T. ) ;
#326 = AXIS2_PLACEMENT_3D ( 'NONE', #277, #139, #204 ) ;
#327 = ORIENTED_EDGE ( 'NONE', *, *, #241, .F. ) ;
#328 = CARTESIAN_POINT ( 'NONE',  ( 0.000000000000000000, 0.000000000000000000, 0.000000000000000000 ) ) ;
#329 = LENGTH_MEASURE_WITH_UNIT ( LENGTH_MEASURE( 0.02539999999999999897 ), #276 );
#330 = VERTEX_POINT ( 'NONE', #64 ) ;
#331 = CARTESIAN_POINT ( 'NONE',  ( -1.530808498934191509E-17, 0.1250000000000000000, 0.000000000000000000 ) ) ;
#332 = EDGE_LOOP ( 'NONE', ( #6, #20, #89, #162, #87 ) ) ;
#333 = APPLICATION_PROTOCOL_DEFINITION ( 'draft international standard', 'automotive_design', 1998, #186 ) ;
#334 = SURFACE_SIDE_STYLE ('',( #161 ) ) ;
#335 = CIRCLE ( 'NONE', #151, 0.1249999999999998751 ) ;
#336 = VERTEX_POINT ( 'NONE', #353 ) ;
#337 = EDGE_CURVE ( 'NONE', #330, #336, #157, .T. ) ;
#338 = DIRECTION ( 'NONE',  ( -1.228329711887258194E-16, 1.000000000000000000, 0.000000000000000000 ) ) ;
#339 = LENGTH_MEASURE_WITH_UNIT ( LENGTH_MEASURE( 0.02539999999999999897 ), #253 );
#340 =( NAMED_UNIT ( * ) SI_UNIT ( $, .STERADIAN. ) SOLID_ANGLE_UNIT ( ) );
#341 = DIMENSIONAL_EXPONENTS ( 1.000000000000000000, 0.000000000000000000, 0.000000000000000000, 0.000000000000000000, 0.000000000000000000, 0.000000000000000000, 0.000000000000000000 ) ;
#342 = EDGE_CURVE ( 'NONE', #45, #258, #304, .T. ) ;
#343 = SURFACE_STYLE_USAGE ( .BOTH. , #166 ) ;
#344 = ORIENTED_EDGE ( 'NONE', *, *, #219, .F. ) ;
#345 = ADVANCED_BREP_SHAPE_REPRESENTATION ( '81322', ( #136, #14, #222 ), #200 ) ;
#346 = LINE ( 'NONE', #60, #7 ) ;
#347 = FILL_AREA_STYLE_COLOUR ( '', #150 ) ;
#348 = CARTESIAN_POINT ( 'NONE',  ( -0.1249999999999995143, 1.000000000000000000, 0.000000000000000000 ) ) ;
#349 = CYLINDRICAL_SURFACE ( 'NONE', #365, 0.1249999999999999306 ) ;
#350 = EDGE_LOOP ( 'NONE', ( #27, #143, #344, #115 ) ) ;
#351 = EDGE_CURVE ( 'NONE', #283, #372, #261, .T. ) ;
#352 = DIRECTION ( 'NONE',  ( -0.000000000000000000, -1.000000000000000000, -0.000000000000000000 ) ) ;
#353 = CARTESIAN_POINT ( 'NONE',  ( 1.530808498934191509E-17, 0.1250000000000000000, 0.1249999999999999861 ) ) ;
#354 = SURFACE_STYLE_FILL_AREA ( #317 ) ;
#355 = UNCERTAINTY_MEASURE_WITH_UNIT (LENGTH_MEASURE( 1.000000000000000082E-05 ), #309, 'distance_accuracy_value', 'NONE');
#356 = CARTESIAN_POINT ( 'NONE',  ( -0.1250000000000000278, 3.000000000000000444, 0.000000000000000000 ) ) ;
#357 =( NAMED_UNIT ( * ) PLANE_ANGLE_UNIT ( ) SI_UNIT ( $, .RADIAN. ) );
#358 = PRODUCT_DEFINITION_SHAPE ( 'NONE', 'NONE',  #100 ) ;
#359 = SPHERICAL_SURFACE ( 'NONE', #126, 0.1250000000000000000 ) ;
#360 = AXIS2_PLACEMENT_3D ( 'NONE', #246, #289, #93 ) ;
#361 = ADVANCED_FACE ( 'NONE', ( #154 ), #349, .T. ) ;
#362 = AXIS2_PLACEMENT_3D ( 'NONE', #322, #98, #266 ) ;
#363 = CARTESIAN_POINT ( 'NONE',  ( -1.530808498934191509E-17, 0.1250000000000000000, 0.000000000000000000 ) ) ;
#364 = UNCERTAINTY_MEASURE_WITH_UNIT (LENGTH_MEASURE( 1.000000000000000082E-05 ), #160, 'distance_accuracy_value', 'NONE');
#365 = AXIS2_PLACEMENT_3D ( 'NONE', #131, #128, #271 ) ;
#366 =( CONVERSION_BASED_UNIT ( 'INCH', #329 ) LENGTH_UNIT ( ) NAMED_UNIT ( #25 ) );
#367 = LENGTH_MEASURE_WITH_UNIT ( LENGTH_MEASURE( 0.02539999999999999897 ), #129 );
#368 = EDGE_LOOP ( 'NONE', ( #314, #117, #29, #135, #197 ) ) ;
#369 = EDGE_CURVE ( 'NONE', #330, #102, #170, .T. ) ;
#370 = FACE_OUTER_BOUND ( 'NONE', #5, .T. ) ;
#371 = DIMENSIONAL_EXPONENTS ( 1.000000000000000000, 0.000000000000000000, 0.000000000000000000, 0.000000000000000000, 0.000000000000000000, 0.000000000000000000, 0.000000000000000000 ) ;
#372 = VERTEX_POINT ( 'NONE', #356 ) ;
#373 = DIRECTION ( 'NONE',  ( -1.000000000000000000, 0.000000000000000000, 0.000000000000000000 ) ) ;
ENDSEC;
END-ISO-10303-21;
