ISO-10303-21;
HEADER;
FILE_DESCRIPTION (( 'STEP AP214' ),
    '1' );
FILE_NAME ('86027.STEP',
    '2023-06-30T23:57:50',
    ( '' ),
    ( '' ),
    'SwSTEP 2.0',
    'SolidWorks 2023',
    '' );
FILE_SCHEMA (( 'AUTOMOTIVE_DESIGN' ));
ENDSEC;

DATA;
#1 = SURFACE_STYLE_USAGE ( .BOTH. , #272 ) ;
#2 = AXIS2_PLACEMENT_3D ( 'NONE', #133, #325, #100 ) ;
#3 = LINE ( 'NONE', #66, #34 ) ;
#4 =( GEOMETRIC_REPRESENTATION_CONTEXT ( 3 ) GLOBAL_UNCERTAINTY_ASSIGNED_CONTEXT ( ( #278 ) ) GLOBAL_UNIT_ASSIGNED_CONTEXT ( ( #292, #155, #126 ) ) REPRESENTATION_CONTEXT ( 'NONE', 'WORKASPACE' ) );
#5 = DIRECTION ( 'NONE',  ( -0.000000000000000000, -1.000000000000000000, -0.000000000000000000 ) ) ;
#6 = ADVANCED_FACE ( 'NONE', ( #346 ), #57, .T. ) ;
#7 = VERTEX_POINT ( 'NONE', #162 ) ;
#8 = STYLED_ITEM ( 'NONE', ( #306 ), #6 ) ;
#9 = DIRECTION ( 'NONE',  ( -1.228752417306880596E-16, 1.000000000000000000, -0.000000000000000000 ) ) ;
#10 = DIRECTION ( 'NONE',  ( 0.000000000000000000, 0.000000000000000000, -1.000000000000000000 ) ) ;
#11 = MECHANICAL_DESIGN_GEOMETRIC_PRESENTATION_REPRESENTATION (  '', ( #265 ), #58 ) ;
#12 = DIRECTION ( 'NONE',  ( -0.000000000000000000, -1.000000000000000000, -0.000000000000000000 ) ) ;
#13 = FILL_AREA_STYLE_COLOUR ( '', #143 ) ;
#14 = PRESENTATION_STYLE_ASSIGNMENT (( #71 ) ) ;
#15 = SURFACE_STYLE_FILL_AREA ( #307 ) ;
#16 =( GEOMETRIC_REPRESENTATION_CONTEXT ( 3 ) GLOBAL_UNCERTAINTY_ASSIGNED_CONTEXT ( ( #298 ) ) GLOBAL_UNIT_ASSIGNED_CONTEXT ( ( #52, #331, #150 ) ) REPRESENTATION_CONTEXT ( 'NONE', 'WORKASPACE' ) );
#17 =( NAMED_UNIT ( * ) PLANE_ANGLE_UNIT ( ) SI_UNIT ( $, .RADIAN. ) );
#18 = MECHANICAL_DESIGN_GEOMETRIC_PRESENTATION_REPRESENTATION (  '', ( #114 ), #89 ) ;
#19 =( LENGTH_UNIT ( ) NAMED_UNIT ( * ) SI_UNIT ( $, .METRE. ) );
#20 = FACE_OUTER_BOUND ( 'NONE', #334, .T. ) ;
#21 = ORIENTED_EDGE ( 'NONE', *, *, #326, .T. ) ;
#22 = DIMENSIONAL_EXPONENTS ( 1.000000000000000000, 0.000000000000000000, 0.000000000000000000, 0.000000000000000000, 0.000000000000000000, 0.000000000000000000, 0.000000000000000000 ) ;
#23 = APPLICATION_PROTOCOL_DEFINITION ( 'draft international standard', 'automotive_design', 1998, #206 ) ;
#24 = UNCERTAINTY_MEASURE_WITH_UNIT (LENGTH_MEASURE( 1.000000000000000082E-05 ), #168, 'distance_accuracy_value', 'NONE');
#25 = CIRCLE ( 'NONE', #322, 0.2500000000000000000 ) ;
#26 = EDGE_CURVE ( 'NONE', #345, #151, #25, .T. ) ;
#27 = EDGE_LOOP ( 'NONE', ( #271, #372, #315, #289 ) ) ;
#28 = COLOUR_RGB ( '',1.000000000000000000, 0.000000000000000000, 0.000000000000000000 ) ;
#29 = ORIENTED_EDGE ( 'NONE', *, *, #102, .F. ) ;
#30 = LENGTH_MEASURE_WITH_UNIT ( LENGTH_MEASURE( 0.02539999999999999897 ), #317 );
#31 = MECHANICAL_DESIGN_GEOMETRIC_PRESENTATION_REPRESENTATION (  '', ( #8 ), #64 ) ;
#32 = PRODUCT_RELATED_PRODUCT_CATEGORY ( 'part', '', ( #223 ) ) ;
#33 = PLANE ( 'NONE',  #295 ) ;
#34 = VECTOR ( 'NONE', #5, 39.37007874015748143 ) ;
#35 = PRESENTATION_STYLE_ASSIGNMENT (( #1 ) ) ;
#36 = VERTEX_POINT ( 'NONE', #141 ) ;
#37 = CARTESIAN_POINT ( 'NONE',  ( 1.083369601462574805E-16, 3.125000000000000000, 0.000000000000000000 ) ) ;
#38 = EDGE_CURVE ( 'NONE', #208, #188, #253, .T. ) ;
#39 = DIRECTION ( 'NONE',  ( 0.000000000000000000, 0.000000000000000000, -1.000000000000000000 ) ) ;
#40 = SPHERICAL_SURFACE ( 'NONE', #316, 0.2500000000000000000 ) ;
#41 = CIRCLE ( 'NONE', #237, 0.2500000000000000000 ) ;
#42 = FILL_AREA_STYLE ('',( #13 ) ) ;
#43 = PRESENTATION_LAYER_ASSIGNMENT (  '', '', ( #8 ) ) ;
#44 = CARTESIAN_POINT ( 'NONE',  ( 1.083369601462574805E-16, 3.125000000000000000, 0.000000000000000000 ) ) ;
#45 = EDGE_CURVE ( 'NONE', #7, #208, #167, .T. ) ;
#46 = COLOUR_RGB ( '',1.000000000000000000, 0.000000000000000000, 0.000000000000000000 ) ;
#47 = PRESENTATION_STYLE_ASSIGNMENT (( #233 ) ) ;
#48 = FACE_OUTER_BOUND ( 'NONE', #348, .T. ) ;
#49 = ADVANCED_FACE ( 'NONE', ( #297 ), #40, .T. ) ;
#50 = FILL_AREA_STYLE ('',( #361 ) ) ;
#51 = COLOUR_RGB ( '',1.000000000000000000, 0.000000000000000000, 0.000000000000000000 ) ;
#52 =( CONVERSION_BASED_UNIT ( 'INCH', #197 ) LENGTH_UNIT ( ) NAMED_UNIT ( #260 ) );
#53 = STYLED_ITEM ( 'NONE', ( #35 ), #140 ) ;
#54 = DIRECTION ( 'NONE',  ( 0.000000000000000000, 0.000000000000000000, -1.000000000000000000 ) ) ;
#55 = EDGE_LOOP ( 'NONE', ( #69, #111, #21, #127, #154 ) ) ;
#56 = CYLINDRICAL_SURFACE ( 'NONE', #185, 0.2499999999999996947 ) ;
#57 = CYLINDRICAL_SURFACE ( 'NONE', #2, 0.2499999999999998057 ) ;
#58 =( GEOMETRIC_REPRESENTATION_CONTEXT ( 3 ) GLOBAL_UNCERTAINTY_ASSIGNED_CONTEXT ( ( #229 ) ) GLOBAL_UNIT_ASSIGNED_CONTEXT ( ( #200, #183, #147 ) ) REPRESENTATION_CONTEXT ( 'NONE', 'WORKASPACE' ) );
#59 = SURFACE_STYLE_USAGE ( .BOTH. , #235 ) ;
#60 = ORIENTED_EDGE ( 'NONE', *, *, #45, .T. ) ;
#61 = FACE_OUTER_BOUND ( 'NONE', #184, .T. ) ;
#62 = EDGE_CURVE ( 'NONE', #117, #345, #365, .T. ) ;
#63 =( NAMED_UNIT ( * ) PLANE_ANGLE_UNIT ( ) SI_UNIT ( $, .RADIAN. ) );
#64 =( GEOMETRIC_REPRESENTATION_CONTEXT ( 3 ) GLOBAL_UNCERTAINTY_ASSIGNED_CONTEXT ( ( #255 ) ) GLOBAL_UNIT_ASSIGNED_CONTEXT ( ( #67, #240, #340 ) ) REPRESENTATION_CONTEXT ( 'NONE', 'WORKASPACE' ) );
#65 = AXIS2_PLACEMENT_3D ( 'NONE', #110, #142, #329 ) ;
#66 = CARTESIAN_POINT ( 'NONE',  ( 3.061616997868380553E-17, 0.000000000000000000, 0.2499999999999998057 ) ) ;
#67 =( CONVERSION_BASED_UNIT ( 'INCH', #95 ) LENGTH_UNIT ( ) NAMED_UNIT ( #232 ) );
#68 = DIRECTION ( 'NONE',  ( -1.000000000000000000, 0.000000000000000000, 0.000000000000000000 ) ) ;
#69 = ORIENTED_EDGE ( 'NONE', *, *, #165, .F. ) ;
#70 = DIRECTION ( 'NONE',  ( 0.000000000000000000, 0.000000000000000000, -1.000000000000000000 ) ) ;
#71 = SURFACE_STYLE_USAGE ( .BOTH. , #277 ) ;
#72 =( LENGTH_UNIT ( ) NAMED_UNIT ( * ) SI_UNIT ( $, .METRE. ) );
#73 = AXIS2_PLACEMENT_3D ( 'NONE', #77, #258, #281 ) ;
#74 = CARTESIAN_POINT ( 'NONE',  ( -0.2499999999999999167, 6.000000000000000888, 0.000000000000000000 ) ) ;
#75 = PRODUCT_DEFINITION_CONTEXT ( 'detailed design', #299, 'design' ) ;
#76 =( GEOMETRIC_REPRESENTATION_CONTEXT ( 3 ) GLOBAL_UNCERTAINTY_ASSIGNED_CONTEXT ( ( #354 ) ) GLOBAL_UNIT_ASSIGNED_CONTEXT ( ( #93, #63, #160 ) ) REPRESENTATION_CONTEXT ( 'NONE', 'WORKASPACE' ) );
#77 = CARTESIAN_POINT ( 'NONE',  ( -3.061616997868383018E-17, 0.2500000000000000000, 0.000000000000000000 ) ) ;
#78 = CARTESIAN_POINT ( 'NONE',  ( -2.449293598294707400E-16, 6.000000000000000888, 0.000000000000000000 ) ) ;
#79 = DIRECTION ( 'NONE',  ( -0.000000000000000000, -1.000000000000000000, -0.000000000000000000 ) ) ;
#80 = CARTESIAN_POINT ( 'NONE',  ( 0.000000000000000000, 0.000000000000000000, 0.000000000000000000 ) ) ;
#81 = ORIENTED_EDGE ( 'NONE', *, *, #170, .T. ) ;
#82 = PRESENTATION_LAYER_ASSIGNMENT (  '', '', ( #53 ) ) ;
#83 =( LENGTH_UNIT ( ) NAMED_UNIT ( * ) SI_UNIT ( $, .METRE. ) );
#84 =( LENGTH_UNIT ( ) NAMED_UNIT ( * ) SI_UNIT ( $, .METRE. ) );
#85 = ORIENTED_EDGE ( 'NONE', *, *, #257, .T. ) ;
#86 = CYLINDRICAL_SURFACE ( 'NONE', #161, 0.2499999999999996947 ) ;
#87 = CARTESIAN_POINT ( 'NONE',  ( 0.2499999999999996114, 6.000000000000000888, 3.061616997868380553E-17 ) ) ;
#88 = ADVANCED_BREP_SHAPE_REPRESENTATION ( '86027', ( #140, #135, #226 ), #16 ) ;
#89 =( GEOMETRIC_REPRESENTATION_CONTEXT ( 3 ) GLOBAL_UNCERTAINTY_ASSIGNED_CONTEXT ( ( #338 ) ) GLOBAL_UNIT_ASSIGNED_CONTEXT ( ( #177, #148, #171 ) ) REPRESENTATION_CONTEXT ( 'NONE', 'WORKASPACE' ) );
#90 = DIRECTION ( 'NONE',  ( 0.000000000000000000, 0.000000000000000000, -1.000000000000000000 ) ) ;
#91 = PRODUCT_CONTEXT ( 'NONE', #206, 'mechanical' ) ;
#92 = ORIENTED_EDGE ( 'NONE', *, *, #45, .F. ) ;
#93 =( CONVERSION_BASED_UNIT ( 'INCH', #30 ) LENGTH_UNIT ( ) NAMED_UNIT ( #203 ) );
#94 = ORIENTED_EDGE ( 'NONE', *, *, #341, .F. ) ;
#95 = LENGTH_MEASURE_WITH_UNIT ( LENGTH_MEASURE( 0.02539999999999999897 ), #180 );
#96 = ADVANCED_FACE ( 'NONE', ( #192 ), #332, .T. ) ;
#97 = ORIENTED_EDGE ( 'NONE', *, *, #170, .F. ) ;
#98 = LINE ( 'NONE', #224, #336 ) ;
#99 = DIRECTION ( 'NONE',  ( -1.000000000000000000, 0.000000000000000000, 0.000000000000000000 ) ) ;
#100 = DIRECTION ( 'NONE',  ( 0.000000000000000000, 0.000000000000000000, -1.000000000000000000 ) ) ;
#101 = AXIS2_PLACEMENT_3D ( 'NONE', #251, #209, #249 ) ;
#102 = EDGE_CURVE ( 'NONE', #7, #205, #104, .T. ) ;
#103 = DIRECTION ( 'NONE',  ( 0.000000000000000000, 0.000000000000000000, 1.000000000000000000 ) ) ;
#104 = LINE ( 'NONE', #174, #367 ) ;
#105 = EDGE_CURVE ( 'NONE', #188, #205, #282, .T. ) ;
#106 = AXIS2_PLACEMENT_3D ( 'NONE', #214, #107, #181 ) ;
#107 = DIRECTION ( 'NONE',  ( 0.000000000000000000, 1.000000000000000000, 0.000000000000000000 ) ) ;
#108 = SURFACE_STYLE_FILL_AREA ( #50 ) ;
#109 = FILL_AREA_STYLE_COLOUR ( '', #46 ) ;
#110 = CARTESIAN_POINT ( 'NONE',  ( -2.449293598294707400E-16, 6.000000000000000888, 0.000000000000000000 ) ) ;
#111 = ORIENTED_EDGE ( 'NONE', *, *, #357, .T. ) ;
#112 = SURFACE_SIDE_STYLE ('',( #108 ) ) ;
#113 =( GEOMETRIC_REPRESENTATION_CONTEXT ( 3 ) GLOBAL_UNCERTAINTY_ASSIGNED_CONTEXT ( ( #178 ) ) GLOBAL_UNIT_ASSIGNED_CONTEXT ( ( #296, #17, #276 ) ) REPRESENTATION_CONTEXT ( 'NONE', 'WORKASPACE' ) );
#114 = STYLED_ITEM ( 'NONE', ( #47 ), #134 ) ;
#115 = EDGE_CURVE ( 'NONE', #345, #262, #274, .T. ) ;
#116 = PLANE ( 'NONE',  #106 ) ;
#117 = VERTEX_POINT ( 'NONE', #280 ) ;
#118 = LENGTH_MEASURE_WITH_UNIT ( LENGTH_MEASURE( 0.02539999999999999897 ), #284 );
#119 = ORIENTED_EDGE ( 'NONE', *, *, #26, .T. ) ;
#120 = DIRECTION ( 'NONE',  ( -0.000000000000000000, -1.000000000000000000, -0.000000000000000000 ) ) ;
#121 = COLOUR_RGB ( '',1.000000000000000000, 0.000000000000000000, 0.000000000000000000 ) ;
#122 = VERTEX_POINT ( 'NONE', #301 ) ;
#123 = PRESENTATION_LAYER_ASSIGNMENT (  '', '', ( #114 ) ) ;
#124 = PLANE ( 'NONE',  #269 ) ;
#125 = CARTESIAN_POINT ( 'NONE',  ( 1.083369601462574805E-16, 3.125000000000000000, 0.000000000000000000 ) ) ;
#126 =( NAMED_UNIT ( * ) SI_UNIT ( $, .STERADIAN. ) SOLID_ANGLE_UNIT ( ) );
#127 = ORIENTED_EDGE ( 'NONE', *, *, #291, .F. ) ;
#128 = APPLICATION_PROTOCOL_DEFINITION ( 'draft international standard', 'automotive_design', 1998, #299 ) ;
#129 = CARTESIAN_POINT ( 'NONE',  ( -1.530808498934191509E-17, 0.000000000000000000, 0.000000000000000000 ) ) ;
#130 = DIRECTION ( 'NONE',  ( -0.000000000000000000, -1.000000000000000000, -0.000000000000000000 ) ) ;
#131 = CARTESIAN_POINT ( 'NONE',  ( -3.061616997868383018E-17, 0.2500000000000000000, 0.000000000000000000 ) ) ;
#132 = SURFACE_STYLE_USAGE ( .BOTH. , #164 ) ;
#133 = CARTESIAN_POINT ( 'NONE',  ( 0.000000000000000000, 0.000000000000000000, 0.000000000000000000 ) ) ;
#134 = ADVANCED_FACE ( 'NONE', ( #360 ), #116, .T. ) ;
#135 = MANIFOLD_SOLID_BREP ( 'Revolve - Tool Body (Straight Shanked)', #231 ) ;
#136 = PRODUCT_DEFINITION_FORMATION_WITH_SPECIFIED_SOURCE ( 'ANY', '', #223, .NOT_KNOWN. ) ;
#137 = PRESENTATION_LAYER_ASSIGNMENT (  '', '', ( #268 ) ) ;
#138 = CARTESIAN_POINT ( 'NONE',  ( 0.000000000000000000, 0.2500000000000000000, 0.000000000000000000 ) ) ;
#139 = CIRCLE ( 'NONE', #335, 0.2499999999999996114 ) ;
#140 = MANIFOLD_SOLID_BREP ( 'Revolve - Cutting Edge', #243 ) ;
#141 = CARTESIAN_POINT ( 'NONE',  ( -0.2500000000000000000, 0.2500000000000000000, 3.061616997868382402E-17 ) ) ;
#142 = DIRECTION ( 'NONE',  ( -1.228752417306880596E-16, 1.000000000000000000, -0.000000000000000000 ) ) ;
#143 = COLOUR_RGB ( '',1.000000000000000000, 0.000000000000000000, 0.000000000000000000 ) ;
#144 = CARTESIAN_POINT ( 'NONE',  ( -2.449293598294707400E-16, 6.000000000000000888, 0.000000000000000000 ) ) ;
#145 = FILL_AREA_STYLE_COLOUR ( '', #121 ) ;
#146 =( NAMED_UNIT ( * ) PLANE_ANGLE_UNIT ( ) SI_UNIT ( $, .RADIAN. ) );
#147 =( NAMED_UNIT ( * ) SI_UNIT ( $, .STERADIAN. ) SOLID_ANGLE_UNIT ( ) );
#148 =( NAMED_UNIT ( * ) PLANE_ANGLE_UNIT ( ) SI_UNIT ( $, .RADIAN. ) );
#149 = ORIENTED_EDGE ( 'NONE', *, *, #62, .F. ) ;
#150 =( NAMED_UNIT ( * ) SI_UNIT ( $, .STERADIAN. ) SOLID_ANGLE_UNIT ( ) );
#151 = VERTEX_POINT ( 'NONE', #312 ) ;
#152 = PRODUCT_DEFINITION ( 'UNKNOWN', '', #136, #75 ) ;
#153 = DIRECTION ( 'NONE',  ( 1.228752417306880596E-16, -1.000000000000000000, 0.000000000000000000 ) ) ;
#154 = ORIENTED_EDGE ( 'NONE', *, *, #257, .F. ) ;
#155 =( NAMED_UNIT ( * ) PLANE_ANGLE_UNIT ( ) SI_UNIT ( $, .RADIAN. ) );
#156 = AXIS2_PLACEMENT_3D ( 'NONE', #125, #9, #68 ) ;
#157 = DIRECTION ( 'NONE',  ( -1.000000000000000000, -1.228752417306880596E-16, 0.000000000000000000 ) ) ;
#158 = EDGE_LOOP ( 'NONE', ( #310, #92 ) ) ;
#159 = SHAPE_DEFINITION_REPRESENTATION ( #217, #88 ) ;
#160 =( NAMED_UNIT ( * ) SI_UNIT ( $, .STERADIAN. ) SOLID_ANGLE_UNIT ( ) );
#161 = AXIS2_PLACEMENT_3D ( 'NONE', #144, #339, #207 ) ;
#162 = CARTESIAN_POINT ( 'NONE',  ( 0.2499999999999996114, 3.125000000000000000, 3.061616997868380553E-17 ) ) ;
#163 = DIRECTION ( 'NONE',  ( 1.224646799147353207E-16, -0.000000000000000000, 1.000000000000000000 ) ) ;
#164 = SURFACE_SIDE_STYLE ('',( #294 ) ) ;
#165 = EDGE_CURVE ( 'NONE', #122, #151, #3, .T. ) ;
#166 = FILL_AREA_STYLE ('',( #227 ) ) ;
#167 = CIRCLE ( 'NONE', #228, 0.2499999999999995282 ) ;
#168 =( CONVERSION_BASED_UNIT ( 'INCH', #195 ) LENGTH_UNIT ( ) NAMED_UNIT ( #311 ) );
#169 = AXIS2_PLACEMENT_3D ( 'NONE', #337, #79, #303 ) ;
#170 = EDGE_CURVE ( 'NONE', #205, #188, #300, .T. ) ;
#171 =( NAMED_UNIT ( * ) SI_UNIT ( $, .STERADIAN. ) SOLID_ANGLE_UNIT ( ) );
#172 = FILL_AREA_STYLE_COLOUR ( '', #244 ) ;
#173 =( NAMED_UNIT ( * ) SI_UNIT ( $, .STERADIAN. ) SOLID_ANGLE_UNIT ( ) );
#174 = CARTESIAN_POINT ( 'NONE',  ( 0.2499999999999994449, 6.000000000000000888, 3.061616997868379320E-17 ) ) ;
#175 =( GEOMETRIC_REPRESENTATION_CONTEXT ( 3 ) GLOBAL_UNCERTAINTY_ASSIGNED_CONTEXT ( ( #24 ) ) GLOBAL_UNIT_ASSIGNED_CONTEXT ( ( #168, #146, #173 ) ) REPRESENTATION_CONTEXT ( 'NONE', 'WORKASPACE' ) );
#176 = VERTEX_POINT ( 'NONE', #342 ) ;
#177 =( CONVERSION_BASED_UNIT ( 'INCH', #202 ) LENGTH_UNIT ( ) NAMED_UNIT ( #241 ) );
#178 = UNCERTAINTY_MEASURE_WITH_UNIT (LENGTH_MEASURE( 1.000000000000000082E-05 ), #296, 'distance_accuracy_value', 'NONE');
#179 = SURFACE_STYLE_FILL_AREA ( #305 ) ;
#180 =( LENGTH_UNIT ( ) NAMED_UNIT ( * ) SI_UNIT ( $, .METRE. ) );
#181 = DIRECTION ( 'NONE',  ( 0.000000000000000000, -0.000000000000000000, 1.000000000000000000 ) ) ;
#182 = VECTOR ( 'NONE', #273, 39.37007874015748143 ) ;
#183 =( NAMED_UNIT ( * ) PLANE_ANGLE_UNIT ( ) SI_UNIT ( $, .RADIAN. ) );
#184 = EDGE_LOOP ( 'NONE', ( #242, #81 ) ) ;
#185 = AXIS2_PLACEMENT_3D ( 'NONE', #78, #285, #239 ) ;
#186 = CARTESIAN_POINT ( 'NONE',  ( -0.2500000000000001110, 6.000000000000000888, 0.000000000000000000 ) ) ;
#187 = CIRCLE ( 'NONE', #169, 0.2499999999999996114 ) ;
#188 = VERTEX_POINT ( 'NONE', #186 ) ;
#189 = FACE_OUTER_BOUND ( 'NONE', #158, .T. ) ;
#190 = ORIENTED_EDGE ( 'NONE', *, *, #105, .F. ) ;
#191 = CARTESIAN_POINT ( 'NONE',  ( 0.2500000000000000000, 0.2500000000000000000, 0.000000000000000000 ) ) ;
#192 = FACE_OUTER_BOUND ( 'NONE', #27, .T. ) ;
#193 = STYLED_ITEM ( 'NONE', ( #252 ), #96 ) ;
#194 = DIRECTION ( 'NONE',  ( -0.000000000000000000, -1.000000000000000000, -0.000000000000000000 ) ) ;
#195 = LENGTH_MEASURE_WITH_UNIT ( LENGTH_MEASURE( 0.02539999999999999897 ), #72 );
#196 = MECHANICAL_DESIGN_GEOMETRIC_PRESENTATION_REPRESENTATION (  '', ( #53 ), #76 ) ;
#197 = LENGTH_MEASURE_WITH_UNIT ( LENGTH_MEASURE( 0.02539999999999999897 ), #84 );
#198 = CARTESIAN_POINT ( 'NONE',  ( -3.061616997868383018E-17, 0.2500000000000000000, 0.000000000000000000 ) ) ;
#199 = AXIS2_PLACEMENT_3D ( 'NONE', #131, #163, #275 ) ;
#200 =( CONVERSION_BASED_UNIT ( 'INCH', #118 ) LENGTH_UNIT ( ) NAMED_UNIT ( #373 ) );
#201 = ORIENTED_EDGE ( 'NONE', *, *, #115, .F. ) ;
#202 = LENGTH_MEASURE_WITH_UNIT ( LENGTH_MEASURE( 0.02539999999999999897 ), #83 );
#203 = DIMENSIONAL_EXPONENTS ( 1.000000000000000000, 0.000000000000000000, 0.000000000000000000, 0.000000000000000000, 0.000000000000000000, 0.000000000000000000, 0.000000000000000000 ) ;
#204 = DIRECTION ( 'NONE',  ( 0.000000000000000000, 0.000000000000000000, 1.000000000000000000 ) ) ;
#205 = VERTEX_POINT ( 'NONE', #87 ) ;
#206 = APPLICATION_CONTEXT ( 'automotive_design' ) ;
#207 = DIRECTION ( 'NONE',  ( -1.000000000000000000, 0.000000000000000000, 0.000000000000000000 ) ) ;
#208 = VERTEX_POINT ( 'NONE', #347 ) ;
#209 = DIRECTION ( 'NONE',  ( -1.228752417306880596E-16, 1.000000000000000000, -0.000000000000000000 ) ) ;
#210 = SURFACE_STYLE_USAGE ( .BOTH. , #330 ) ;
#211 = MECHANICAL_DESIGN_GEOMETRIC_PRESENTATION_REPRESENTATION (  '', ( #313 ), #4 ) ;
#212 = LENGTH_MEASURE_WITH_UNIT ( LENGTH_MEASURE( 0.02539999999999999897 ), #19 );
#213 = ORIENTED_EDGE ( 'NONE', *, *, #38, .T. ) ;
#214 = CARTESIAN_POINT ( 'NONE',  ( 0.000000000000000000, 3.125000000000000000, 0.000000000000000000 ) ) ;
#215 = DIRECTION ( 'NONE',  ( -1.228752417306880596E-16, 1.000000000000000000, 0.000000000000000000 ) ) ;
#216 = PRESENTATION_STYLE_ASSIGNMENT (( #210 ) ) ;
#217 = PRODUCT_DEFINITION_SHAPE ( 'NONE', 'NONE',  #152 ) ;
#218 = FILL_AREA_STYLE_COLOUR ( '', #359 ) ;
#219 = AXIS2_PLACEMENT_3D ( 'NONE', #138, #130, #230 ) ;
#220 = EDGE_LOOP ( 'NONE', ( #238, #250, #190, #344 ) ) ;
#221 = CARTESIAN_POINT ( 'NONE',  ( 0.2499999999999996114, 6.000000000000000888, 0.000000000000000000 ) ) ;
#222 = ORIENTED_EDGE ( 'NONE', *, *, #326, .F. ) ;
#223 = PRODUCT ( '86027', '86027', '', ( #91 ) ) ;
#224 = CARTESIAN_POINT ( 'NONE',  ( 0.000000000000000000, 0.000000000000000000, -0.2499999999999998057 ) ) ;
#225 = ADVANCED_FACE ( 'NONE', ( #61 ), #124, .F. ) ;
#226 = AXIS2_PLACEMENT_3D ( 'NONE', #80, #204, #308 ) ;
#227 = FILL_AREA_STYLE_COLOUR ( '', #51 ) ;
#228 = AXIS2_PLACEMENT_3D ( 'NONE', #44, #356, #99 ) ;
#229 = UNCERTAINTY_MEASURE_WITH_UNIT (LENGTH_MEASURE( 1.000000000000000082E-05 ), #200, 'distance_accuracy_value', 'NONE');
#230 = DIRECTION ( 'NONE',  ( 0.000000000000000000, 0.000000000000000000, -1.000000000000000000 ) ) ;
#231 = CLOSED_SHELL ( 'NONE', ( #352, #279, #371, #225 ) ) ;
#232 = DIMENSIONAL_EXPONENTS ( 1.000000000000000000, 0.000000000000000000, 0.000000000000000000, 0.000000000000000000, 0.000000000000000000, 0.000000000000000000, 0.000000000000000000 ) ;
#233 = SURFACE_STYLE_USAGE ( .BOTH. , #112 ) ;
#234 = EDGE_CURVE ( 'NONE', #208, #7, #304, .T. ) ;
#235 = SURFACE_SIDE_STYLE ('',( #179 ) ) ;
#236 = SURFACE_STYLE_FILL_AREA ( #363 ) ;
#237 = AXIS2_PLACEMENT_3D ( 'NONE', #246, #120, #90 ) ;
#238 = ORIENTED_EDGE ( 'NONE', *, *, #234, .T. ) ;
#239 = DIRECTION ( 'NONE',  ( -1.000000000000000000, 0.000000000000000000, 0.000000000000000000 ) ) ;
#240 =( NAMED_UNIT ( * ) PLANE_ANGLE_UNIT ( ) SI_UNIT ( $, .RADIAN. ) );
#241 = DIMENSIONAL_EXPONENTS ( 1.000000000000000000, 0.000000000000000000, 0.000000000000000000, 0.000000000000000000, 0.000000000000000000, 0.000000000000000000, 0.000000000000000000 ) ;
#242 = ORIENTED_EDGE ( 'NONE', *, *, #105, .T. ) ;
#243 = CLOSED_SHELL ( 'NONE', ( #49, #362, #134, #6, #96 ) ) ;
#244 = COLOUR_RGB ( '',0.7921568627450980005, 0.8196078431372548767, 0.9333333333333333481 ) ;
#245 = EDGE_LOOP ( 'NONE', ( #94, #366 ) ) ;
#246 = CARTESIAN_POINT ( 'NONE',  ( 0.000000000000000000, 0.2500000000000000000, 0.000000000000000000 ) ) ;
#247 = CARTESIAN_POINT ( 'NONE',  ( 0.000000000000000000, 0.2500000000000000000, 0.000000000000000000 ) ) ;
#248 = AXIS2_PLACEMENT_3D ( 'NONE', #287, #302, #54 ) ;
#249 = DIRECTION ( 'NONE',  ( -1.000000000000000000, 0.000000000000000000, 0.000000000000000000 ) ) ;
#250 = ORIENTED_EDGE ( 'NONE', *, *, #102, .T. ) ;
#251 = CARTESIAN_POINT ( 'NONE',  ( -2.449293598294707400E-16, 6.000000000000000888, 0.000000000000000000 ) ) ;
#252 = PRESENTATION_STYLE_ASSIGNMENT (( #132 ) ) ;
#253 = LINE ( 'NONE', #74, #182 ) ;
#254 = AXIS2_PLACEMENT_3D ( 'NONE', #198, #264, #368 ) ;
#255 = UNCERTAINTY_MEASURE_WITH_UNIT (LENGTH_MEASURE( 1.000000000000000082E-05 ), #67, 'distance_accuracy_value', 'NONE');
#256 = CARTESIAN_POINT ( 'NONE',  ( 0.000000000000000000, 0.2500000000000000000, 0.000000000000000000 ) ) ;
#257 = EDGE_CURVE ( 'NONE', #151, #36, #41, .T. ) ;
#258 = DIRECTION ( 'NONE',  ( 0.000000000000000000, 0.000000000000000000, -1.000000000000000000 ) ) ;
#259 = CIRCLE ( 'NONE', #199, 0.2500000000000000000 ) ;
#260 = DIMENSIONAL_EXPONENTS ( 1.000000000000000000, 0.000000000000000000, 0.000000000000000000, 0.000000000000000000, 0.000000000000000000, 0.000000000000000000, 0.000000000000000000 ) ;
#261 = SURFACE_SIDE_STYLE ('',( #236 ) ) ;
#262 = VERTEX_POINT ( 'NONE', #129 ) ;
#263 = MECHANICAL_DESIGN_GEOMETRIC_PRESENTATION_REPRESENTATION (  '', ( #268 ), #113 ) ;
#264 = DIRECTION ( 'NONE',  ( 0.000000000000000000, 0.000000000000000000, 1.000000000000000000 ) ) ;
#265 = STYLED_ITEM ( 'NONE', ( #283 ), #362 ) ;
#266 = SURFACE_STYLE_USAGE ( .BOTH. , #261 ) ;
#267 = CYLINDRICAL_SURFACE ( 'NONE', #248, 0.2499999999999998057 ) ;
#268 = STYLED_ITEM ( 'NONE', ( #14 ), #49 ) ;
#269 = AXIS2_PLACEMENT_3D ( 'NONE', #221, #153, #319 ) ;
#270 = FILL_AREA_STYLE ('',( #218 ) ) ;
#271 = ORIENTED_EDGE ( 'NONE', *, *, #323, .F. ) ;
#272 = SURFACE_SIDE_STYLE ('',( #314 ) ) ;
#273 = DIRECTION ( 'NONE',  ( -1.228752417306880596E-16, 1.000000000000000000, -0.000000000000000000 ) ) ;
#274 = CIRCLE ( 'NONE', #73, 0.2500000000000000000 ) ;
#275 = DIRECTION ( 'NONE',  ( 1.000000000000000000, 0.000000000000000000, -1.224646799147353207E-16 ) ) ;
#276 =( NAMED_UNIT ( * ) SI_UNIT ( $, .STERADIAN. ) SOLID_ANGLE_UNIT ( ) );
#277 = SURFACE_SIDE_STYLE ('',( #327 ) ) ;
#278 = UNCERTAINTY_MEASURE_WITH_UNIT (LENGTH_MEASURE( 1.000000000000000082E-05 ), #292, 'distance_accuracy_value', 'NONE');
#279 = ADVANCED_FACE ( 'NONE', ( #189 ), #33, .F. ) ;
#280 = CARTESIAN_POINT ( 'NONE',  ( 0.000000000000000000, 0.2500000000000000000, -0.2500000000000000000 ) ) ;
#281 = DIRECTION ( 'NONE',  ( -1.000000000000000000, 0.000000000000000000, 0.000000000000000000 ) ) ;
#282 = CIRCLE ( 'NONE', #65, 0.2499999999999998612 ) ;
#283 = PRESENTATION_STYLE_ASSIGNMENT (( #59 ) ) ;
#284 =( LENGTH_UNIT ( ) NAMED_UNIT ( * ) SI_UNIT ( $, .METRE. ) );
#285 = DIRECTION ( 'NONE',  ( -1.228752417306880596E-16, 1.000000000000000000, -0.000000000000000000 ) ) ;
#286 = CIRCLE ( 'NONE', #355, 0.2500000000000000000 ) ;
#287 = CARTESIAN_POINT ( 'NONE',  ( 0.000000000000000000, 0.000000000000000000, 0.000000000000000000 ) ) ;
#288 = ORIENTED_EDGE ( 'NONE', *, *, #323, .T. ) ;
#289 = ORIENTED_EDGE ( 'NONE', *, *, #115, .T. ) ;
#290 = PRESENTATION_LAYER_ASSIGNMENT (  '', '', ( #193 ) ) ;
#291 = EDGE_CURVE ( 'NONE', #36, #117, #286, .T. ) ;
#292 =( CONVERSION_BASED_UNIT ( 'INCH', #212 ) LENGTH_UNIT ( ) NAMED_UNIT ( #22 ) );
#293 = DIRECTION ( 'NONE',  ( -0.000000000000000000, -1.000000000000000000, -0.000000000000000000 ) ) ;
#294 = SURFACE_STYLE_FILL_AREA ( #42 ) ;
#295 = AXIS2_PLACEMENT_3D ( 'NONE', #37, #215, #157 ) ;
#296 =( CONVERSION_BASED_UNIT ( 'INCH', #358 ) LENGTH_UNIT ( ) NAMED_UNIT ( #369 ) );
#297 = FACE_OUTER_BOUND ( 'NONE', #309, .T. ) ;
#298 = UNCERTAINTY_MEASURE_WITH_UNIT (LENGTH_MEASURE( 1.000000000000000082E-05 ), #52, 'distance_accuracy_value', 'NONE');
#299 = APPLICATION_CONTEXT ( 'automotive_design' ) ;
#300 = CIRCLE ( 'NONE', #101, 0.2499999999999998612 ) ;
#301 = CARTESIAN_POINT ( 'NONE',  ( 3.061616997868378704E-17, 3.125000000000000000, 0.2499999999999996114 ) ) ;
#302 = DIRECTION ( 'NONE',  ( -0.000000000000000000, -1.000000000000000000, -0.000000000000000000 ) ) ;
#303 = DIRECTION ( 'NONE',  ( 0.000000000000000000, 0.000000000000000000, -1.000000000000000000 ) ) ;
#304 = CIRCLE ( 'NONE', #156, 0.2499999999999995282 ) ;
#305 = FILL_AREA_STYLE ('',( #109 ) ) ;
#306 = PRESENTATION_STYLE_ASSIGNMENT (( #266 ) ) ;
#307 = FILL_AREA_STYLE ('',( #172 ) ) ;
#308 = DIRECTION ( 'NONE',  ( 1.000000000000000000, 0.000000000000000000, 0.000000000000000000 ) ) ;
#309 = EDGE_LOOP ( 'NONE', ( #85, #288, #201, #119 ) ) ;
#310 = ORIENTED_EDGE ( 'NONE', *, *, #234, .F. ) ;
#311 = DIMENSIONAL_EXPONENTS ( 1.000000000000000000, 0.000000000000000000, 0.000000000000000000, 0.000000000000000000, 0.000000000000000000, 0.000000000000000000, 0.000000000000000000 ) ;
#312 = CARTESIAN_POINT ( 'NONE',  ( 3.061616997868383018E-17, 0.2500000000000000000, 0.2500000000000000555 ) ) ;
#313 = STYLED_ITEM ( 'NONE', ( #216 ), #135 ) ;
#314 = SURFACE_STYLE_FILL_AREA ( #270 ) ;
#315 = ORIENTED_EDGE ( 'NONE', *, *, #62, .T. ) ;
#316 = AXIS2_PLACEMENT_3D ( 'NONE', #324, #103, #351 ) ;
#317 =( LENGTH_UNIT ( ) NAMED_UNIT ( * ) SI_UNIT ( $, .METRE. ) );
#318 = ORIENTED_EDGE ( 'NONE', *, *, #341, .T. ) ;
#319 = DIRECTION ( 'NONE',  ( 1.000000000000000000, 1.228752417306880596E-16, 0.000000000000000000 ) ) ;
#320 = ORIENTED_EDGE ( 'NONE', *, *, #26, .F. ) ;
#321 = DIRECTION ( 'NONE',  ( -0.000000000000000000, -1.000000000000000000, -0.000000000000000000 ) ) ;
#322 = AXIS2_PLACEMENT_3D ( 'NONE', #256, #194, #10 ) ;
#323 = EDGE_CURVE ( 'NONE', #36, #262, #259, .T. ) ;
#324 = CARTESIAN_POINT ( 'NONE',  ( -3.061616997868383018E-17, 0.2500000000000000000, 0.000000000000000000 ) ) ;
#325 = DIRECTION ( 'NONE',  ( -0.000000000000000000, -1.000000000000000000, -0.000000000000000000 ) ) ;
#326 = EDGE_CURVE ( 'NONE', #176, #117, #98, .T. ) ;
#327 = SURFACE_STYLE_FILL_AREA ( #166 ) ;
#328 = PRESENTATION_LAYER_ASSIGNMENT (  '', '', ( #265 ) ) ;
#329 = DIRECTION ( 'NONE',  ( -1.000000000000000000, 0.000000000000000000, 0.000000000000000000 ) ) ;
#330 = SURFACE_SIDE_STYLE ('',( #15 ) ) ;
#331 =( NAMED_UNIT ( * ) PLANE_ANGLE_UNIT ( ) SI_UNIT ( $, .RADIAN. ) );
#332 = SPHERICAL_SURFACE ( 'NONE', #254, 0.2500000000000000000 ) ;
#333 = FACE_OUTER_BOUND ( 'NONE', #220, .T. ) ;
#334 = EDGE_LOOP ( 'NONE', ( #318, #370, #320, #149, #222 ) ) ;
#335 = AXIS2_PLACEMENT_3D ( 'NONE', #350, #321, #70 ) ;
#336 = VECTOR ( 'NONE', #12, 39.37007874015748143 ) ;
#337 = CARTESIAN_POINT ( 'NONE',  ( 0.000000000000000000, 3.125000000000000000, 0.000000000000000000 ) ) ;
#338 = UNCERTAINTY_MEASURE_WITH_UNIT (LENGTH_MEASURE( 1.000000000000000082E-05 ), #177, 'distance_accuracy_value', 'NONE');
#339 = DIRECTION ( 'NONE',  ( -1.228752417306880596E-16, 1.000000000000000000, -0.000000000000000000 ) ) ;
#340 =( NAMED_UNIT ( * ) SI_UNIT ( $, .STERADIAN. ) SOLID_ANGLE_UNIT ( ) );
#341 = EDGE_CURVE ( 'NONE', #176, #122, #139, .T. ) ;
#342 = CARTESIAN_POINT ( 'NONE',  ( 0.000000000000000000, 3.125000000000000000, -0.2499999999999996114 ) ) ;
#343 = MECHANICAL_DESIGN_GEOMETRIC_PRESENTATION_REPRESENTATION (  '', ( #193 ), #175 ) ;
#344 = ORIENTED_EDGE ( 'NONE', *, *, #38, .F. ) ;
#345 = VERTEX_POINT ( 'NONE', #191 ) ;
#346 = FACE_OUTER_BOUND ( 'NONE', #55, .T. ) ;
#347 = CARTESIAN_POINT ( 'NONE',  ( -0.2499999999999994171, 3.125000000000000000, 0.000000000000000000 ) ) ;
#348 = EDGE_LOOP ( 'NONE', ( #29, #60, #213, #97 ) ) ;
#349 = PRESENTATION_LAYER_ASSIGNMENT (  '', '', ( #313 ) ) ;
#350 = CARTESIAN_POINT ( 'NONE',  ( 0.000000000000000000, 3.125000000000000000, 0.000000000000000000 ) ) ;
#351 = DIRECTION ( 'NONE',  ( 1.000000000000000000, 0.000000000000000000, 0.000000000000000000 ) ) ;
#352 = ADVANCED_FACE ( 'NONE', ( #333 ), #56, .T. ) ;
#353 =( LENGTH_UNIT ( ) NAMED_UNIT ( * ) SI_UNIT ( $, .METRE. ) );
#354 = UNCERTAINTY_MEASURE_WITH_UNIT (LENGTH_MEASURE( 1.000000000000000082E-05 ), #93, 'distance_accuracy_value', 'NONE');
#355 = AXIS2_PLACEMENT_3D ( 'NONE', #247, #293, #39 ) ;
#356 = DIRECTION ( 'NONE',  ( -1.228752417306880596E-16, 1.000000000000000000, -0.000000000000000000 ) ) ;
#357 = EDGE_CURVE ( 'NONE', #122, #176, #187, .T. ) ;
#358 = LENGTH_MEASURE_WITH_UNIT ( LENGTH_MEASURE( 0.02539999999999999897 ), #353 );
#359 = COLOUR_RGB ( '',0.7921568627450980005, 0.8196078431372548767, 0.9333333333333333481 ) ;
#360 = FACE_OUTER_BOUND ( 'NONE', #245, .T. ) ;
#361 = FILL_AREA_STYLE_COLOUR ( '', #28 ) ;
#362 = ADVANCED_FACE ( 'NONE', ( #20 ), #267, .T. ) ;
#363 = FILL_AREA_STYLE ('',( #145 ) ) ;
#364 = DIRECTION ( 'NONE',  ( -1.228752417306880596E-16, 1.000000000000000000, -0.000000000000000000 ) ) ;
#365 = CIRCLE ( 'NONE', #219, 0.2500000000000000000 ) ;
#366 = ORIENTED_EDGE ( 'NONE', *, *, #357, .F. ) ;
#367 = VECTOR ( 'NONE', #364, 39.37007874015748143 ) ;
#368 = DIRECTION ( 'NONE',  ( 1.000000000000000000, 0.000000000000000000, 0.000000000000000000 ) ) ;
#369 = DIMENSIONAL_EXPONENTS ( 1.000000000000000000, 0.000000000000000000, 0.000000000000000000, 0.000000000000000000, 0.000000000000000000, 0.000000000000000000, 0.000000000000000000 ) ;
#370 = ORIENTED_EDGE ( 'NONE', *, *, #165, .T. ) ;
#371 = ADVANCED_FACE ( 'NONE', ( #48 ), #86, .T. ) ;
#372 = ORIENTED_EDGE ( 'NONE', *, *, #291, .T. ) ;
#373 = DIMENSIONAL_EXPONENTS ( 1.000000000000000000, 0.000000000000000000, 0.000000000000000000, 0.000000000000000000, 0.000000000000000000, 0.000000000000000000, 0.000000000000000000 ) ;
ENDSEC;
END-ISO-10303-21;
