ISO-10303-21;
HEADER;
FILE_DESCRIPTION (( 'STEP AP214' ),
    '1' );
FILE_NAME ('Micro_RSC-250-1.STEP',
    '2021-09-03T17:46:34',
    ( '' ),
    ( '' ),
    'SwSTEP 2.0',
    'SolidWorks 2020',
    '' );
FILE_SCHEMA (( 'AUTOMOTIVE_DESIGN' ));
ENDSEC;

DATA;
#1 = EDGE_LOOP ( 'NONE', ( #188, #183, #127, #180 ) ) ;
#2 = DIRECTION ( 'NONE',  ( 1.000000000000000000, 0.0000000000000000000, -0.0000000000000000000 ) ) ;
#3 = DIRECTION ( 'NONE',  ( 1.000000000000000000, 0.0000000000000000000, -0.0000000000000000000 ) ) ;
#4 = AXIS2_PLACEMENT_3D ( 'NONE', #175, #142, #6 ) ;
#5 = DIRECTION ( 'NONE',  ( -0.7071067811865499042, 0.0000000000000000000, -0.7071067811865451302 ) ) ;
#6 = DIRECTION ( 'NONE',  ( -1.000000000000000000, 0.0000000000000000000, 0.0000000000000000000 ) ) ;
#7 = DIRECTION ( 'NONE',  ( 0.0000000000000000000, 0.0000000000000000000, 1.000000000000000000 ) ) ;
#8 = AXIS2_PLACEMENT_3D ( 'NONE', #80, #81, #161 ) ;
#9 = EDGE_CURVE ( 'NONE', #55, #130, #191, .T. ) ;
#10 = EDGE_LOOP ( 'NONE', ( #151, #107, #78, #219 ) ) ;
#11 = DIRECTION ( 'NONE',  ( -1.000000000000000000, 0.0000000000000000000, 0.0000000000000000000 ) ) ;
#12 = PRODUCT_RELATED_PRODUCT_CATEGORY ( 'part', '', ( #20 ) ) ;
#13 = APPLICATION_CONTEXT ( 'automotive_design' ) ;
#14 = ORIENTED_EDGE ( 'NONE', *, *, #61, .T. ) ;
#15 = UNCERTAINTY_MEASURE_WITH_UNIT (LENGTH_MEASURE( 1.000000000000000082E-05 ), #91, 'distance_accuracy_value', 'NONE');
#16 = AXIS2_PLACEMENT_3D ( 'NONE', #177, #32, #88 ) ;
#17 = EDGE_LOOP ( 'NONE', ( #167, #14, #241, #50 ) ) ;
#18 = PRODUCT_DEFINITION_SHAPE ( 'NONE', 'NONE',  #236 ) ;
#19 = DIRECTION ( 'NONE',  ( 0.0000000000000000000, 0.0000000000000000000, 1.000000000000000000 ) ) ;
#20 = PRODUCT ( 'Micro_RSC-250-1', 'Micro_RSC-250-1', '', ( #152 ) ) ;
#21 = DIRECTION ( 'NONE',  ( -1.000000000000000000, 0.0000000000000000000, 0.0000000000000000000 ) ) ;
#22 = DIRECTION ( 'NONE',  ( 0.0000000000000000000, 0.0000000000000000000, 1.000000000000000000 ) ) ;
#23 = CARTESIAN_POINT ( 'NONE',  ( 0.0000000000000000000, 0.0000000000000000000, 2.485000000000000320 ) ) ;
#24 = FACE_OUTER_BOUND ( 'NONE', #168, .T. ) ;
#25 = AXIS2_PLACEMENT_3D ( 'NONE', #239, #69, #218 ) ;
#26 = DIRECTION ( 'NONE',  ( -0.0000000000000000000, -0.0000000000000000000, -1.000000000000000000 ) ) ;
#27 = DIRECTION ( 'NONE',  ( -0.0000000000000000000, -0.0000000000000000000, -1.000000000000000000 ) ) ;
#28 = ADVANCED_FACE ( 'NONE', ( #132 ), #162, .T. ) ;
#29 =( LENGTH_UNIT ( ) NAMED_UNIT ( * ) SI_UNIT ( $, .METRE. ) );
#30 = CIRCLE ( 'NONE', #102, 0.1250000000000000000 ) ;
#31 = ORIENTED_EDGE ( 'NONE', *, *, #115, .T. ) ;
#32 = DIRECTION ( 'NONE',  ( 0.0000000000000000000, 0.0000000000000000000, 1.000000000000000000 ) ) ;
#33 = EDGE_CURVE ( 'NONE', #72, #134, #178, .T. ) ;
#34 = MANIFOLD_SOLID_BREP ( 'Cut-Revolve1', #202 ) ;
#35 = DIRECTION ( 'NONE',  ( 1.000000000000000000, 0.0000000000000000000, 0.0000000000000000000 ) ) ;
#36 = PRESENTATION_STYLE_ASSIGNMENT (( #207 ) ) ;
#37 = FILL_AREA_STYLE_COLOUR ( '', #124 ) ;
#38 = CIRCLE ( 'NONE', #156, 0.1250000000000000000 ) ;
#39 = ORIENTED_EDGE ( 'NONE', *, *, #136, .T. ) ;
#40 = DIRECTION ( 'NONE',  ( -1.000000000000000000, 0.0000000000000000000, 0.0000000000000000000 ) ) ;
#41 = CARTESIAN_POINT ( 'NONE',  ( 0.003999999999999999216, 0.0000000000000000000, 0.0000000000000000000 ) ) ;
#42 = FACE_OUTER_BOUND ( 'NONE', #17, .T. ) ;
#43 = VECTOR ( 'NONE', #192, 39.37007874015748143 ) ;
#44 = CARTESIAN_POINT ( 'NONE',  ( 0.003999999999999999216, 0.0000000000000000000, 0.0000000000000000000 ) ) ;
#45 = PLANE ( 'NONE',  #117 ) ;
#46 = FILL_AREA_STYLE_COLOUR ( '', #230 ) ;
#47 =( GEOMETRIC_REPRESENTATION_CONTEXT ( 3 ) GLOBAL_UNCERTAINTY_ASSIGNED_CONTEXT ( ( #15 ) ) GLOBAL_UNIT_ASSIGNED_CONTEXT ( ( #91, #114, #171 ) ) REPRESENTATION_CONTEXT ( 'NONE', 'WORKASPACE' ) );
#48 = MECHANICAL_DESIGN_GEOMETRIC_PRESENTATION_REPRESENTATION (  '', ( #98 ), #66 ) ;
#49 = DIRECTION ( 'NONE',  ( -1.000000000000000000, 0.0000000000000000000, 0.0000000000000000000 ) ) ;
#50 = ORIENTED_EDGE ( 'NONE', *, *, #83, .F. ) ;
#51 = CARTESIAN_POINT ( 'NONE',  ( -0.1100000000000001948, 0.0000000000000000000, 2.500000000000000000 ) ) ;
#52 = CARTESIAN_POINT ( 'NONE',  ( 0.0000000000000000000, 0.0000000000000000000, 2.500000000000000000 ) ) ;
#53 = CARTESIAN_POINT ( 'NONE',  ( -0.1250000000000000000, 0.0000000000000000000, 2.500000000000000000 ) ) ;
#54 = APPLICATION_PROTOCOL_DEFINITION ( 'draft international standard', 'automotive_design', 1998, #158 ) ;
#55 = VERTEX_POINT ( 'NONE', #231 ) ;
#56 =( GEOMETRIC_REPRESENTATION_CONTEXT ( 3 ) GLOBAL_UNCERTAINTY_ASSIGNED_CONTEXT ( ( #201 ) ) GLOBAL_UNIT_ASSIGNED_CONTEXT ( ( #103, #237, #199 ) ) REPRESENTATION_CONTEXT ( 'NONE', 'WORKASPACE' ) );
#57 = FILL_AREA_STYLE ('',( #37 ) ) ;
#58 = ADVANCED_FACE ( 'NONE', ( #101 ), #154, .T. ) ;
#59 = AXIS2_PLACEMENT_3D ( 'NONE', #225, #7, #67 ) ;
#60 = DIRECTION ( 'NONE',  ( 1.000000000000000000, 0.0000000000000000000, 0.0000000000000000000 ) ) ;
#61 = EDGE_CURVE ( 'NONE', #137, #209, #140, .T. ) ;
#62 = SHAPE_DEFINITION_REPRESENTATION ( #18, #131 ) ;
#63 = CARTESIAN_POINT ( 'NONE',  ( -0.1250000000000000000, 0.0000000000000000000, 0.2095781477158332462 ) ) ;
#64 = DIRECTION ( 'NONE',  ( 0.0000000000000000000, 0.0000000000000000000, -1.000000000000000000 ) ) ;
#65 = AXIS2_PLACEMENT_3D ( 'NONE', #196, #22, #2 ) ;
#66 =( GEOMETRIC_REPRESENTATION_CONTEXT ( 3 ) GLOBAL_UNCERTAINTY_ASSIGNED_CONTEXT ( ( #150 ) ) GLOBAL_UNIT_ASSIGNED_CONTEXT ( ( #179, #243, #200 ) ) REPRESENTATION_CONTEXT ( 'NONE', 'WORKASPACE' ) );
#67 = DIRECTION ( 'NONE',  ( 1.000000000000000000, 0.0000000000000000000, 0.0000000000000000000 ) ) ;
#68 = CIRCLE ( 'NONE', #181, 0.003999999999999999216 ) ;
#69 = DIRECTION ( 'NONE',  ( 0.0000000000000000000, 0.0000000000000000000, 1.000000000000000000 ) ) ;
#70 = EDGE_LOOP ( 'NONE', ( #112, #155, #75, #135 ) ) ;
#71 = SURFACE_SIDE_STYLE ('',( #164 ) ) ;
#72 = VERTEX_POINT ( 'NONE', #173 ) ;
#73 = EDGE_CURVE ( 'NONE', #209, #55, #30, .T. ) ;
#74 = AXIS2_PLACEMENT_3D ( 'NONE', #141, #195, #82 ) ;
#75 = ORIENTED_EDGE ( 'NONE', *, *, #197, .T. ) ;
#76 = DIRECTION ( 'NONE',  ( -0.0000000000000000000, -0.0000000000000000000, -1.000000000000000000 ) ) ;
#77 = EDGE_LOOP ( 'NONE', ( #153, #246 ) ) ;
#78 = ORIENTED_EDGE ( 'NONE', *, *, #83, .T. ) ;
#79 = CARTESIAN_POINT ( 'NONE',  ( 0.1100000000000001948, 1.347111479062090784E-17, 2.500000000000000000 ) ) ;
#80 = CARTESIAN_POINT ( 'NONE',  ( 0.0000000000000000000, 0.0000000000000000000, 2.500000000000000000 ) ) ;
#81 = DIRECTION ( 'NONE',  ( 0.0000000000000000000, 0.0000000000000000000, 1.000000000000000000 ) ) ;
#82 = DIRECTION ( 'NONE',  ( -1.000000000000000000, 0.0000000000000000000, 0.0000000000000000000 ) ) ;
#83 = EDGE_CURVE ( 'NONE', #223, #55, #212, .T. ) ;
#84 = DIRECTION ( 'NONE',  ( 1.000000000000000000, 0.0000000000000000000, 0.0000000000000000000 ) ) ;
#85 = DIRECTION ( 'NONE',  ( 0.0000000000000000000, 0.0000000000000000000, -1.000000000000000000 ) ) ;
#86 = PRESENTATION_STYLE_ASSIGNMENT (( #105 ) ) ;
#87 = EDGE_CURVE ( 'NONE', #223, #137, #108, .T. ) ;
#88 = DIRECTION ( 'NONE',  ( 1.000000000000000000, 0.0000000000000000000, 0.0000000000000000000 ) ) ;
#89 = VERTEX_POINT ( 'NONE', #157 ) ;
#90 = ORIENTED_EDGE ( 'NONE', *, *, #136, .F. ) ;
#91 =( CONVERSION_BASED_UNIT ( 'INCH', #138 ) LENGTH_UNIT ( ) NAMED_UNIT ( #187 ) );
#92 = MECHANICAL_DESIGN_GEOMETRIC_PRESENTATION_REPRESENTATION (  '', ( #229 ), #47 ) ;
#93 = ORIENTED_EDGE ( 'NONE', *, *, #133, .T. ) ;
#94 = EDGE_CURVE ( 'NONE', #209, #89, #100, .T. ) ;
#95 = CARTESIAN_POINT ( 'NONE',  ( 0.0000000000000000000, 0.0000000000000000000, 2.485000000000000320 ) ) ;
#96 = CARTESIAN_POINT ( 'NONE',  ( 0.0000000000000000000, 0.0000000000000000000, 0.0000000000000000000 ) ) ;
#97 = CONICAL_SURFACE ( 'NONE', #210, 0.1100000000000001948, 0.7853981633974517207 ) ;
#98 = STYLED_ITEM ( 'NONE', ( #86 ), #131 ) ;
#99 = CARTESIAN_POINT ( 'NONE',  ( 0.1100000000000001948, 1.438959988998141146E-17, 2.500000000000000000 ) ) ;
#100 = LINE ( 'NONE', #215, #160 ) ;
#101 = FACE_OUTER_BOUND ( 'NONE', #70, .T. ) ;
#102 = AXIS2_PLACEMENT_3D ( 'NONE', #23, #120, #84 ) ;
#103 =( CONVERSION_BASED_UNIT ( 'INCH', #145 ) LENGTH_UNIT ( ) NAMED_UNIT ( #186 ) );
#104 = ADVANCED_FACE ( 'NONE', ( #213 ), #45, .F. ) ;
#105 = SURFACE_STYLE_USAGE ( .BOTH. , #71 ) ;
#106 = CYLINDRICAL_SURFACE ( 'NONE', #244, 0.1250000000000000000 ) ;
#107 = ORIENTED_EDGE ( 'NONE', *, *, #87, .F. ) ;
#108 = CIRCLE ( 'NONE', #8, 0.1100000000000001948 ) ;
#109 = DIRECTION ( 'NONE',  ( -0.0000000000000000000, -0.0000000000000000000, -1.000000000000000000 ) ) ;
#110 = SURFACE_SIDE_STYLE ('',( #208 ) ) ;
#111 = EDGE_CURVE ( 'NONE', #89, #130, #148, .T. ) ;
#112 = ORIENTED_EDGE ( 'NONE', *, *, #33, .F. ) ;
#113 =( LENGTH_UNIT ( ) NAMED_UNIT ( * ) SI_UNIT ( $, .METRE. ) );
#114 =( NAMED_UNIT ( * ) PLANE_ANGLE_UNIT ( ) SI_UNIT ( $, .RADIAN. ) );
#115 = EDGE_CURVE ( 'NONE', #55, #209, #38, .T. ) ;
#116 = CIRCLE ( 'NONE', #74, 0.1250000000000000000 ) ;
#117 = AXIS2_PLACEMENT_3D ( 'NONE', #96, #193, #3 ) ;
#118 = EDGE_LOOP ( 'NONE', ( #166, #90, #93, #227 ) ) ;
#119 = PLANE ( 'NONE',  #65 ) ;
#120 = DIRECTION ( 'NONE',  ( 0.0000000000000000000, 0.0000000000000000000, -1.000000000000000000 ) ) ;
#121 = DIRECTION ( 'NONE',  ( -1.000000000000000000, 0.0000000000000000000, 0.0000000000000000000 ) ) ;
#122 = FACE_OUTER_BOUND ( 'NONE', #77, .T. ) ;
#123 = CARTESIAN_POINT ( 'NONE',  ( 0.0000000000000000000, 0.0000000000000000000, 2.500000000000000000 ) ) ;
#124 = COLOUR_RGB ( '',0.7921568627450980005, 0.8196078431372548767, 0.9333333333333333481 ) ;
#125 = FILL_AREA_STYLE ('',( #46 ) ) ;
#126 = LENGTH_MEASURE_WITH_UNIT ( LENGTH_MEASURE( 0.02539999999999999897 ), #129 );
#127 = ORIENTED_EDGE ( 'NONE', *, *, #9, .T. ) ;
#128 = LINE ( 'NONE', #182, #198 ) ;
#129 =( LENGTH_UNIT ( ) NAMED_UNIT ( * ) SI_UNIT ( $, .METRE. ) );
#130 = VERTEX_POINT ( 'NONE', #63 ) ;
#131 = ADVANCED_BREP_SHAPE_REPRESENTATION ( 'Micro_RSC-250-1', ( #34, #25 ), #56 ) ;
#132 = FACE_OUTER_BOUND ( 'NONE', #118, .T. ) ;
#133 = EDGE_CURVE ( 'NONE', #134, #89, #214, .T. ) ;
#134 = VERTEX_POINT ( 'NONE', #41 ) ;
#135 = ORIENTED_EDGE ( 'NONE', *, *, #133, .F. ) ;
#136 = EDGE_CURVE ( 'NONE', #134, #72, #68, .T. ) ;
#137 = VERTEX_POINT ( 'NONE', #99 ) ;
#138 = LENGTH_MEASURE_WITH_UNIT ( LENGTH_MEASURE( 0.02539999999999999897 ), #113 );
#139 = CONICAL_SURFACE ( 'NONE', #165, 0.1100000000000001948, 0.7853981633974517207 ) ;
#140 = LINE ( 'NONE', #79, #43 ) ;
#141 = CARTESIAN_POINT ( 'NONE',  ( 0.0000000000000000000, 0.0000000000000000000, 0.2095781477158332462 ) ) ;
#142 = DIRECTION ( 'NONE',  ( -0.0000000000000000000, -0.0000000000000000000, -1.000000000000000000 ) ) ;
#143 = DIRECTION ( 'NONE',  ( -0.0000000000000000000, -0.0000000000000000000, -1.000000000000000000 ) ) ;
#144 = CIRCLE ( 'NONE', #16, 0.1100000000000001948 ) ;
#145 = LENGTH_MEASURE_WITH_UNIT ( LENGTH_MEASURE( 0.02539999999999999897 ), #29 );
#146 = PRODUCT_DEFINITION_CONTEXT ( 'detailed design', #158, 'design' ) ;
#147 = FACE_OUTER_BOUND ( 'NONE', #1, .T. ) ;
#148 = CIRCLE ( 'NONE', #238, 0.1250000000000000000 ) ;
#149 = EDGE_LOOP ( 'NONE', ( #39, #245 ) ) ;
#150 = UNCERTAINTY_MEASURE_WITH_UNIT (LENGTH_MEASURE( 1.000000000000000082E-05 ), #179, 'distance_accuracy_value', 'NONE');
#151 = ORIENTED_EDGE ( 'NONE', *, *, #61, .F. ) ;
#152 = PRODUCT_CONTEXT ( 'NONE', #13, 'mechanical' ) ;
#153 = ORIENTED_EDGE ( 'NONE', *, *, #87, .T. ) ;
#154 = CONICAL_SURFACE ( 'NONE', #59, 0.003999999999999999216, 0.5235987755983008141 ) ;
#155 = ORIENTED_EDGE ( 'NONE', *, *, #249, .T. ) ;
#156 = AXIS2_PLACEMENT_3D ( 'NONE', #95, #64, #60 ) ;
#157 = CARTESIAN_POINT ( 'NONE',  ( 0.1250000000000000000, 1.530808498934191509E-17, 0.2095781477158332462 ) ) ;
#158 = APPLICATION_CONTEXT ( 'automotive_design' ) ;
#159 = DIRECTION ( 'NONE',  ( -1.000000000000000000, 0.0000000000000000000, 0.0000000000000000000 ) ) ;
#160 = VECTOR ( 'NONE', #143, 39.37007874015748143 ) ;
#161 = DIRECTION ( 'NONE',  ( 1.000000000000000000, 0.0000000000000000000, 0.0000000000000000000 ) ) ;
#162 = CONICAL_SURFACE ( 'NONE', #174, 0.003999999999999999216, 0.5235987755983008141 ) ;
#163 = ADVANCED_FACE ( 'NONE', ( #24 ), #172, .T. ) ;
#164 = SURFACE_STYLE_FILL_AREA ( #125 ) ;
#165 = AXIS2_PLACEMENT_3D ( 'NONE', #184, #85, #49 ) ;
#166 = ORIENTED_EDGE ( 'NONE', *, *, #249, .F. ) ;
#167 = ORIENTED_EDGE ( 'NONE', *, *, #220, .F. ) ;
#168 = EDGE_LOOP ( 'NONE', ( #31, #248, #222, #247 ) ) ;
#169 = VECTOR ( 'NONE', #176, 39.37007874015748143 ) ;
#170 = PRODUCT_DEFINITION_FORMATION_WITH_SPECIFIED_SOURCE ( 'ANY', '', #20, .NOT_KNOWN. ) ;
#171 =( NAMED_UNIT ( * ) SI_UNIT ( $, .STERADIAN. ) SOLID_ANGLE_UNIT ( ) );
#172 = CYLINDRICAL_SURFACE ( 'NONE', #4, 0.1250000000000000000 ) ;
#173 = CARTESIAN_POINT ( 'NONE',  ( -0.003999999999999999216, 7.898971854500427644E-18, 0.0000000000000000000 ) ) ;
#174 = AXIS2_PLACEMENT_3D ( 'NONE', #204, #19, #35 ) ;
#175 = CARTESIAN_POINT ( 'NONE',  ( 0.0000000000000000000, 0.0000000000000000000, 2.500000000000000000 ) ) ;
#176 = DIRECTION ( 'NONE',  ( 0.5000000000000016653, 0.0000000000000000000, 0.8660254037844377084 ) ) ;
#177 = CARTESIAN_POINT ( 'NONE',  ( 0.0000000000000000000, 0.0000000000000000000, 2.500000000000000000 ) ) ;
#178 = CIRCLE ( 'NONE', #194, 0.003999999999999999216 ) ;
#179 =( CONVERSION_BASED_UNIT ( 'INCH', #126 ) LENGTH_UNIT ( ) NAMED_UNIT ( #205 ) );
#180 = ORIENTED_EDGE ( 'NONE', *, *, #111, .F. ) ;
#181 = AXIS2_PLACEMENT_3D ( 'NONE', #232, #26, #159 ) ;
#182 = CARTESIAN_POINT ( 'NONE',  ( -0.003999999999999999216, 4.898587196589411612E-19, 0.0000000000000000000 ) ) ;
#183 = ORIENTED_EDGE ( 'NONE', *, *, #73, .T. ) ;
#184 = CARTESIAN_POINT ( 'NONE',  ( 0.0000000000000000000, 0.0000000000000000000, 2.500000000000000000 ) ) ;
#185 = ADVANCED_FACE ( 'NONE', ( #42 ), #97, .T. ) ;
#186 = DIMENSIONAL_EXPONENTS ( 1.000000000000000000, 0.0000000000000000000, 0.0000000000000000000, 0.0000000000000000000, 0.0000000000000000000, 0.0000000000000000000, 0.0000000000000000000 ) ;
#187 = DIMENSIONAL_EXPONENTS ( 1.000000000000000000, 0.0000000000000000000, 0.0000000000000000000, 0.0000000000000000000, 0.0000000000000000000, 0.0000000000000000000, 0.0000000000000000000 ) ;
#188 = ORIENTED_EDGE ( 'NONE', *, *, #94, .F. ) ;
#189 = CARTESIAN_POINT ( 'NONE',  ( 0.0000000000000000000, 0.0000000000000000000, 0.0000000000000000000 ) ) ;
#190 = PRESENTATION_LAYER_ASSIGNMENT (  '', '', ( #229 ) ) ;
#191 = LINE ( 'NONE', #53, #206 ) ;
#192 = DIRECTION ( 'NONE',  ( 0.7071067811865499042, 8.659560562354961208E-17, -0.7071067811865451302 ) ) ;
#193 = DIRECTION ( 'NONE',  ( 0.0000000000000000000, 0.0000000000000000000, 1.000000000000000000 ) ) ;
#194 = AXIS2_PLACEMENT_3D ( 'NONE', #189, #76, #21 ) ;
#195 = DIRECTION ( 'NONE',  ( -0.0000000000000000000, -0.0000000000000000000, -1.000000000000000000 ) ) ;
#196 = CARTESIAN_POINT ( 'NONE',  ( 0.0000000000000000000, 0.0000000000000000000, 2.500000000000000000 ) ) ;
#197 = EDGE_CURVE ( 'NONE', #130, #89, #116, .T. ) ;
#198 = VECTOR ( 'NONE', #240, 39.37007874015748143 ) ;
#199 =( NAMED_UNIT ( * ) SI_UNIT ( $, .STERADIAN. ) SOLID_ANGLE_UNIT ( ) );
#200 =( NAMED_UNIT ( * ) SI_UNIT ( $, .STERADIAN. ) SOLID_ANGLE_UNIT ( ) );
#201 = UNCERTAINTY_MEASURE_WITH_UNIT (LENGTH_MEASURE( 1.000000000000000082E-05 ), #103, 'distance_accuracy_value', 'NONE');
#202 = CLOSED_SHELL ( 'NONE', ( #58, #185, #163, #226, #211, #242, #28, #104 ) ) ;
#203 = APPLICATION_PROTOCOL_DEFINITION ( 'draft international standard', 'automotive_design', 1998, #13 ) ;
#204 = CARTESIAN_POINT ( 'NONE',  ( 0.0000000000000000000, 0.0000000000000000000, 0.0000000000000000000 ) ) ;
#205 = DIMENSIONAL_EXPONENTS ( 1.000000000000000000, 0.0000000000000000000, 0.0000000000000000000, 0.0000000000000000000, 0.0000000000000000000, 0.0000000000000000000, 0.0000000000000000000 ) ;
#206 = VECTOR ( 'NONE', #224, 39.37007874015748143 ) ;
#207 = SURFACE_STYLE_USAGE ( .BOTH. , #110 ) ;
#208 = SURFACE_STYLE_FILL_AREA ( #57 ) ;
#209 = VERTEX_POINT ( 'NONE', #233 ) ;
#210 = AXIS2_PLACEMENT_3D ( 'NONE', #123, #235, #121 ) ;
#211 = ADVANCED_FACE ( 'NONE', ( #122 ), #119, .T. ) ;
#212 = LINE ( 'NONE', #228, #234 ) ;
#213 = FACE_OUTER_BOUND ( 'NONE', #149, .T. ) ;
#214 = LINE ( 'NONE', #44, #169 ) ;
#215 = CARTESIAN_POINT ( 'NONE',  ( 0.1250000000000000000, 1.530808498934191509E-17, 2.500000000000000000 ) ) ;
#216 = CARTESIAN_POINT ( 'NONE',  ( 0.0000000000000000000, 0.0000000000000000000, 0.2095781477158332462 ) ) ;
#217 = PRESENTATION_LAYER_ASSIGNMENT (  '', '', ( #98 ) ) ;
#218 = DIRECTION ( 'NONE',  ( 1.000000000000000000, 0.0000000000000000000, 0.0000000000000000000 ) ) ;
#219 = ORIENTED_EDGE ( 'NONE', *, *, #73, .F. ) ;
#220 = EDGE_CURVE ( 'NONE', #137, #223, #144, .T. ) ;
#221 = FACE_OUTER_BOUND ( 'NONE', #10, .T. ) ;
#222 = ORIENTED_EDGE ( 'NONE', *, *, #197, .F. ) ;
#223 = VERTEX_POINT ( 'NONE', #51 ) ;
#224 = DIRECTION ( 'NONE',  ( -0.0000000000000000000, -0.0000000000000000000, -1.000000000000000000 ) ) ;
#225 = CARTESIAN_POINT ( 'NONE',  ( 0.0000000000000000000, 0.0000000000000000000, 0.0000000000000000000 ) ) ;
#226 = ADVANCED_FACE ( 'NONE', ( #147 ), #106, .T. ) ;
#227 = ORIENTED_EDGE ( 'NONE', *, *, #111, .T. ) ;
#228 = CARTESIAN_POINT ( 'NONE',  ( -0.1100000000000001948, 0.0000000000000000000, 2.500000000000000000 ) ) ;
#229 = STYLED_ITEM ( 'NONE', ( #36 ), #34 ) ;
#230 = COLOUR_RGB ( '',0.7921568627450980005, 0.8196078431372548767, 0.9333333333333333481 ) ;
#231 = CARTESIAN_POINT ( 'NONE',  ( -0.1250000000000000000, 0.0000000000000000000, 2.485000000000000320 ) ) ;
#232 = CARTESIAN_POINT ( 'NONE',  ( 0.0000000000000000000, 0.0000000000000000000, 0.0000000000000000000 ) ) ;
#233 = CARTESIAN_POINT ( 'NONE',  ( 0.1250000000000000000, 1.530808498934191509E-17, 2.485000000000000320 ) ) ;
#234 = VECTOR ( 'NONE', #5, 39.37007874015748143 ) ;
#235 = DIRECTION ( 'NONE',  ( 0.0000000000000000000, 0.0000000000000000000, -1.000000000000000000 ) ) ;
#236 = PRODUCT_DEFINITION ( 'UNKNOWN', '', #170, #146 ) ;
#237 =( NAMED_UNIT ( * ) PLANE_ANGLE_UNIT ( ) SI_UNIT ( $, .RADIAN. ) );
#238 = AXIS2_PLACEMENT_3D ( 'NONE', #216, #27, #40 ) ;
#239 = CARTESIAN_POINT ( 'NONE',  ( 0.0000000000000000000, 0.0000000000000000000, 0.0000000000000000000 ) ) ;
#240 = DIRECTION ( 'NONE',  ( -0.5000000000000016653, 6.123233995736786990E-17, 0.8660254037844377084 ) ) ;
#241 = ORIENTED_EDGE ( 'NONE', *, *, #115, .F. ) ;
#242 = ADVANCED_FACE ( 'NONE', ( #221 ), #139, .T. ) ;
#243 =( NAMED_UNIT ( * ) PLANE_ANGLE_UNIT ( ) SI_UNIT ( $, .RADIAN. ) );
#244 = AXIS2_PLACEMENT_3D ( 'NONE', #52, #109, #11 ) ;
#245 = ORIENTED_EDGE ( 'NONE', *, *, #33, .T. ) ;
#246 = ORIENTED_EDGE ( 'NONE', *, *, #220, .T. ) ;
#247 = ORIENTED_EDGE ( 'NONE', *, *, #9, .F. ) ;
#248 = ORIENTED_EDGE ( 'NONE', *, *, #94, .T. ) ;
#249 = EDGE_CURVE ( 'NONE', #72, #130, #128, .T. ) ;
ENDSEC;
END-ISO-10303-21;
