ISO-10303-21;
HEADER;
FILE_DESCRIPTION (( 'STEP AP214' ),
    '1' );
FILE_NAME ('49240.STEP',
    '2023-06-30T21:58:45',
    ( '' ),
    ( '' ),
    'SwSTEP 2.0',
    'SolidWorks 2023',
    '' );
FILE_SCHEMA (( 'AUTOMOTIVE_DESIGN' ));
ENDSEC;

DATA;
#1 = PRESENTATION_STYLE_ASSIGNMENT (( #151 ) ) ;
#2 = CARTESIAN_POINT ( 'NONE',  ( -0.1874999999999995837, 1.500000000000000222, 0.000000000000000000 ) ) ;
#3 = COLOUR_RGB ( '',1.000000000000000000, 0.000000000000000000, 0.000000000000000000 ) ;
#4 = DIRECTION ( 'NONE',  ( -0.000000000000000000, -1.000000000000000000, -0.000000000000000000 ) ) ;
#5 = SURFACE_STYLE_FILL_AREA ( #65 ) ;
#6 = ORIENTED_EDGE ( 'NONE', *, *, #157, .T. ) ;
#7 = DIRECTION ( 'NONE',  ( -1.224646799147353454E-16, 1.000000000000000000, -0.000000000000000000 ) ) ;
#8 = CARTESIAN_POINT ( 'NONE',  ( 0.1874999999999996669, 3.500000000000000000, 2.296212748401284952E-17 ) ) ;
#9 = ORIENTED_EDGE ( 'NONE', *, *, #144, .T. ) ;
#10 = ORIENTED_EDGE ( 'NONE', *, *, #13, .T. ) ;
#11 = MECHANICAL_DESIGN_GEOMETRIC_PRESENTATION_REPRESENTATION (  '', ( #68 ), #180 ) ;
#12 = CYLINDRICAL_SURFACE ( 'NONE', #264, 0.1874999999999999167 ) ;
#13 = EDGE_CURVE ( 'NONE', #299, #328, #75, .T. ) ;
#14 = PRESENTATION_STYLE_ASSIGNMENT (( #80 ) ) ;
#15 = DIRECTION ( 'NONE',  ( 1.000000000000000000, 1.224646799147353454E-16, 0.000000000000000000 ) ) ;
#16 = AXIS2_PLACEMENT_3D ( 'NONE', #352, #324, #70 ) ;
#17 = DIRECTION ( 'NONE',  ( -1.224646799147353454E-16, 1.000000000000000000, -0.000000000000000000 ) ) ;
#18 = DIMENSIONAL_EXPONENTS ( 1.000000000000000000, 0.000000000000000000, 0.000000000000000000, 0.000000000000000000, 0.000000000000000000, 0.000000000000000000, 0.000000000000000000 ) ;
#19 = DIRECTION ( 'NONE',  ( 1.000000000000000000, 0.000000000000000000, -1.224646799147353207E-16 ) ) ;
#20 = CARTESIAN_POINT ( 'NONE',  ( 0.1874999999999998057, 3.500000000000000000, 0.000000000000000000 ) ) ;
#21 = SURFACE_SIDE_STYLE ('',( #54 ) ) ;
#22 =( GEOMETRIC_REPRESENTATION_CONTEXT ( 3 ) GLOBAL_UNCERTAINTY_ASSIGNED_CONTEXT ( ( #265 ) ) GLOBAL_UNIT_ASSIGNED_CONTEXT ( ( #235, #30, #268 ) ) REPRESENTATION_CONTEXT ( 'NONE', 'WORKASPACE' ) );
#23 =( NAMED_UNIT ( * ) SI_UNIT ( $, .STERADIAN. ) SOLID_ANGLE_UNIT ( ) );
#24 = DIRECTION ( 'NONE',  ( -1.224646799147353454E-16, 1.000000000000000000, -0.000000000000000000 ) ) ;
#25 = FILL_AREA_STYLE_COLOUR ( '', #270 ) ;
#26 = EDGE_CURVE ( 'NONE', #251, #104, #98, .T. ) ;
#27 = LENGTH_MEASURE_WITH_UNIT ( LENGTH_MEASURE( 0.02539999999999999897 ), #291 );
#28 = UNCERTAINTY_MEASURE_WITH_UNIT (LENGTH_MEASURE( 1.000000000000000082E-05 ), #76, 'distance_accuracy_value', 'NONE');
#29 = CIRCLE ( 'NONE', #320, 0.1875000000000000555 ) ;
#30 =( NAMED_UNIT ( * ) PLANE_ANGLE_UNIT ( ) SI_UNIT ( $, .RADIAN. ) );
#31 = FILL_AREA_STYLE_COLOUR ( '', #3 ) ;
#32 = PRODUCT_RELATED_PRODUCT_CATEGORY ( 'part', '', ( #334 ) ) ;
#33 = DIRECTION ( 'NONE',  ( -1.000000000000000000, 0.000000000000000000, 0.000000000000000000 ) ) ;
#34 = ORIENTED_EDGE ( 'NONE', *, *, #276, .F. ) ;
#35 = STYLED_ITEM ( 'NONE', ( #14 ), #44 ) ;
#36 = ADVANCED_FACE ( 'NONE', ( #136 ), #87, .T. ) ;
#37 = LENGTH_MEASURE_WITH_UNIT ( LENGTH_MEASURE( 0.02539999999999999897 ), #81 );
#38 = EDGE_LOOP ( 'NONE', ( #248, #97, #102, #6 ) ) ;
#39 = ORIENTED_EDGE ( 'NONE', *, *, #157, .F. ) ;
#40 = DIRECTION ( 'NONE',  ( 0.000000000000000000, 0.000000000000000000, -1.000000000000000000 ) ) ;
#41 = EDGE_LOOP ( 'NONE', ( #220, #71, #128, #272, #133 ) ) ;
#42 = CARTESIAN_POINT ( 'NONE',  ( 0.000000000000000000, 0.000000000000000000, 0.000000000000000000 ) ) ;
#43 = ORIENTED_EDGE ( 'NONE', *, *, #224, .T. ) ;
#44 = ADVANCED_FACE ( 'NONE', ( #342 ), #114, .T. ) ;
#45 = PRODUCT_DEFINITION_CONTEXT ( 'detailed design', #300, 'design' ) ;
#46 = DIRECTION ( 'NONE',  ( 0.000000000000000000, 0.000000000000000000, -1.000000000000000000 ) ) ;
#47 = FILL_AREA_STYLE_COLOUR ( '', #293 ) ;
#48 =( CONVERSION_BASED_UNIT ( 'INCH', #371 ) LENGTH_UNIT ( ) NAMED_UNIT ( #259 ) );
#49 = DIMENSIONAL_EXPONENTS ( 1.000000000000000000, 0.000000000000000000, 0.000000000000000000, 0.000000000000000000, 0.000000000000000000, 0.000000000000000000, 0.000000000000000000 ) ;
#50 = VECTOR ( 'NONE', #304, 39.37007874015748143 ) ;
#51 = DIRECTION ( 'NONE',  ( -1.224646799147353454E-16, 1.000000000000000000, -0.000000000000000000 ) ) ;
#52 = CARTESIAN_POINT ( 'NONE',  ( 0.000000000000000000, 0.1875000000000000833, 0.000000000000000000 ) ) ;
#53 = DIRECTION ( 'NONE',  ( -1.224646799147353454E-16, 1.000000000000000000, -0.000000000000000000 ) ) ;
#54 = SURFACE_STYLE_FILL_AREA ( #204 ) ;
#55 = MANIFOLD_SOLID_BREP ( 'Revolve - Tool Body (Straight Shanked)', #370 ) ;
#56 = DIRECTION ( 'NONE',  ( -0.000000000000000000, -1.000000000000000000, -0.000000000000000000 ) ) ;
#57 = DIRECTION ( 'NONE',  ( -1.000000000000000000, 0.000000000000000000, 0.000000000000000000 ) ) ;
#58 = VECTOR ( 'NONE', #93, 39.37007874015748143 ) ;
#59 = SURFACE_STYLE_USAGE ( .BOTH. , #316 ) ;
#60 = CIRCLE ( 'NONE', #123, 0.1874999999999999722 ) ;
#61 = SURFACE_STYLE_USAGE ( .BOTH. , #262 ) ;
#62 = ADVANCED_FACE ( 'NONE', ( #266 ), #118, .T. ) ;
#63 =( GEOMETRIC_REPRESENTATION_CONTEXT ( 3 ) GLOBAL_UNCERTAINTY_ASSIGNED_CONTEXT ( ( #117 ) ) GLOBAL_UNIT_ASSIGNED_CONTEXT ( ( #372, #322, #240 ) ) REPRESENTATION_CONTEXT ( 'NONE', 'WORKASPACE' ) );
#64 = DIRECTION ( 'NONE',  ( -0.000000000000000000, -1.000000000000000000, -0.000000000000000000 ) ) ;
#65 = FILL_AREA_STYLE ('',( #138 ) ) ;
#66 = EDGE_LOOP ( 'NONE', ( #131, #10 ) ) ;
#67 = FACE_OUTER_BOUND ( 'NONE', #222, .T. ) ;
#68 = STYLED_ITEM ( 'NONE', ( #177 ), #108 ) ;
#69 = EDGE_CURVE ( 'NONE', #163, #192, #350, .T. ) ;
#70 = DIRECTION ( 'NONE',  ( 1.000000000000000000, 0.000000000000000000, 0.000000000000000000 ) ) ;
#71 = ORIENTED_EDGE ( 'NONE', *, *, #88, .T. ) ;
#72 = ORIENTED_EDGE ( 'NONE', *, *, #69, .T. ) ;
#73 = DIRECTION ( 'NONE',  ( -1.224646799147353454E-16, 1.000000000000000000, -0.000000000000000000 ) ) ;
#74 = ORIENTED_EDGE ( 'NONE', *, *, #315, .T. ) ;
#75 = CIRCLE ( 'NONE', #122, 0.1874999999999999445 ) ;
#76 =( CONVERSION_BASED_UNIT ( 'INCH', #37 ) LENGTH_UNIT ( ) NAMED_UNIT ( #366 ) );
#77 = STYLED_ITEM ( 'NONE', ( #258 ), #326 ) ;
#78 = CARTESIAN_POINT ( 'NONE',  ( 0.000000000000000000, 0.000000000000000000, 0.000000000000000000 ) ) ;
#79 =( NAMED_UNIT ( * ) SI_UNIT ( $, .STERADIAN. ) SOLID_ANGLE_UNIT ( ) );
#80 = SURFACE_STYLE_USAGE ( .BOTH. , #21 ) ;
#81 =( LENGTH_UNIT ( ) NAMED_UNIT ( * ) SI_UNIT ( $, .METRE. ) );
#82 = SURFACE_STYLE_FILL_AREA ( #281 ) ;
#83 = DIRECTION ( 'NONE',  ( 0.000000000000000000, 1.000000000000000000, 0.000000000000000000 ) ) ;
#84 = DIRECTION ( 'NONE',  ( 0.000000000000000000, 0.000000000000000000, -1.000000000000000000 ) ) ;
#85 = PRESENTATION_LAYER_ASSIGNMENT (  '', '', ( #89 ) ) ;
#86 = CIRCLE ( 'NONE', #181, 0.1874999999999999445 ) ;
#87 = PLANE ( 'NONE',  #175 ) ;
#88 = EDGE_CURVE ( 'NONE', #124, #186, #215, .T. ) ;
#89 = STYLED_ITEM ( 'NONE', ( #1 ), #62 ) ;
#90 = CIRCLE ( 'NONE', #297, 0.1874999999999999722 ) ;
#91 = UNCERTAINTY_MEASURE_WITH_UNIT (LENGTH_MEASURE( 1.000000000000000082E-05 ), #367, 'distance_accuracy_value', 'NONE');
#92 = SURFACE_STYLE_FILL_AREA ( #349 ) ;
#93 = DIRECTION ( 'NONE',  ( -0.000000000000000000, -1.000000000000000000, -0.000000000000000000 ) ) ;
#94 = AXIS2_PLACEMENT_3D ( 'NONE', #308, #51, #340 ) ;
#95 = DIRECTION ( 'NONE',  ( -1.224646799147353454E-16, 1.000000000000000000, -0.000000000000000000 ) ) ;
#96 =( NAMED_UNIT ( * ) SI_UNIT ( $, .STERADIAN. ) SOLID_ANGLE_UNIT ( ) );
#97 = ORIENTED_EDGE ( 'NONE', *, *, #252, .T. ) ;
#98 = CIRCLE ( 'NONE', #94, 0.1874999999999996947 ) ;
#99 = AXIS2_PLACEMENT_3D ( 'NONE', #230, #53, #173 ) ;
#100 = EDGE_LOOP ( 'NONE', ( #202, #195 ) ) ;
#101 = PLANE ( 'NONE',  #146 ) ;
#102 = ORIENTED_EDGE ( 'NONE', *, *, #213, .T. ) ;
#103 = CARTESIAN_POINT ( 'NONE',  ( 0.1874999999999998057, 3.500000000000000000, 2.296212748401286185E-17 ) ) ;
#104 = VERTEX_POINT ( 'NONE', #2 ) ;
#105 = MECHANICAL_DESIGN_GEOMETRIC_PRESENTATION_REPRESENTATION (  '', ( #214 ), #137 ) ;
#106 = CARTESIAN_POINT ( 'NONE',  ( 1.224646799147353207E-16, 1.500000000000000222, 0.000000000000000000 ) ) ;
#107 = CARTESIAN_POINT ( 'NONE',  ( -1.224646799147353207E-16, 3.500000000000000000, 0.000000000000000000 ) ) ;
#108 = ADVANCED_FACE ( 'NONE', ( #183 ), #185, .T. ) ;
#109 =( NAMED_UNIT ( * ) PLANE_ANGLE_UNIT ( ) SI_UNIT ( $, .RADIAN. ) );
#110 = DIRECTION ( 'NONE',  ( -0.000000000000000000, -1.000000000000000000, -0.000000000000000000 ) ) ;
#111 = DIRECTION ( 'NONE',  ( 0.000000000000000000, 0.000000000000000000, -1.000000000000000000 ) ) ;
#112 = PRESENTATION_LAYER_ASSIGNMENT (  '', '', ( #35 ) ) ;
#113 = CARTESIAN_POINT ( 'NONE',  ( 0.000000000000000000, 1.500000000000000222, 0.000000000000000000 ) ) ;
#114 = CYLINDRICAL_SURFACE ( 'NONE', #302, 0.1874999999999999167 ) ;
#115 = PRESENTATION_LAYER_ASSIGNMENT (  '', '', ( #68 ) ) ;
#116 = MECHANICAL_DESIGN_GEOMETRIC_PRESENTATION_REPRESENTATION (  '', ( #154 ), #170 ) ;
#117 = UNCERTAINTY_MEASURE_WITH_UNIT (LENGTH_MEASURE( 1.000000000000000082E-05 ), #372, 'distance_accuracy_value', 'NONE');
#118 = SPHERICAL_SURFACE ( 'NONE', #296, 0.1875000000000000555 ) ;
#119 = PRODUCT_DEFINITION ( 'UNKNOWN', '', #250, #45 ) ;
#120 = DIRECTION ( 'NONE',  ( 0.000000000000000000, 0.000000000000000000, 1.000000000000000000 ) ) ;
#121 = DIRECTION ( 'NONE',  ( -1.224646799147353454E-16, 1.000000000000000000, 0.000000000000000000 ) ) ;
#122 = AXIS2_PLACEMENT_3D ( 'NONE', #107, #17, #57 ) ;
#123 = AXIS2_PLACEMENT_3D ( 'NONE', #168, #341, #84 ) ;
#124 = VERTEX_POINT ( 'NONE', #295 ) ;
#125 = DIRECTION ( 'NONE',  ( -1.000000000000000000, 0.000000000000000000, 0.000000000000000000 ) ) ;
#126 = FACE_OUTER_BOUND ( 'NONE', #100, .T. ) ;
#127 = ORIENTED_EDGE ( 'NONE', *, *, #219, .T. ) ;
#128 = ORIENTED_EDGE ( 'NONE', *, *, #353, .F. ) ;
#129 = MECHANICAL_DESIGN_GEOMETRIC_PRESENTATION_REPRESENTATION (  '', ( #77 ), #139 ) ;
#130 = CARTESIAN_POINT ( 'NONE',  ( 0.1874999999999998335, 1.500000000000000222, 2.296212748401286185E-17 ) ) ;
#131 = ORIENTED_EDGE ( 'NONE', *, *, #218, .T. ) ;
#132 =( LENGTH_UNIT ( ) NAMED_UNIT ( * ) SI_UNIT ( $, .METRE. ) );
#133 = ORIENTED_EDGE ( 'NONE', *, *, #69, .F. ) ;
#134 = LENGTH_MEASURE_WITH_UNIT ( LENGTH_MEASURE( 0.02539999999999999897 ), #256 );
#135 = CYLINDRICAL_SURFACE ( 'NONE', #99, 0.1874999999999998057 ) ;
#136 = FACE_OUTER_BOUND ( 'NONE', #142, .T. ) ;
#137 =( GEOMETRIC_REPRESENTATION_CONTEXT ( 3 ) GLOBAL_UNCERTAINTY_ASSIGNED_CONTEXT ( ( #91 ) ) GLOBAL_UNIT_ASSIGNED_CONTEXT ( ( #367, #280, #311 ) ) REPRESENTATION_CONTEXT ( 'NONE', 'WORKASPACE' ) );
#138 = FILL_AREA_STYLE_COLOUR ( '', #318 ) ;
#139 =( GEOMETRIC_REPRESENTATION_CONTEXT ( 3 ) GLOBAL_UNCERTAINTY_ASSIGNED_CONTEXT ( ( #197 ) ) GLOBAL_UNIT_ASSIGNED_CONTEXT ( ( #277, #339, #310 ) ) REPRESENTATION_CONTEXT ( 'NONE', 'WORKASPACE' ) );
#140 = FACE_OUTER_BOUND ( 'NONE', #41, .T. ) ;
#141 = DIRECTION ( 'NONE',  ( 1.224646799147353454E-16, -1.000000000000000000, 0.000000000000000000 ) ) ;
#142 = EDGE_LOOP ( 'NONE', ( #155, #34 ) ) ;
#143 = SURFACE_STYLE_FILL_AREA ( #172 ) ;
#144 = EDGE_CURVE ( 'NONE', #251, #299, #164, .T. ) ;
#145 = COLOUR_RGB ( '',1.000000000000000000, 0.000000000000000000, 0.000000000000000000 ) ;
#146 = AXIS2_PLACEMENT_3D ( 'NONE', #20, #141, #15 ) ;
#147 = SURFACE_SIDE_STYLE ('',( #178 ) ) ;
#148 = PRESENTATION_LAYER_ASSIGNMENT (  '', '', ( #214 ) ) ;
#149 = CARTESIAN_POINT ( 'NONE',  ( 0.000000000000000000, 0.000000000000000000, -0.1874999999999999167 ) ) ;
#150 = CARTESIAN_POINT ( 'NONE',  ( 0.000000000000000000, 0.1875000000000000833, 0.000000000000000000 ) ) ;
#151 = SURFACE_STYLE_USAGE ( .BOTH. , #147 ) ;
#152 = ADVANCED_FACE ( 'NONE', ( #126 ), #229, .F. ) ;
#153 = CARTESIAN_POINT ( 'NONE',  ( 0.000000000000000000, 0.1875000000000000833, -0.1874999999999999722 ) ) ;
#154 = STYLED_ITEM ( 'NONE', ( #167 ), #182 ) ;
#155 = ORIENTED_EDGE ( 'NONE', *, *, #239, .F. ) ;
#156 = AXIS2_PLACEMENT_3D ( 'NONE', #228, #165, #162 ) ;
#157 = EDGE_CURVE ( 'NONE', #333, #356, #263, .T. ) ;
#158 = CARTESIAN_POINT ( 'NONE',  ( 1.224646799147353207E-16, 1.500000000000000222, 0.000000000000000000 ) ) ;
#159 = ORIENTED_EDGE ( 'NONE', *, *, #224, .F. ) ;
#160 = ORIENTED_EDGE ( 'NONE', *, *, #88, .F. ) ;
#161 = ORIENTED_EDGE ( 'NONE', *, *, #261, .T. ) ;
#162 = DIRECTION ( 'NONE',  ( 0.000000000000000000, 0.000000000000000000, -1.000000000000000000 ) ) ;
#163 = VERTEX_POINT ( 'NONE', #355 ) ;
#164 = LINE ( 'NONE', #8, #50 ) ;
#165 = DIRECTION ( 'NONE',  ( -0.000000000000000000, -1.000000000000000000, -0.000000000000000000 ) ) ;
#166 = FILL_AREA_STYLE_COLOUR ( '', #145 ) ;
#167 = PRESENTATION_STYLE_ASSIGNMENT (( #354 ) ) ;
#168 = CARTESIAN_POINT ( 'NONE',  ( 0.000000000000000000, 0.1875000000000000833, 0.000000000000000000 ) ) ;
#169 = DIRECTION ( 'NONE',  ( -1.000000000000000000, 0.000000000000000000, 0.000000000000000000 ) ) ;
#170 =( GEOMETRIC_REPRESENTATION_CONTEXT ( 3 ) GLOBAL_UNCERTAINTY_ASSIGNED_CONTEXT ( ( #209 ) ) GLOBAL_UNIT_ASSIGNED_CONTEXT ( ( #227, #109, #245 ) ) REPRESENTATION_CONTEXT ( 'NONE', 'WORKASPACE' ) );
#171 = CARTESIAN_POINT ( 'NONE',  ( 0.1874999999999999722, 0.1875000000000000833, 0.000000000000000000 ) ) ;
#172 = FILL_AREA_STYLE ('',( #345 ) ) ;
#173 = DIRECTION ( 'NONE',  ( -1.000000000000000000, 0.000000000000000000, 0.000000000000000000 ) ) ;
#174 = DIRECTION ( 'NONE',  ( 0.000000000000000000, -0.000000000000000000, 1.000000000000000000 ) ) ;
#175 = AXIS2_PLACEMENT_3D ( 'NONE', #113, #83, #174 ) ;
#176 = AXIS2_PLACEMENT_3D ( 'NONE', #307, #95, #169 ) ;
#177 = PRESENTATION_STYLE_ASSIGNMENT (( #59 ) ) ;
#178 = SURFACE_STYLE_FILL_AREA ( #269 ) ;
#179 = DIRECTION ( 'NONE',  ( -1.000000000000000000, 0.000000000000000000, 0.000000000000000000 ) ) ;
#180 =( GEOMETRIC_REPRESENTATION_CONTEXT ( 3 ) GLOBAL_UNCERTAINTY_ASSIGNED_CONTEXT ( ( #28 ) ) GLOBAL_UNIT_ASSIGNED_CONTEXT ( ( #76, #271, #96 ) ) REPRESENTATION_CONTEXT ( 'NONE', 'WORKASPACE' ) );
#181 = AXIS2_PLACEMENT_3D ( 'NONE', #346, #24, #179 ) ;
#182 = MANIFOLD_SOLID_BREP ( 'Revolve - Cutting Edge', #283 ) ;
#183 = FACE_OUTER_BOUND ( 'NONE', #253, .T. ) ;
#184 = ADVANCED_FACE ( 'NONE', ( #67 ), #200, .T. ) ;
#185 = SPHERICAL_SURFACE ( 'NONE', #226, 0.1875000000000000555 ) ;
#186 = VERTEX_POINT ( 'NONE', #243 ) ;
#187 = CARTESIAN_POINT ( 'NONE',  ( 0.000000000000000000, 0.1875000000000000833, 0.000000000000000000 ) ) ;
#188 = COLOUR_RGB ( '',1.000000000000000000, 0.000000000000000000, 0.000000000000000000 ) ;
#189 = ORIENTED_EDGE ( 'NONE', *, *, #353, .T. ) ;
#190 = AXIS2_PLACEMENT_3D ( 'NONE', #312, #56, #40 ) ;
#191 = APPLICATION_CONTEXT ( 'automotive_design' ) ;
#192 = VERTEX_POINT ( 'NONE', #153 ) ;
#193 = UNCERTAINTY_MEASURE_WITH_UNIT (LENGTH_MEASURE( 1.000000000000000082E-05 ), #303, 'distance_accuracy_value', 'NONE');
#194 = CARTESIAN_POINT ( 'NONE',  ( -1.148106374200644017E-17, 0.000000000000000000, 0.000000000000000000 ) ) ;
#195 = ORIENTED_EDGE ( 'NONE', *, *, #26, .F. ) ;
#196 = AXIS2_PLACEMENT_3D ( 'NONE', #52, #205, #111 ) ;
#197 = UNCERTAINTY_MEASURE_WITH_UNIT (LENGTH_MEASURE( 1.000000000000000082E-05 ), #277, 'distance_accuracy_value', 'NONE');
#198 = DIRECTION ( 'NONE',  ( 0.000000000000000000, 0.000000000000000000, -1.000000000000000000 ) ) ;
#199 = DIRECTION ( 'NONE',  ( -0.000000000000000000, -1.000000000000000000, -0.000000000000000000 ) ) ;
#200 = CYLINDRICAL_SURFACE ( 'NONE', #176, 0.1874999999999998057 ) ;
#201 = FACE_OUTER_BOUND ( 'NONE', #66, .T. ) ;
#202 = ORIENTED_EDGE ( 'NONE', *, *, #261, .F. ) ;
#203 =( GEOMETRIC_REPRESENTATION_CONTEXT ( 3 ) GLOBAL_UNCERTAINTY_ASSIGNED_CONTEXT ( ( #321 ) ) GLOBAL_UNIT_ASSIGNED_CONTEXT ( ( #48, #255, #23 ) ) REPRESENTATION_CONTEXT ( 'NONE', 'WORKASPACE' ) );
#204 = FILL_AREA_STYLE ('',( #314 ) ) ;
#205 = DIRECTION ( 'NONE',  ( -0.000000000000000000, -1.000000000000000000, -0.000000000000000000 ) ) ;
#206 = SURFACE_STYLE_FILL_AREA ( #347 ) ;
#207 = COLOUR_RGB ( '',1.000000000000000000, 0.000000000000000000, 0.000000000000000000 ) ;
#208 = CIRCLE ( 'NONE', #309, 0.1874999999999999722 ) ;
#209 = UNCERTAINTY_MEASURE_WITH_UNIT (LENGTH_MEASURE( 1.000000000000000082E-05 ), #227, 'distance_accuracy_value', 'NONE');
#210 =( LENGTH_UNIT ( ) NAMED_UNIT ( * ) SI_UNIT ( $, .METRE. ) );
#211 = DIRECTION ( 'NONE',  ( 1.224646799147353207E-16, -0.000000000000000000, 1.000000000000000000 ) ) ;
#212 = PRESENTATION_STYLE_ASSIGNMENT (( #61 ) ) ;
#213 = EDGE_CURVE ( 'NONE', #192, #333, #208, .T. ) ;
#214 = STYLED_ITEM ( 'NONE', ( #286 ), #36 ) ;
#215 = LINE ( 'NONE', #323, #329 ) ;
#216 = DIRECTION ( 'NONE',  ( 0.000000000000000000, 0.000000000000000000, -1.000000000000000000 ) ) ;
#217 = ORIENTED_EDGE ( 'NONE', *, *, #315, .F. ) ;
#218 = EDGE_CURVE ( 'NONE', #328, #299, #86, .T. ) ;
#219 = EDGE_CURVE ( 'NONE', #335, #356, #29, .T. ) ;
#220 = ORIENTED_EDGE ( 'NONE', *, *, #239, .T. ) ;
#221 = CARTESIAN_POINT ( 'NONE',  ( -0.1875000000000000833, 3.500000000000000000, 0.000000000000000000 ) ) ;
#222 = EDGE_LOOP ( 'NONE', ( #161, #9, #225, #217 ) ) ;
#223 =( NAMED_UNIT ( * ) PLANE_ANGLE_UNIT ( ) SI_UNIT ( $, .RADIAN. ) );
#224 = EDGE_CURVE ( 'NONE', #186, #335, #242, .T. ) ;
#225 = ORIENTED_EDGE ( 'NONE', *, *, #218, .F. ) ;
#226 = AXIS2_PLACEMENT_3D ( 'NONE', #247, #327, #274 ) ;
#227 =( CONVERSION_BASED_UNIT ( 'INCH', #134 ) LENGTH_UNIT ( ) NAMED_UNIT ( #18 ) );
#228 = CARTESIAN_POINT ( 'NONE',  ( 0.000000000000000000, 1.500000000000000222, 0.000000000000000000 ) ) ;
#229 = PLANE ( 'NONE',  #343 ) ;
#230 = CARTESIAN_POINT ( 'NONE',  ( -1.224646799147353207E-16, 3.500000000000000000, 0.000000000000000000 ) ) ;
#231 =( LENGTH_UNIT ( ) NAMED_UNIT ( * ) SI_UNIT ( $, .METRE. ) );
#232 = CARTESIAN_POINT ( 'NONE',  ( -0.1874999999999999445, 3.500000000000000000, 0.000000000000000000 ) ) ;
#233 = AXIS2_PLACEMENT_3D ( 'NONE', #357, #216, #33 ) ;
#234 = SURFACE_STYLE_USAGE ( .BOTH. , #337 ) ;
#235 =( CONVERSION_BASED_UNIT ( 'INCH', #27 ) LENGTH_UNIT ( ) NAMED_UNIT ( #306 ) );
#236 = DIRECTION ( 'NONE',  ( 0.000000000000000000, 0.000000000000000000, -1.000000000000000000 ) ) ;
#237 = STYLED_ITEM ( 'NONE', ( #212 ), #55 ) ;
#238 = CARTESIAN_POINT ( 'NONE',  ( -2.296212748401288034E-17, 0.1875000000000000555, 0.000000000000000000 ) ) ;
#239 = EDGE_CURVE ( 'NONE', #163, #124, #284, .T. ) ;
#240 =( NAMED_UNIT ( * ) SI_UNIT ( $, .STERADIAN. ) SOLID_ANGLE_UNIT ( ) );
#241 = MECHANICAL_DESIGN_GEOMETRIC_PRESENTATION_REPRESENTATION (  '', ( #35 ), #203 ) ;
#242 = CIRCLE ( 'NONE', #196, 0.1874999999999999722 ) ;
#243 = CARTESIAN_POINT ( 'NONE',  ( 2.296212748401287109E-17, 0.1875000000000000833, 0.1874999999999999722 ) ) ;
#244 = DIRECTION ( 'NONE',  ( 0.000000000000000000, 0.000000000000000000, -1.000000000000000000 ) ) ;
#245 =( NAMED_UNIT ( * ) SI_UNIT ( $, .STERADIAN. ) SOLID_ANGLE_UNIT ( ) );
#246 = ORIENTED_EDGE ( 'NONE', *, *, #144, .F. ) ;
#247 = CARTESIAN_POINT ( 'NONE',  ( -2.296212748401288034E-17, 0.1875000000000000555, 0.000000000000000000 ) ) ;
#248 = ORIENTED_EDGE ( 'NONE', *, *, #219, .F. ) ;
#249 = ORIENTED_EDGE ( 'NONE', *, *, #252, .F. ) ;
#250 = PRODUCT_DEFINITION_FORMATION_WITH_SPECIFIED_SOURCE ( 'ANY', '', #334, .NOT_KNOWN. ) ;
#251 = VERTEX_POINT ( 'NONE', #130 ) ;
#252 = EDGE_CURVE ( 'NONE', #335, #192, #90, .T. ) ;
#253 = EDGE_LOOP ( 'NONE', ( #43, #127, #39, #189 ) ) ;
#254 = DIMENSIONAL_EXPONENTS ( 1.000000000000000000, 0.000000000000000000, 0.000000000000000000, 0.000000000000000000, 0.000000000000000000, 0.000000000000000000, 0.000000000000000000 ) ;
#255 =( NAMED_UNIT ( * ) PLANE_ANGLE_UNIT ( ) SI_UNIT ( $, .RADIAN. ) );
#256 =( LENGTH_UNIT ( ) NAMED_UNIT ( * ) SI_UNIT ( $, .METRE. ) );
#257 = SURFACE_SIDE_STYLE ('',( #82 ) ) ;
#258 = PRESENTATION_STYLE_ASSIGNMENT (( #365 ) ) ;
#259 = DIMENSIONAL_EXPONENTS ( 1.000000000000000000, 0.000000000000000000, 0.000000000000000000, 0.000000000000000000, 0.000000000000000000, 0.000000000000000000, 0.000000000000000000 ) ;
#260 = MECHANICAL_DESIGN_GEOMETRIC_PRESENTATION_REPRESENTATION (  '', ( #237 ), #22 ) ;
#261 = EDGE_CURVE ( 'NONE', #104, #251, #330, .T. ) ;
#262 = SURFACE_SIDE_STYLE ('',( #92 ) ) ;
#263 = CIRCLE ( 'NONE', #233, 0.1875000000000000555 ) ;
#264 = AXIS2_PLACEMENT_3D ( 'NONE', #42, #110, #198 ) ;
#265 = UNCERTAINTY_MEASURE_WITH_UNIT (LENGTH_MEASURE( 1.000000000000000082E-05 ), #235, 'distance_accuracy_value', 'NONE');
#266 = FACE_OUTER_BOUND ( 'NONE', #38, .T. ) ;
#267 = APPLICATION_PROTOCOL_DEFINITION ( 'draft international standard', 'automotive_design', 1998, #300 ) ;
#268 =( NAMED_UNIT ( * ) SI_UNIT ( $, .STERADIAN. ) SOLID_ANGLE_UNIT ( ) );
#269 = FILL_AREA_STYLE ('',( #166 ) ) ;
#270 = COLOUR_RGB ( '',0.7921568627450980005, 0.8196078431372548767, 0.9333333333333333481 ) ;
#271 =( NAMED_UNIT ( * ) PLANE_ANGLE_UNIT ( ) SI_UNIT ( $, .RADIAN. ) );
#272 = ORIENTED_EDGE ( 'NONE', *, *, #213, .F. ) ;
#273 = PRODUCT_CONTEXT ( 'NONE', #191, 'mechanical' ) ;
#274 = DIRECTION ( 'NONE',  ( 1.000000000000000000, 0.000000000000000000, 0.000000000000000000 ) ) ;
#275 = PRODUCT_DEFINITION_SHAPE ( 'NONE', 'NONE',  #119 ) ;
#276 = EDGE_CURVE ( 'NONE', #124, #163, #290, .T. ) ;
#277 =( CONVERSION_BASED_UNIT ( 'INCH', #305 ) LENGTH_UNIT ( ) NAMED_UNIT ( #49 ) );
#278 = ORIENTED_EDGE ( 'NONE', *, *, #276, .T. ) ;
#279 = DIRECTION ( 'NONE',  ( -1.000000000000000000, -1.224646799147353454E-16, 0.000000000000000000 ) ) ;
#280 =( NAMED_UNIT ( * ) PLANE_ANGLE_UNIT ( ) SI_UNIT ( $, .RADIAN. ) );
#281 = FILL_AREA_STYLE ('',( #47 ) ) ;
#282 = ADVANCED_FACE ( 'NONE', ( #201 ), #101, .F. ) ;
#283 = CLOSED_SHELL ( 'NONE', ( #108, #326, #36, #44, #62 ) ) ;
#284 = CIRCLE ( 'NONE', #190, 0.1874999999999998057 ) ;
#285 = CARTESIAN_POINT ( 'NONE',  ( -0.1875000000000000555, 0.1875000000000000833, 2.296212748401287109E-17 ) ) ;
#286 = PRESENTATION_STYLE_ASSIGNMENT (( #234 ) ) ;
#287 =( LENGTH_UNIT ( ) NAMED_UNIT ( * ) SI_UNIT ( $, .METRE. ) );
#288 = LENGTH_MEASURE_WITH_UNIT ( LENGTH_MEASURE( 0.02539999999999999897 ), #369 );
#289 = DIMENSIONAL_EXPONENTS ( 1.000000000000000000, 0.000000000000000000, 0.000000000000000000, 0.000000000000000000, 0.000000000000000000, 0.000000000000000000, 0.000000000000000000 ) ;
#290 = CIRCLE ( 'NONE', #156, 0.1874999999999998057 ) ;
#291 =( LENGTH_UNIT ( ) NAMED_UNIT ( * ) SI_UNIT ( $, .METRE. ) );
#292 = LENGTH_MEASURE_WITH_UNIT ( LENGTH_MEASURE( 0.02539999999999999897 ), #210 );
#293 = COLOUR_RGB ( '',1.000000000000000000, 0.000000000000000000, 0.000000000000000000 ) ;
#294 = DIRECTION ( 'NONE',  ( 1.000000000000000000, 0.000000000000000000, 0.000000000000000000 ) ) ;
#295 = CARTESIAN_POINT ( 'NONE',  ( 2.296212748401285877E-17, 1.500000000000000222, 0.1874999999999998057 ) ) ;
#296 = AXIS2_PLACEMENT_3D ( 'NONE', #238, #120, #294 ) ;
#297 = AXIS2_PLACEMENT_3D ( 'NONE', #150, #4, #244 ) ;
#298 = EDGE_LOOP ( 'NONE', ( #246, #362, #74, #331 ) ) ;
#299 = VERTEX_POINT ( 'NONE', #103 ) ;
#300 = APPLICATION_CONTEXT ( 'automotive_design' ) ;
#301 = LINE ( 'NONE', #232, #344 ) ;
#302 = AXIS2_PLACEMENT_3D ( 'NONE', #78, #199, #46 ) ;
#303 =( CONVERSION_BASED_UNIT ( 'INCH', #361 ) LENGTH_UNIT ( ) NAMED_UNIT ( #313 ) );
#304 = DIRECTION ( 'NONE',  ( -1.224646799147353454E-16, 1.000000000000000000, -0.000000000000000000 ) ) ;
#305 = LENGTH_MEASURE_WITH_UNIT ( LENGTH_MEASURE( 0.02539999999999999897 ), #287 );
#306 = DIMENSIONAL_EXPONENTS ( 1.000000000000000000, 0.000000000000000000, 0.000000000000000000, 0.000000000000000000, 0.000000000000000000, 0.000000000000000000, 0.000000000000000000 ) ;
#307 = CARTESIAN_POINT ( 'NONE',  ( -1.224646799147353207E-16, 3.500000000000000000, 0.000000000000000000 ) ) ;
#308 = CARTESIAN_POINT ( 'NONE',  ( 1.224646799147353207E-16, 1.500000000000000222, 0.000000000000000000 ) ) ;
#309 = AXIS2_PLACEMENT_3D ( 'NONE', #187, #325, #236 ) ;
#310 =( NAMED_UNIT ( * ) SI_UNIT ( $, .STERADIAN. ) SOLID_ANGLE_UNIT ( ) );
#311 =( NAMED_UNIT ( * ) SI_UNIT ( $, .STERADIAN. ) SOLID_ANGLE_UNIT ( ) );
#312 = CARTESIAN_POINT ( 'NONE',  ( 0.000000000000000000, 1.500000000000000222, 0.000000000000000000 ) ) ;
#313 = DIMENSIONAL_EXPONENTS ( 1.000000000000000000, 0.000000000000000000, 0.000000000000000000, 0.000000000000000000, 0.000000000000000000, 0.000000000000000000, 0.000000000000000000 ) ;
#314 = FILL_AREA_STYLE_COLOUR ( '', #207 ) ;
#315 = EDGE_CURVE ( 'NONE', #104, #328, #301, .T. ) ;
#316 = SURFACE_SIDE_STYLE ('',( #206 ) ) ;
#317 = ADVANCED_BREP_SHAPE_REPRESENTATION ( '49240', ( #182, #55, #16 ), #359 ) ;
#318 = COLOUR_RGB ( '',0.7921568627450980005, 0.8196078431372548767, 0.9333333333333333481 ) ;
#319 = CARTESIAN_POINT ( 'NONE',  ( -2.296212748401288034E-17, 0.1875000000000000555, 0.000000000000000000 ) ) ;
#320 = AXIS2_PLACEMENT_3D ( 'NONE', #319, #211, #19 ) ;
#321 = UNCERTAINTY_MEASURE_WITH_UNIT (LENGTH_MEASURE( 1.000000000000000082E-05 ), #48, 'distance_accuracy_value', 'NONE');
#322 =( NAMED_UNIT ( * ) PLANE_ANGLE_UNIT ( ) SI_UNIT ( $, .RADIAN. ) );
#323 = CARTESIAN_POINT ( 'NONE',  ( 2.296212748401286185E-17, 0.000000000000000000, 0.1874999999999999167 ) ) ;
#324 = DIRECTION ( 'NONE',  ( 0.000000000000000000, 0.000000000000000000, 1.000000000000000000 ) ) ;
#325 = DIRECTION ( 'NONE',  ( -0.000000000000000000, -1.000000000000000000, -0.000000000000000000 ) ) ;
#326 = ADVANCED_FACE ( 'NONE', ( #140 ), #12, .T. ) ;
#327 = DIRECTION ( 'NONE',  ( 0.000000000000000000, 0.000000000000000000, 1.000000000000000000 ) ) ;
#328 = VERTEX_POINT ( 'NONE', #221 ) ;
#329 = VECTOR ( 'NONE', #64, 39.37007874015748143 ) ;
#330 = CIRCLE ( 'NONE', #373, 0.1874999999999996947 ) ;
#331 = ORIENTED_EDGE ( 'NONE', *, *, #13, .F. ) ;
#332 = SHAPE_DEFINITION_REPRESENTATION ( #275, #317 ) ;
#333 = VERTEX_POINT ( 'NONE', #171 ) ;
#334 = PRODUCT ( '49240', '49240', '', ( #273 ) ) ;
#335 = VERTEX_POINT ( 'NONE', #285 ) ;
#336 = PRESENTATION_LAYER_ASSIGNMENT (  '', '', ( #237 ) ) ;
#337 = SURFACE_SIDE_STYLE ('',( #143 ) ) ;
#338 = SURFACE_SIDE_STYLE ('',( #5 ) ) ;
#339 =( NAMED_UNIT ( * ) PLANE_ANGLE_UNIT ( ) SI_UNIT ( $, .RADIAN. ) );
#340 = DIRECTION ( 'NONE',  ( -1.000000000000000000, 0.000000000000000000, 0.000000000000000000 ) ) ;
#341 = DIRECTION ( 'NONE',  ( -0.000000000000000000, -1.000000000000000000, -0.000000000000000000 ) ) ;
#342 = FACE_OUTER_BOUND ( 'NONE', #360, .T. ) ;
#343 = AXIS2_PLACEMENT_3D ( 'NONE', #106, #121, #279 ) ;
#344 = VECTOR ( 'NONE', #73, 39.37007874015748143 ) ;
#345 = FILL_AREA_STYLE_COLOUR ( '', #188 ) ;
#346 = CARTESIAN_POINT ( 'NONE',  ( -1.224646799147353207E-16, 3.500000000000000000, 0.000000000000000000 ) ) ;
#347 = FILL_AREA_STYLE ('',( #31 ) ) ;
#348 = MECHANICAL_DESIGN_GEOMETRIC_PRESENTATION_REPRESENTATION (  '', ( #89 ), #63 ) ;
#349 = FILL_AREA_STYLE ('',( #25 ) ) ;
#350 = LINE ( 'NONE', #149, #58 ) ;
#351 = PRESENTATION_LAYER_ASSIGNMENT (  '', '', ( #77 ) ) ;
#352 = CARTESIAN_POINT ( 'NONE',  ( 0.000000000000000000, 0.000000000000000000, 0.000000000000000000 ) ) ;
#353 = EDGE_CURVE ( 'NONE', #333, #186, #60, .T. ) ;
#354 = SURFACE_STYLE_USAGE ( .BOTH. , #338 ) ;
#355 = CARTESIAN_POINT ( 'NONE',  ( 0.000000000000000000, 1.500000000000000222, -0.1874999999999998057 ) ) ;
#356 = VERTEX_POINT ( 'NONE', #194 ) ;
#357 = CARTESIAN_POINT ( 'NONE',  ( -2.296212748401288034E-17, 0.1875000000000000555, 0.000000000000000000 ) ) ;
#358 = APPLICATION_PROTOCOL_DEFINITION ( 'draft international standard', 'automotive_design', 1998, #191 ) ;
#359 =( GEOMETRIC_REPRESENTATION_CONTEXT ( 3 ) GLOBAL_UNCERTAINTY_ASSIGNED_CONTEXT ( ( #193 ) ) GLOBAL_UNIT_ASSIGNED_CONTEXT ( ( #303, #223, #79 ) ) REPRESENTATION_CONTEXT ( 'NONE', 'WORKASPACE' ) );
#360 = EDGE_LOOP ( 'NONE', ( #160, #278, #72, #249, #159 ) ) ;
#361 = LENGTH_MEASURE_WITH_UNIT ( LENGTH_MEASURE( 0.02539999999999999897 ), #132 );
#362 = ORIENTED_EDGE ( 'NONE', *, *, #26, .T. ) ;
#363 = FACE_OUTER_BOUND ( 'NONE', #298, .T. ) ;
#364 = PRESENTATION_LAYER_ASSIGNMENT (  '', '', ( #154 ) ) ;
#365 = SURFACE_STYLE_USAGE ( .BOTH. , #257 ) ;
#366 = DIMENSIONAL_EXPONENTS ( 1.000000000000000000, 0.000000000000000000, 0.000000000000000000, 0.000000000000000000, 0.000000000000000000, 0.000000000000000000, 0.000000000000000000 ) ;
#367 =( CONVERSION_BASED_UNIT ( 'INCH', #288 ) LENGTH_UNIT ( ) NAMED_UNIT ( #254 ) );
#368 = ADVANCED_FACE ( 'NONE', ( #363 ), #135, .T. ) ;
#369 =( LENGTH_UNIT ( ) NAMED_UNIT ( * ) SI_UNIT ( $, .METRE. ) );
#370 = CLOSED_SHELL ( 'NONE', ( #184, #152, #368, #282 ) ) ;
#371 = LENGTH_MEASURE_WITH_UNIT ( LENGTH_MEASURE( 0.02539999999999999897 ), #231 );
#372 =( CONVERSION_BASED_UNIT ( 'INCH', #292 ) LENGTH_UNIT ( ) NAMED_UNIT ( #289 ) );
#373 = AXIS2_PLACEMENT_3D ( 'NONE', #158, #7, #125 ) ;
ENDSEC;
END-ISO-10303-21;
