ISO-10303-21;
HEADER;
FILE_DESCRIPTION (( 'STEP AP214' ),
    '1' );
FILE_NAME ('Micro_RNCM-040-1X.STEP',
    '2021-09-03T17:40:16',
    ( '' ),
    ( '' ),
    'SwSTEP 2.0',
    'SolidWorks 2020',
    '' );
FILE_SCHEMA (( 'AUTOMOTIVE_DESIGN' ));
ENDSEC;

DATA;
#1 = DIMENSIONAL_EXPONENTS ( 1.000000000000000000, 0.0000000000000000000, 0.0000000000000000000, 0.0000000000000000000, 0.0000000000000000000, 0.0000000000000000000, 0.0000000000000000000 ) ;
#2 = SURFACE_STYLE_USAGE ( .BOTH. , #213 ) ;
#3 = ORIENTED_EDGE ( 'NONE', *, *, #145, .T. ) ;
#4 = PRODUCT_DEFINITION ( 'UNKNOWN', '', #42, #96 ) ;
#5 =( GEOMETRIC_REPRESENTATION_CONTEXT ( 3 ) GLOBAL_UNCERTAINTY_ASSIGNED_CONTEXT ( ( #112 ) ) GLOBAL_UNIT_ASSIGNED_CONTEXT ( ( #136, #185, #242 ) ) REPRESENTATION_CONTEXT ( 'NONE', 'WORKASPACE' ) );
#6 = PRESENTATION_STYLE_ASSIGNMENT (( #2 ) ) ;
#7 =( CONVERSION_BASED_UNIT ( 'INCH', #20 ) LENGTH_UNIT ( ) NAMED_UNIT ( #176 ) );
#8 = ORIENTED_EDGE ( 'NONE', *, *, #25, .T. ) ;
#9 = EDGE_LOOP ( 'NONE', ( #30, #44, #12, #50 ) ) ;
#10 = AXIS2_PLACEMENT_3D ( 'NONE', #113, #248, #170 ) ;
#11 =( GEOMETRIC_REPRESENTATION_CONTEXT ( 3 ) GLOBAL_UNCERTAINTY_ASSIGNED_CONTEXT ( ( #164 ) ) GLOBAL_UNIT_ASSIGNED_CONTEXT ( ( #111, #48, #150 ) ) REPRESENTATION_CONTEXT ( 'NONE', 'WORKASPACE' ) );
#12 = ORIENTED_EDGE ( 'NONE', *, *, #61, .T. ) ;
#13 = LINE ( 'NONE', #19, #205 ) ;
#14 = FILL_AREA_STYLE_COLOUR ( '', #24 ) ;
#15 = EDGE_CURVE ( 'NONE', #28, #166, #128, .T. ) ;
#16 = AXIS2_PLACEMENT_3D ( 'NONE', #241, #245, #172 ) ;
#17 = CARTESIAN_POINT ( 'NONE',  ( -0.06374000000000018540, 0.0000000000000000000, 1.968503999999999809 ) ) ;
#18 = CARTESIAN_POINT ( 'NONE',  ( 0.06374000000000018540, 8.724383797125754882E-18, 1.968503999999999809 ) ) ;
#19 = CARTESIAN_POINT ( 'NONE',  ( 0.07874000000000000443, 9.642868896486258509E-18, 1.968503999999999809 ) ) ;
#20 = LENGTH_MEASURE_WITH_UNIT ( LENGTH_MEASURE( 0.02539999999999999897 ), #82 );
#21 = AXIS2_PLACEMENT_3D ( 'NONE', #79, #104, #238 ) ;
#22 = CARTESIAN_POINT ( 'NONE',  ( 0.0000000000000000000, 0.0000000000000000000, 0.07480299999999973082 ) ) ;
#23 = FILL_AREA_STYLE_COLOUR ( '', #62 ) ;
#24 = COLOUR_RGB ( '',0.7921568627450980005, 0.8196078431372548767, 0.9333333333333333481 ) ;
#25 = EDGE_CURVE ( 'NONE', #162, #77, #173, .T. ) ;
#26 = DIRECTION ( 'NONE',  ( 1.000000000000000000, 0.0000000000000000000, -0.0000000000000000000 ) ) ;
#27 = DIRECTION ( 'NONE',  ( 0.0000000000000000000, 0.0000000000000000000, -1.000000000000000000 ) ) ;
#28 = VERTEX_POINT ( 'NONE', #18 ) ;
#29 = DIRECTION ( 'NONE',  ( 0.0000000000000000000, 0.0000000000000000000, 1.000000000000000000 ) ) ;
#30 = ORIENTED_EDGE ( 'NONE', *, *, #31, .F. ) ;
#31 = EDGE_CURVE ( 'NONE', #166, #160, #13, .T. ) ;
#32 = AXIS2_PLACEMENT_3D ( 'NONE', #218, #59, #195 ) ;
#33 = EDGE_LOOP ( 'NONE', ( #144, #180 ) ) ;
#34 = FACE_OUTER_BOUND ( 'NONE', #204, .T. ) ;
#35 = FACE_OUTER_BOUND ( 'NONE', #93, .T. ) ;
#36 = CARTESIAN_POINT ( 'NONE',  ( -0.003936999999999995191, 5.062506170655285717E-18, 0.0000000000000000000 ) ) ;
#37 = DIRECTION ( 'NONE',  ( 1.000000000000000000, 0.0000000000000000000, 0.0000000000000000000 ) ) ;
#38 = FACE_OUTER_BOUND ( 'NONE', #184, .T. ) ;
#39 = CIRCLE ( 'NONE', #94, 0.06374000000000018540 ) ;
#40 = DIRECTION ( 'NONE',  ( 0.0000000000000000000, 0.0000000000000000000, -1.000000000000000000 ) ) ;
#41 = CLOSED_SHELL ( 'NONE', ( #43, #192, #139, #70, #229, #183, #125, #202 ) ) ;
#42 = PRODUCT_DEFINITION_FORMATION_WITH_SPECIFIED_SOURCE ( 'ANY', '', #147, .NOT_KNOWN. ) ;
#43 = ADVANCED_FACE ( 'NONE', ( #35 ), #215, .T. ) ;
#44 = ORIENTED_EDGE ( 'NONE', *, *, #210, .T. ) ;
#45 = CARTESIAN_POINT ( 'NONE',  ( 0.0000000000000000000, 0.0000000000000000000, 1.953504000000000129 ) ) ;
#46 = ORIENTED_EDGE ( 'NONE', *, *, #145, .F. ) ;
#47 = ORIENTED_EDGE ( 'NONE', *, *, #167, .F. ) ;
#48 =( NAMED_UNIT ( * ) PLANE_ANGLE_UNIT ( ) SI_UNIT ( $, .RADIAN. ) );
#49 = ORIENTED_EDGE ( 'NONE', *, *, #177, .F. ) ;
#50 = ORIENTED_EDGE ( 'NONE', *, *, #188, .F. ) ;
#51 = VECTOR ( 'NONE', #56, 39.37007874015748143 ) ;
#52 = EDGE_CURVE ( 'NONE', #86, #200, #148, .T. ) ;
#53 = DIRECTION ( 'NONE',  ( 0.0000000000000000000, 0.0000000000000000000, 1.000000000000000000 ) ) ;
#54 = UNCERTAINTY_MEASURE_WITH_UNIT (LENGTH_MEASURE( 1.000000000000000082E-05 ), #7, 'distance_accuracy_value', 'NONE');
#55 = CARTESIAN_POINT ( 'NONE',  ( 0.0000000000000000000, 0.0000000000000000000, 0.0000000000000000000 ) ) ;
#56 = DIRECTION ( 'NONE',  ( -0.7071067811865487940, 8.659560562354948882E-17, 0.7071067811865462405 ) ) ;
#57 = ORIENTED_EDGE ( 'NONE', *, *, #236, .F. ) ;
#58 = DIRECTION ( 'NONE',  ( -0.7071067811865502373, 0.0000000000000000000, -0.7071067811865446862 ) ) ;
#59 = DIRECTION ( 'NONE',  ( 0.0000000000000000000, 0.0000000000000000000, 1.000000000000000000 ) ) ;
#60 = LENGTH_MEASURE_WITH_UNIT ( LENGTH_MEASURE( 0.02539999999999999897 ), #197 );
#61 = EDGE_CURVE ( 'NONE', #200, #95, #129, .T. ) ;
#62 = COLOUR_RGB ( '',0.7921568627450980005, 0.8196078431372548767, 0.9333333333333333481 ) ;
#63 = DIRECTION ( 'NONE',  ( 0.0000000000000000000, 0.0000000000000000000, -1.000000000000000000 ) ) ;
#64 = AXIS2_PLACEMENT_3D ( 'NONE', #226, #53, #151 ) ;
#65 = ORIENTED_EDGE ( 'NONE', *, *, #90, .T. ) ;
#66 = EDGE_LOOP ( 'NONE', ( #233, #219, #49, #239 ) ) ;
#67 = CARTESIAN_POINT ( 'NONE',  ( 0.0000000000000000000, 0.0000000000000000000, 1.968503999999999809 ) ) ;
#68 = ORIENTED_EDGE ( 'NONE', *, *, #188, .T. ) ;
#69 = PRESENTATION_STYLE_ASSIGNMENT (( #122 ) ) ;
#70 = ADVANCED_FACE ( 'NONE', ( #98 ), #247, .T. ) ;
#71 = DIRECTION ( 'NONE',  ( -0.0000000000000000000, -0.0000000000000000000, -1.000000000000000000 ) ) ;
#72 = CIRCLE ( 'NONE', #249, 0.07874000000000000443 ) ;
#73 = VECTOR ( 'NONE', #58, 39.37007874015748854 ) ;
#74 = DIRECTION ( 'NONE',  ( -1.000000000000000000, 0.0000000000000000000, 0.0000000000000000000 ) ) ;
#75 =( LENGTH_UNIT ( ) NAMED_UNIT ( * ) SI_UNIT ( $, .METRE. ) );
#76 = CARTESIAN_POINT ( 'NONE',  ( 0.0000000000000000000, 0.0000000000000000000, 1.968503999999999809 ) ) ;
#77 = VERTEX_POINT ( 'NONE', #91 ) ;
#78 = CARTESIAN_POINT ( 'NONE',  ( -0.07874000000000000443, 0.0000000000000000000, 0.07480299999999973082 ) ) ;
#79 = CARTESIAN_POINT ( 'NONE',  ( 0.0000000000000000000, 0.0000000000000000000, 0.07480299999999973082 ) ) ;
#80 = DIRECTION ( 'NONE',  ( -1.000000000000000000, 0.0000000000000000000, 0.0000000000000000000 ) ) ;
#81 = DIMENSIONAL_EXPONENTS ( 1.000000000000000000, 0.0000000000000000000, 0.0000000000000000000, 0.0000000000000000000, 0.0000000000000000000, 0.0000000000000000000, 0.0000000000000000000 ) ;
#82 =( LENGTH_UNIT ( ) NAMED_UNIT ( * ) SI_UNIT ( $, .METRE. ) );
#83 = ORIENTED_EDGE ( 'NONE', *, *, #167, .T. ) ;
#84 =( GEOMETRIC_REPRESENTATION_CONTEXT ( 3 ) GLOBAL_UNCERTAINTY_ASSIGNED_CONTEXT ( ( #54 ) ) GLOBAL_UNIT_ASSIGNED_CONTEXT ( ( #7, #190, #120 ) ) REPRESENTATION_CONTEXT ( 'NONE', 'WORKASPACE' ) );
#85 = DIRECTION ( 'NONE',  ( -1.000000000000000000, 0.0000000000000000000, 0.0000000000000000000 ) ) ;
#86 = VERTEX_POINT ( 'NONE', #17 ) ;
#87 = PRODUCT_CONTEXT ( 'NONE', #246, 'mechanical' ) ;
#88 = EDGE_LOOP ( 'NONE', ( #124, #224, #140, #107 ) ) ;
#89 = AXIS2_PLACEMENT_3D ( 'NONE', #141, #63, #193 ) ;
#90 = EDGE_CURVE ( 'NONE', #77, #162, #203, .T. ) ;
#91 = CARTESIAN_POINT ( 'NONE',  ( 0.003936999999999995191, 0.0000000000000000000, 0.0000000000000000000 ) ) ;
#92 = LENGTH_MEASURE_WITH_UNIT ( LENGTH_MEASURE( 0.02539999999999999897 ), #75 );
#93 = EDGE_LOOP ( 'NONE', ( #222, #3, #237, #47 ) ) ;
#94 = AXIS2_PLACEMENT_3D ( 'NONE', #132, #211, #37 ) ;
#95 = VERTEX_POINT ( 'NONE', #78 ) ;
#96 = PRODUCT_DEFINITION_CONTEXT ( 'detailed design', #198, 'design' ) ;
#97 = DIRECTION ( 'NONE',  ( 1.000000000000000000, 0.0000000000000000000, 0.0000000000000000000 ) ) ;
#98 = FACE_OUTER_BOUND ( 'NONE', #9, .T. ) ;
#99 = VECTOR ( 'NONE', #100, 39.37007874015748143 ) ;
#100 = DIRECTION ( 'NONE',  ( 0.7071067811865487940, 0.0000000000000000000, 0.7071067811865462405 ) ) ;
#101 = EDGE_CURVE ( 'NONE', #28, #86, #227, .T. ) ;
#102 = FACE_OUTER_BOUND ( 'NONE', #143, .T. ) ;
#103 = CARTESIAN_POINT ( 'NONE',  ( -0.07874000000000000443, 0.0000000000000000000, 1.953504000000000129 ) ) ;
#104 = DIRECTION ( 'NONE',  ( -0.0000000000000000000, -0.0000000000000000000, -1.000000000000000000 ) ) ;
#105 = SURFACE_STYLE_FILL_AREA ( #178 ) ;
#106 = DIRECTION ( 'NONE',  ( 1.000000000000000000, 0.0000000000000000000, 0.0000000000000000000 ) ) ;
#107 = ORIENTED_EDGE ( 'NONE', *, *, #210, .F. ) ;
#108 = CIRCLE ( 'NONE', #206, 0.07874000000000000443 ) ;
#109 = FILL_AREA_STYLE ('',( #14 ) ) ;
#110 = PRODUCT_DEFINITION_SHAPE ( 'NONE', 'NONE',  #4 ) ;
#111 =( CONVERSION_BASED_UNIT ( 'INCH', #92 ) LENGTH_UNIT ( ) NAMED_UNIT ( #81 ) );
#112 = UNCERTAINTY_MEASURE_WITH_UNIT (LENGTH_MEASURE( 1.000000000000000082E-05 ), #136, 'distance_accuracy_value', 'NONE');
#113 = CARTESIAN_POINT ( 'NONE',  ( 0.0000000000000000000, 0.0000000000000000000, 0.0000000000000000000 ) ) ;
#114 = CARTESIAN_POINT ( 'NONE',  ( 0.07874000000000000443, 9.642868896486258509E-18, 1.953504000000000129 ) ) ;
#115 = DIRECTION ( 'NONE',  ( 0.0000000000000000000, 0.0000000000000000000, 1.000000000000000000 ) ) ;
#116 = AXIS2_PLACEMENT_3D ( 'NONE', #171, #189, #74 ) ;
#117 = FACE_OUTER_BOUND ( 'NONE', #33, .T. ) ;
#118 = FACE_OUTER_BOUND ( 'NONE', #66, .T. ) ;
#119 = PRODUCT_RELATED_PRODUCT_CATEGORY ( 'part', '', ( #147 ) ) ;
#120 =( NAMED_UNIT ( * ) SI_UNIT ( $, .STERADIAN. ) SOLID_ANGLE_UNIT ( ) );
#121 = AXIS2_PLACEMENT_3D ( 'NONE', #142, #40, #156 ) ;
#122 = SURFACE_STYLE_USAGE ( .BOTH. , #240 ) ;
#123 = ORIENTED_EDGE ( 'NONE', *, *, #61, .F. ) ;
#124 = ORIENTED_EDGE ( 'NONE', *, *, #15, .F. ) ;
#125 = ADVANCED_FACE ( 'NONE', ( #38 ), #137, .T. ) ;
#126 = ORIENTED_EDGE ( 'NONE', *, *, #90, .F. ) ;
#127 = CONICAL_SURFACE ( 'NONE', #121, 0.06374000000000018540, 0.7853981633974522758 ) ;
#128 = LINE ( 'NONE', #133, #223 ) ;
#129 = LINE ( 'NONE', #168, #221 ) ;
#130 = CARTESIAN_POINT ( 'NONE',  ( -0.003936999999999995191, 4.821434448243123477E-19, 0.0000000000000000000 ) ) ;
#131 = AXIS2_PLACEMENT_3D ( 'NONE', #217, #29, #106 ) ;
#132 = CARTESIAN_POINT ( 'NONE',  ( 0.0000000000000000000, 0.0000000000000000000, 1.968503999999999809 ) ) ;
#133 = CARTESIAN_POINT ( 'NONE',  ( 0.06374000000000018540, 7.805898697765251255E-18, 1.968503999999999809 ) ) ;
#134 = PLANE ( 'NONE',  #154 ) ;
#135 = STYLED_ITEM ( 'NONE', ( #69 ), #234 ) ;
#136 =( CONVERSION_BASED_UNIT ( 'INCH', #60 ) LENGTH_UNIT ( ) NAMED_UNIT ( #1 ) );
#137 = CONICAL_SURFACE ( 'NONE', #64, 0.003936999999999995191, 0.7853981633974501664 ) ;
#138 = DIRECTION ( 'NONE',  ( 0.0000000000000000000, 0.0000000000000000000, 1.000000000000000000 ) ) ;
#139 = ADVANCED_FACE ( 'NONE', ( #34 ), #186, .T. ) ;
#140 = ORIENTED_EDGE ( 'NONE', *, *, #52, .T. ) ;
#141 = CARTESIAN_POINT ( 'NONE',  ( 0.0000000000000000000, 0.0000000000000000000, 1.953504000000000129 ) ) ;
#142 = CARTESIAN_POINT ( 'NONE',  ( 0.0000000000000000000, 0.0000000000000000000, 1.968503999999999809 ) ) ;
#143 = EDGE_LOOP ( 'NONE', ( #65, #8 ) ) ;
#144 = ORIENTED_EDGE ( 'NONE', *, *, #157, .T. ) ;
#145 = EDGE_CURVE ( 'NONE', #162, #95, #149, .T. ) ;
#146 = APPLICATION_PROTOCOL_DEFINITION ( 'draft international standard', 'automotive_design', 1998, #246 ) ;
#147 = PRODUCT ( 'Micro_RNCM-040-1X', 'Micro_RNCM-040-1X', '', ( #87 ) ) ;
#148 = LINE ( 'NONE', #212, #73 ) ;
#149 = LINE ( 'NONE', #130, #51 ) ;
#150 =( NAMED_UNIT ( * ) SI_UNIT ( $, .STERADIAN. ) SOLID_ANGLE_UNIT ( ) );
#151 = DIRECTION ( 'NONE',  ( 1.000000000000000000, 0.0000000000000000000, 0.0000000000000000000 ) ) ;
#152 = DIRECTION ( 'NONE',  ( 0.0000000000000000000, 0.0000000000000000000, 1.000000000000000000 ) ) ;
#153 = MECHANICAL_DESIGN_GEOMETRIC_PRESENTATION_REPRESENTATION (  '', ( #159 ), #84 ) ;
#154 = AXIS2_PLACEMENT_3D ( 'NONE', #235, #138, #26 ) ;
#155 = CARTESIAN_POINT ( 'NONE',  ( 0.0000000000000000000, 0.0000000000000000000, 1.968503999999999809 ) ) ;
#156 = DIRECTION ( 'NONE',  ( -1.000000000000000000, 0.0000000000000000000, 0.0000000000000000000 ) ) ;
#157 = EDGE_CURVE ( 'NONE', #86, #28, #39, .T. ) ;
#158 = FACE_OUTER_BOUND ( 'NONE', #88, .T. ) ;
#159 = STYLED_ITEM ( 'NONE', ( #6 ), #244 ) ;
#160 = VERTEX_POINT ( 'NONE', #209 ) ;
#161 = DIRECTION ( 'NONE',  ( 0.0000000000000000000, 0.0000000000000000000, -1.000000000000000000 ) ) ;
#162 = VERTEX_POINT ( 'NONE', #36 ) ;
#163 = ORIENTED_EDGE ( 'NONE', *, *, #177, .T. ) ;
#164 = UNCERTAINTY_MEASURE_WITH_UNIT (LENGTH_MEASURE( 1.000000000000000082E-05 ), #111, 'distance_accuracy_value', 'NONE');
#165 = MECHANICAL_DESIGN_GEOMETRIC_PRESENTATION_REPRESENTATION (  '', ( #135 ), #11 ) ;
#166 = VERTEX_POINT ( 'NONE', #114 ) ;
#167 = EDGE_CURVE ( 'NONE', #77, #160, #187, .T. ) ;
#168 = CARTESIAN_POINT ( 'NONE',  ( -0.07874000000000000443, 0.0000000000000000000, 1.968503999999999809 ) ) ;
#169 = SURFACE_STYLE_FILL_AREA ( #109 ) ;
#170 = DIRECTION ( 'NONE',  ( -1.000000000000000000, 0.0000000000000000000, 0.0000000000000000000 ) ) ;
#171 = CARTESIAN_POINT ( 'NONE',  ( 0.0000000000000000000, 0.0000000000000000000, 0.0000000000000000000 ) ) ;
#172 = DIRECTION ( 'NONE',  ( -1.000000000000000000, 0.0000000000000000000, 0.0000000000000000000 ) ) ;
#173 = CIRCLE ( 'NONE', #116, 0.003936999999999995191 ) ;
#174 = AXIS2_PLACEMENT_3D ( 'NONE', #155, #152, #208 ) ;
#175 = PLANE ( 'NONE',  #32 ) ;
#176 = DIMENSIONAL_EXPONENTS ( 1.000000000000000000, 0.0000000000000000000, 0.0000000000000000000, 0.0000000000000000000, 0.0000000000000000000, 0.0000000000000000000, 0.0000000000000000000 ) ;
#177 = EDGE_CURVE ( 'NONE', #200, #166, #232, .T. ) ;
#178 = FILL_AREA_STYLE ('',( #23 ) ) ;
#179 = DIRECTION ( 'NONE',  ( 1.000000000000000000, 0.0000000000000000000, 0.0000000000000000000 ) ) ;
#180 = ORIENTED_EDGE ( 'NONE', *, *, #101, .T. ) ;
#181 = PRESENTATION_LAYER_ASSIGNMENT (  '', '', ( #135 ) ) ;
#182 = DIRECTION ( 'NONE',  ( -0.0000000000000000000, -0.0000000000000000000, -1.000000000000000000 ) ) ;
#183 = ADVANCED_FACE ( 'NONE', ( #158 ), #231, .T. ) ;
#184 = EDGE_LOOP ( 'NONE', ( #46, #126, #83, #68 ) ) ;
#185 =( NAMED_UNIT ( * ) PLANE_ANGLE_UNIT ( ) SI_UNIT ( $, .RADIAN. ) );
#186 = CYLINDRICAL_SURFACE ( 'NONE', #194, 0.07874000000000000443 ) ;
#187 = LINE ( 'NONE', #228, #99 ) ;
#188 = EDGE_CURVE ( 'NONE', #160, #95, #108, .T. ) ;
#189 = DIRECTION ( 'NONE',  ( -0.0000000000000000000, -0.0000000000000000000, -1.000000000000000000 ) ) ;
#190 =( NAMED_UNIT ( * ) PLANE_ANGLE_UNIT ( ) SI_UNIT ( $, .RADIAN. ) );
#191 = PRESENTATION_LAYER_ASSIGNMENT (  '', '', ( #159 ) ) ;
#192 = ADVANCED_FACE ( 'NONE', ( #118 ), #127, .T. ) ;
#193 = DIRECTION ( 'NONE',  ( 1.000000000000000000, 0.0000000000000000000, 0.0000000000000000000 ) ) ;
#194 = AXIS2_PLACEMENT_3D ( 'NONE', #76, #71, #225 ) ;
#195 = DIRECTION ( 'NONE',  ( 1.000000000000000000, 0.0000000000000000000, -0.0000000000000000000 ) ) ;
#196 = ORIENTED_EDGE ( 'NONE', *, *, #31, .T. ) ;
#197 =( LENGTH_UNIT ( ) NAMED_UNIT ( * ) SI_UNIT ( $, .METRE. ) );
#198 = APPLICATION_CONTEXT ( 'automotive_design' ) ;
#199 = AXIS2_PLACEMENT_3D ( 'NONE', #55, #115, #97 ) ;
#200 = VERTEX_POINT ( 'NONE', #103 ) ;
#201 = APPLICATION_PROTOCOL_DEFINITION ( 'draft international standard', 'automotive_design', 1998, #198 ) ;
#202 = ADVANCED_FACE ( 'NONE', ( #102 ), #175, .F. ) ;
#203 = CIRCLE ( 'NONE', #10, 0.003936999999999995191 ) ;
#204 = EDGE_LOOP ( 'NONE', ( #163, #196, #57, #123 ) ) ;
#205 = VECTOR ( 'NONE', #182, 39.37007874015748143 ) ;
#206 = AXIS2_PLACEMENT_3D ( 'NONE', #22, #230, #80 ) ;
#207 = DIRECTION ( 'NONE',  ( 0.7071067811865502373, 8.659560562354966138E-17, -0.7071067811865446862 ) ) ;
#208 = DIRECTION ( 'NONE',  ( 1.000000000000000000, 0.0000000000000000000, 0.0000000000000000000 ) ) ;
#209 = CARTESIAN_POINT ( 'NONE',  ( 0.07874000000000000443, 9.642868896486258509E-18, 0.07480299999999973082 ) ) ;
#210 = EDGE_CURVE ( 'NONE', #166, #200, #72, .T. ) ;
#211 = DIRECTION ( 'NONE',  ( 0.0000000000000000000, 0.0000000000000000000, 1.000000000000000000 ) ) ;
#212 = CARTESIAN_POINT ( 'NONE',  ( -0.06374000000000018540, 0.0000000000000000000, 1.968503999999999809 ) ) ;
#213 = SURFACE_SIDE_STYLE ('',( #105 ) ) ;
#214 = CIRCLE ( 'NONE', #21, 0.07874000000000000443 ) ;
#215 = CONICAL_SURFACE ( 'NONE', #199, 0.003936999999999995191, 0.7853981633974501664 ) ;
#216 = AXIS2_PLACEMENT_3D ( 'NONE', #67, #161, #85 ) ;
#217 = CARTESIAN_POINT ( 'NONE',  ( 0.0000000000000000000, 0.0000000000000000000, 0.0000000000000000000 ) ) ;
#218 = CARTESIAN_POINT ( 'NONE',  ( 0.0000000000000000000, 0.0000000000000000000, 0.0000000000000000000 ) ) ;
#219 = ORIENTED_EDGE ( 'NONE', *, *, #15, .T. ) ;
#220 = SHAPE_DEFINITION_REPRESENTATION ( #110, #234 ) ;
#221 = VECTOR ( 'NONE', #243, 39.37007874015748143 ) ;
#222 = ORIENTED_EDGE ( 'NONE', *, *, #25, .F. ) ;
#223 = VECTOR ( 'NONE', #207, 39.37007874015748854 ) ;
#224 = ORIENTED_EDGE ( 'NONE', *, *, #157, .F. ) ;
#225 = DIRECTION ( 'NONE',  ( -1.000000000000000000, 0.0000000000000000000, 0.0000000000000000000 ) ) ;
#226 = CARTESIAN_POINT ( 'NONE',  ( 0.0000000000000000000, 0.0000000000000000000, 0.0000000000000000000 ) ) ;
#227 = CIRCLE ( 'NONE', #174, 0.06374000000000018540 ) ;
#228 = CARTESIAN_POINT ( 'NONE',  ( 0.003936999999999995191, 0.0000000000000000000, 0.0000000000000000000 ) ) ;
#229 = ADVANCED_FACE ( 'NONE', ( #117 ), #134, .T. ) ;
#230 = DIRECTION ( 'NONE',  ( -0.0000000000000000000, -0.0000000000000000000, -1.000000000000000000 ) ) ;
#231 = CONICAL_SURFACE ( 'NONE', #216, 0.06374000000000018540, 0.7853981633974522758 ) ;
#232 = CIRCLE ( 'NONE', #89, 0.07874000000000000443 ) ;
#233 = ORIENTED_EDGE ( 'NONE', *, *, #101, .F. ) ;
#234 = ADVANCED_BREP_SHAPE_REPRESENTATION ( 'Micro_RNCM-040-1X', ( #244, #131 ), #5 ) ;
#235 = CARTESIAN_POINT ( 'NONE',  ( 0.0000000000000000000, 0.0000000000000000000, 1.968503999999999809 ) ) ;
#236 = EDGE_CURVE ( 'NONE', #95, #160, #214, .T. ) ;
#237 = ORIENTED_EDGE ( 'NONE', *, *, #236, .T. ) ;
#238 = DIRECTION ( 'NONE',  ( -1.000000000000000000, 0.0000000000000000000, 0.0000000000000000000 ) ) ;
#239 = ORIENTED_EDGE ( 'NONE', *, *, #52, .F. ) ;
#240 = SURFACE_SIDE_STYLE ('',( #169 ) ) ;
#241 = CARTESIAN_POINT ( 'NONE',  ( 0.0000000000000000000, 0.0000000000000000000, 1.968503999999999809 ) ) ;
#242 =( NAMED_UNIT ( * ) SI_UNIT ( $, .STERADIAN. ) SOLID_ANGLE_UNIT ( ) );
#243 = DIRECTION ( 'NONE',  ( -0.0000000000000000000, -0.0000000000000000000, -1.000000000000000000 ) ) ;
#244 = MANIFOLD_SOLID_BREP ( 'Cut-Revolve1', #41 ) ;
#245 = DIRECTION ( 'NONE',  ( -0.0000000000000000000, -0.0000000000000000000, -1.000000000000000000 ) ) ;
#246 = APPLICATION_CONTEXT ( 'automotive_design' ) ;
#247 = CYLINDRICAL_SURFACE ( 'NONE', #16, 0.07874000000000000443 ) ;
#248 = DIRECTION ( 'NONE',  ( -0.0000000000000000000, -0.0000000000000000000, -1.000000000000000000 ) ) ;
#249 = AXIS2_PLACEMENT_3D ( 'NONE', #45, #27, #179 ) ;
ENDSEC;
END-ISO-10303-21;
