ISO-10303-21;
HEADER;
FILE_DESCRIPTION (( 'STEP AP214' ),
    '1' );
FILE_NAME ('17092.STEP',
    '2023-06-30T21:52:14',
    ( '' ),
    ( '' ),
    'SwSTEP 2.0',
    'SolidWorks 2023',
    '' );
FILE_SCHEMA (( 'AUTOMOTIVE_DESIGN' ));
ENDSEC;

DATA;
#1 =( NAMED_UNIT ( * ) PLANE_ANGLE_UNIT ( ) SI_UNIT ( $, .RADIAN. ) );
#2 = AXIS2_PLACEMENT_3D ( 'NONE', #192, #96, #329 ) ;
#3 = CARTESIAN_POINT ( 'NONE',  ( 0.09374999999999995837, 0.3125000000000000000, 1.148106374200641706E-17 ) ) ;
#4 =( CONVERSION_BASED_UNIT ( 'INCH', #295 ) LENGTH_UNIT ( ) NAMED_UNIT ( #143 ) );
#5 = EDGE_CURVE ( 'NONE', #359, #362, #291, .T. ) ;
#6 = MECHANICAL_DESIGN_GEOMETRIC_PRESENTATION_REPRESENTATION (  '', ( #352 ), #214 ) ;
#7 = EDGE_LOOP ( 'NONE', ( #176, #58 ) ) ;
#8 = DIRECTION ( 'NONE',  ( -0.000000000000000000, -1.000000000000000000, -0.000000000000000000 ) ) ;
#9 = EDGE_CURVE ( 'NONE', #362, #359, #128, .T. ) ;
#10 = LENGTH_MEASURE_WITH_UNIT ( LENGTH_MEASURE( 0.02539999999999999897 ), #120 );
#11 = ORIENTED_EDGE ( 'NONE', *, *, #5, .F. ) ;
#12 = APPLICATION_PROTOCOL_DEFINITION ( 'draft international standard', 'automotive_design', 1998, #202 ) ;
#13 = EDGE_CURVE ( 'NONE', #224, #156, #333, .T. ) ;
#14 = SURFACE_SIDE_STYLE ('',( #92 ) ) ;
#15 = CIRCLE ( 'NONE', #229, 0.09374999999999998612 ) ;
#16 =( NAMED_UNIT ( * ) SI_UNIT ( $, .STERADIAN. ) SOLID_ANGLE_UNIT ( ) );
#17 =( NAMED_UNIT ( * ) SI_UNIT ( $, .STERADIAN. ) SOLID_ANGLE_UNIT ( ) );
#18 = DIRECTION ( 'NONE',  ( -0.000000000000000000, -1.000000000000000000, -0.000000000000000000 ) ) ;
#19 =( CONVERSION_BASED_UNIT ( 'INCH', #282 ) LENGTH_UNIT ( ) NAMED_UNIT ( #87 ) );
#20 = FACE_OUTER_BOUND ( 'NONE', #310, .T. ) ;
#21 = ORIENTED_EDGE ( 'NONE', *, *, #112, .F. ) ;
#22 = AXIS2_PLACEMENT_3D ( 'NONE', #287, #59, #61 ) ;
#23 = FILL_AREA_STYLE_COLOUR ( '', #332 ) ;
#24 = UNCERTAINTY_MEASURE_WITH_UNIT (LENGTH_MEASURE( 1.000000000000000082E-05 ), #4, 'distance_accuracy_value', 'NONE');
#25 = CIRCLE ( 'NONE', #354, 0.09374999999999997224 ) ;
#26 = CARTESIAN_POINT ( 'NONE',  ( 1.148106374200643401E-17, 0.000000000000000000, 0.09374999999999998612 ) ) ;
#27 = VECTOR ( 'NONE', #18, 39.37007874015748143 ) ;
#28 = MECHANICAL_DESIGN_GEOMETRIC_PRESENTATION_REPRESENTATION (  '', ( #142 ), #34 ) ;
#29 = PLANE ( 'NONE',  #56 ) ;
#30 = PRESENTATION_STYLE_ASSIGNMENT (( #88 ) ) ;
#31 = DIRECTION ( 'NONE',  ( 0.000000000000000000, 0.000000000000000000, -1.000000000000000000 ) ) ;
#32 = ADVANCED_FACE ( 'NONE', ( #220 ), #158, .F. ) ;
#33 = UNCERTAINTY_MEASURE_WITH_UNIT (LENGTH_MEASURE( 1.000000000000000082E-05 ), #274, 'distance_accuracy_value', 'NONE');
#34 =( GEOMETRIC_REPRESENTATION_CONTEXT ( 3 ) GLOBAL_UNCERTAINTY_ASSIGNED_CONTEXT ( ( #33 ) ) GLOBAL_UNIT_ASSIGNED_CONTEXT ( ( #274, #273, #16 ) ) REPRESENTATION_CONTEXT ( 'NONE', 'WORKASPACE' ) );
#35 = ORIENTED_EDGE ( 'NONE', *, *, #112, .T. ) ;
#36 = FACE_OUTER_BOUND ( 'NONE', #342, .T. ) ;
#37 = DIRECTION ( 'NONE',  ( 0.000000000000000000, 0.000000000000000000, -1.000000000000000000 ) ) ;
#38 =( NAMED_UNIT ( * ) SI_UNIT ( $, .STERADIAN. ) SOLID_ANGLE_UNIT ( ) );
#39 = DIRECTION ( 'NONE',  ( 0.000000000000000000, 0.000000000000000000, 1.000000000000000000 ) ) ;
#40 = AXIS2_PLACEMENT_3D ( 'NONE', #149, #347, #37 ) ;
#41 = COLOUR_RGB ( '',1.000000000000000000, 0.000000000000000000, 0.000000000000000000 ) ;
#42 = SURFACE_STYLE_USAGE ( .BOTH. , #127 ) ;
#43 = PRESENTATION_STYLE_ASSIGNMENT (( #305 ) ) ;
#44 = SURFACE_STYLE_FILL_AREA ( #184 ) ;
#45 = ORIENTED_EDGE ( 'NONE', *, *, #9, .T. ) ;
#46 = CARTESIAN_POINT ( 'NONE',  ( 0.000000000000000000, 0.3125000000000000000, 0.000000000000000000 ) ) ;
#47 = MECHANICAL_DESIGN_GEOMETRIC_PRESENTATION_REPRESENTATION (  '', ( #285 ), #171 ) ;
#48 = AXIS2_PLACEMENT_3D ( 'NONE', #113, #170, #83 ) ;
#49 =( GEOMETRIC_REPRESENTATION_CONTEXT ( 3 ) GLOBAL_UNCERTAINTY_ASSIGNED_CONTEXT ( ( #349 ) ) GLOBAL_UNIT_ASSIGNED_CONTEXT ( ( #351, #325, #298 ) ) REPRESENTATION_CONTEXT ( 'NONE', 'WORKASPACE' ) );
#50 = EDGE_LOOP ( 'NONE', ( #164, #74, #159, #251 ) ) ;
#51 = CARTESIAN_POINT ( 'NONE',  ( 0.000000000000000000, 0.09375000000000004163, 0.000000000000000000 ) ) ;
#52 = AXIS2_PLACEMENT_3D ( 'NONE', #239, #241, #77 ) ;
#53 = AXIS2_PLACEMENT_3D ( 'NONE', #218, #39, #154 ) ;
#54 = ADVANCED_FACE ( 'NONE', ( #131 ), #66, .T. ) ;
#55 = CARTESIAN_POINT ( 'NONE',  ( 0.09374999999999998612, 0.09375000000000004163, 0.000000000000000000 ) ) ;
#56 = AXIS2_PLACEMENT_3D ( 'NONE', #321, #323, #346 ) ;
#57 = AXIS2_PLACEMENT_3D ( 'NONE', #51, #136, #370 ) ;
#58 = ORIENTED_EDGE ( 'NONE', *, *, #372, .F. ) ;
#59 = DIRECTION ( 'NONE',  ( 0.000000000000000000, 0.000000000000000000, 1.000000000000000000 ) ) ;
#60 = ADVANCED_FACE ( 'NONE', ( #20 ), #307, .T. ) ;
#61 = DIRECTION ( 'NONE',  ( 1.000000000000000000, 0.000000000000000000, 0.000000000000000000 ) ) ;
#62 = VERTEX_POINT ( 'NONE', #181 ) ;
#63 = UNCERTAINTY_MEASURE_WITH_UNIT (LENGTH_MEASURE( 1.000000000000000082E-05 ), #237, 'distance_accuracy_value', 'NONE');
#64 = VECTOR ( 'NONE', #175, 39.37007874015748143 ) ;
#65 = FILL_AREA_STYLE ('',( #146 ) ) ;
#66 = CYLINDRICAL_SURFACE ( 'NONE', #2, 0.09374999999999980571 ) ;
#67 = CARTESIAN_POINT ( 'NONE',  ( -0.09374999999999983347, 2.000000000000000000, 0.000000000000000000 ) ) ;
#68 = CYLINDRICAL_SURFACE ( 'NONE', #242, 0.09374999999999980571 ) ;
#69 = EDGE_CURVE ( 'NONE', #284, #195, #203, .T. ) ;
#70 = DIRECTION ( 'NONE',  ( -1.000000000000000000, -1.231614398321443036E-16, 0.000000000000000000 ) ) ;
#71 = EDGE_LOOP ( 'NONE', ( #45, #193 ) ) ;
#72 = PRESENTATION_STYLE_ASSIGNMENT (( #363 ) ) ;
#73 = ADVANCED_FACE ( 'NONE', ( #270 ), #68, .T. ) ;
#74 = ORIENTED_EDGE ( 'NONE', *, *, #138, .T. ) ;
#75 = DIRECTION ( 'NONE',  ( -0.000000000000000000, -1.000000000000000000, -0.000000000000000000 ) ) ;
#76 = CARTESIAN_POINT ( 'NONE',  ( 0.000000000000000000, 0.3125000000000000000, 0.000000000000000000 ) ) ;
#77 = DIRECTION ( 'NONE',  ( -1.000000000000000000, 0.000000000000000000, 0.000000000000000000 ) ) ;
#78 = ORIENTED_EDGE ( 'NONE', *, *, #103, .T. ) ;
#79 = DIRECTION ( 'NONE',  ( 0.000000000000000000, -0.000000000000000000, 1.000000000000000000 ) ) ;
#80 =( GEOMETRIC_REPRESENTATION_CONTEXT ( 3 ) GLOBAL_UNCERTAINTY_ASSIGNED_CONTEXT ( ( #119 ) ) GLOBAL_UNIT_ASSIGNED_CONTEXT ( ( #225, #194, #255 ) ) REPRESENTATION_CONTEXT ( 'NONE', 'WORKASPACE' ) );
#81 = COLOUR_RGB ( '',0.7921568627450980005, 0.8196078431372548767, 0.9333333333333333481 ) ;
#82 = PRODUCT_DEFINITION ( 'UNKNOWN', '', #366, #252 ) ;
#83 = DIRECTION ( 'NONE',  ( 0.000000000000000000, 0.000000000000000000, -1.000000000000000000 ) ) ;
#84 = SPHERICAL_SURFACE ( 'NONE', #22, 0.09375000000000002776 ) ;
#85 = STYLED_ITEM ( 'NONE', ( #331 ), #317 ) ;
#86 = CARTESIAN_POINT ( 'NONE',  ( 2.690672696741111573E-16, 0.3125000000000000000, 0.000000000000000000 ) ) ;
#87 = DIMENSIONAL_EXPONENTS ( 1.000000000000000000, 0.000000000000000000, 0.000000000000000000, 0.000000000000000000, 0.000000000000000000, 0.000000000000000000, 0.000000000000000000 ) ;
#88 = SURFACE_STYLE_USAGE ( .BOTH. , #118 ) ;
#89 = SURFACE_STYLE_FILL_AREA ( #302 ) ;
#90 =( NAMED_UNIT ( * ) SI_UNIT ( $, .STERADIAN. ) SOLID_ANGLE_UNIT ( ) );
#91 = CIRCLE ( 'NONE', #153, 0.09374999999999998612 ) ;
#92 = SURFACE_STYLE_FILL_AREA ( #240 ) ;
#93 = DIRECTION ( 'NONE',  ( -1.231614398321443036E-16, 1.000000000000000000, -0.000000000000000000 ) ) ;
#94 = MANIFOLD_SOLID_BREP ( 'Revolve - Cutting Edge', #260 ) ;
#95 =( NAMED_UNIT ( * ) PLANE_ANGLE_UNIT ( ) SI_UNIT ( $, .RADIAN. ) );
#96 = DIRECTION ( 'NONE',  ( -1.231614398321443036E-16, 1.000000000000000000, -0.000000000000000000 ) ) ;
#97 = DIRECTION ( 'NONE',  ( -0.000000000000000000, -1.000000000000000000, -0.000000000000000000 ) ) ;
#98 =( LENGTH_UNIT ( ) NAMED_UNIT ( * ) SI_UNIT ( $, .METRE. ) );
#99 = MANIFOLD_SOLID_BREP ( 'Revolve - Tool Body (Straight Shanked)', #114 ) ;
#100 = ORIENTED_EDGE ( 'NONE', *, *, #283, .T. ) ;
#101 = FILL_AREA_STYLE_COLOUR ( '', #365 ) ;
#102 = CARTESIAN_POINT ( 'NONE',  ( 0.09374999999999987510, 2.000000000000000000, 1.148106374200641089E-17 ) ) ;
#103 = EDGE_CURVE ( 'NONE', #221, #132, #339, .T. ) ;
#104 =( LENGTH_UNIT ( ) NAMED_UNIT ( * ) SI_UNIT ( $, .METRE. ) );
#105 = ORIENTED_EDGE ( 'NONE', *, *, #167, .T. ) ;
#106 = ORIENTED_EDGE ( 'NONE', *, *, #167, .F. ) ;
#107 = CARTESIAN_POINT ( 'NONE',  ( -5.740531871003220085E-18, 0.000000000000000000, 0.000000000000000000 ) ) ;
#108 = EDGE_CURVE ( 'NONE', #62, #269, #15, .T. ) ;
#109 = CARTESIAN_POINT ( 'NONE',  ( -1.148106374200644017E-17, 0.09375000000000002776, 0.000000000000000000 ) ) ;
#110 = DIRECTION ( 'NONE',  ( 1.000000000000000000, 0.000000000000000000, -1.224646799147353207E-16 ) ) ;
#111 =( GEOMETRIC_REPRESENTATION_CONTEXT ( 3 ) GLOBAL_UNCERTAINTY_ASSIGNED_CONTEXT ( ( #139 ) ) GLOBAL_UNIT_ASSIGNED_CONTEXT ( ( #183, #95, #219 ) ) REPRESENTATION_CONTEXT ( 'NONE', 'WORKASPACE' ) );
#112 = EDGE_CURVE ( 'NONE', #269, #132, #292, .T. ) ;
#113 = CARTESIAN_POINT ( 'NONE',  ( 0.000000000000000000, 0.3125000000000000000, 0.000000000000000000 ) ) ;
#114 = CLOSED_SHELL ( 'NONE', ( #54, #32, #73, #182 ) ) ;
#115 = CIRCLE ( 'NONE', #57, 0.09374999999999998612 ) ;
#116 = DIRECTION ( 'NONE',  ( -1.231614398321443036E-16, 1.000000000000000000, -0.000000000000000000 ) ) ;
#117 = APPLICATION_CONTEXT ( 'automotive_design' ) ;
#118 = SURFACE_SIDE_STYLE ('',( #320 ) ) ;
#119 = UNCERTAINTY_MEASURE_WITH_UNIT (LENGTH_MEASURE( 1.000000000000000082E-05 ), #225, 'distance_accuracy_value', 'NONE');
#120 =( LENGTH_UNIT ( ) NAMED_UNIT ( * ) SI_UNIT ( $, .METRE. ) );
#121 = DIRECTION ( 'NONE',  ( 0.000000000000000000, 0.000000000000000000, 1.000000000000000000 ) ) ;
#122 = FILL_AREA_STYLE_COLOUR ( '', #256 ) ;
#123 = SURFACE_STYLE_FILL_AREA ( #65 ) ;
#124 = DIRECTION ( 'NONE',  ( -1.000000000000000000, 0.000000000000000000, 0.000000000000000000 ) ) ;
#125 = FACE_OUTER_BOUND ( 'NONE', #345, .T. ) ;
#126 = ORIENTED_EDGE ( 'NONE', *, *, #350, .T. ) ;
#127 = SURFACE_SIDE_STYLE ('',( #276 ) ) ;
#128 = CIRCLE ( 'NONE', #313, 0.09374999999999990286 ) ;
#129 = ORIENTED_EDGE ( 'NONE', *, *, #108, .F. ) ;
#130 = CARTESIAN_POINT ( 'NONE',  ( 0.000000000000000000, 0.09375000000000004163, 0.000000000000000000 ) ) ;
#131 = FACE_OUTER_BOUND ( 'NONE', #50, .T. ) ;
#132 = VERTEX_POINT ( 'NONE', #107 ) ;
#133 = SURFACE_STYLE_USAGE ( .BOTH. , #364 ) ;
#134 = ORIENTED_EDGE ( 'NONE', *, *, #350, .F. ) ;
#135 = ADVANCED_BREP_SHAPE_REPRESENTATION ( '17092', ( #94, #99, #53 ), #111 ) ;
#136 = DIRECTION ( 'NONE',  ( -0.000000000000000000, -1.000000000000000000, -0.000000000000000000 ) ) ;
#137 = PRESENTATION_LAYER_ASSIGNMENT (  '', '', ( #85 ) ) ;
#138 = EDGE_CURVE ( 'NONE', #195, #359, #228, .T. ) ;
#139 = UNCERTAINTY_MEASURE_WITH_UNIT (LENGTH_MEASURE( 1.000000000000000082E-05 ), #183, 'distance_accuracy_value', 'NONE');
#140 = ADVANCED_FACE ( 'NONE', ( #280 ), #191, .T. ) ;
#141 = LINE ( 'NONE', #26, #64 ) ;
#142 = STYLED_ITEM ( 'NONE', ( #43 ), #94 ) ;
#143 = DIMENSIONAL_EXPONENTS ( 1.000000000000000000, 0.000000000000000000, 0.000000000000000000, 0.000000000000000000, 0.000000000000000000, 0.000000000000000000, 0.000000000000000000 ) ;
#144 = ORIENTED_EDGE ( 'NONE', *, *, #372, .T. ) ;
#145 = CARTESIAN_POINT ( 'NONE',  ( 0.000000000000000000, 0.09375000000000004163, 0.000000000000000000 ) ) ;
#146 = FILL_AREA_STYLE_COLOUR ( '', #163 ) ;
#147 = PRESENTATION_LAYER_ASSIGNMENT (  '', '', ( #337 ) ) ;
#148 = CARTESIAN_POINT ( 'NONE',  ( 6.123233995736766036E-17, 2.000000000000000000, 0.000000000000000000 ) ) ;
#149 = CARTESIAN_POINT ( 'NONE',  ( 0.000000000000000000, 0.000000000000000000, 0.000000000000000000 ) ) ;
#150 = APPLICATION_PROTOCOL_DEFINITION ( 'draft international standard', 'automotive_design', 1998, #117 ) ;
#151 = DIRECTION ( 'NONE',  ( -1.231614398321443036E-16, 1.000000000000000000, -0.000000000000000000 ) ) ;
#152 = LENGTH_MEASURE_WITH_UNIT ( LENGTH_MEASURE( 0.02539999999999999897 ), #98 );
#153 = AXIS2_PLACEMENT_3D ( 'NONE', #145, #204, #236 ) ;
#154 = DIRECTION ( 'NONE',  ( 1.000000000000000000, 0.000000000000000000, 0.000000000000000000 ) ) ;
#155 = CARTESIAN_POINT ( 'NONE',  ( 1.148106374200643247E-17, 0.3125000000000000000, 0.09374999999999997224 ) ) ;
#156 = VERTEX_POINT ( 'NONE', #316 ) ;
#157 = DIRECTION ( 'NONE',  ( -1.231614398321443036E-16, 1.000000000000000000, -0.000000000000000000 ) ) ;
#158 = PLANE ( 'NONE',  #233 ) ;
#159 = ORIENTED_EDGE ( 'NONE', *, *, #9, .F. ) ;
#160 = DIRECTION ( 'NONE',  ( 0.000000000000000000, 0.000000000000000000, -1.000000000000000000 ) ) ;
#161 = COLOUR_RGB ( '',1.000000000000000000, 0.000000000000000000, 0.000000000000000000 ) ;
#162 = CARTESIAN_POINT ( 'NONE',  ( 2.690672696741111573E-16, 0.3125000000000000000, 0.000000000000000000 ) ) ;
#163 = COLOUR_RGB ( '',0.7921568627450980005, 0.8196078431372548767, 0.9333333333333333481 ) ;
#164 = ORIENTED_EDGE ( 'NONE', *, *, #69, .T. ) ;
#165 =( GEOMETRIC_REPRESENTATION_CONTEXT ( 3 ) GLOBAL_UNCERTAINTY_ASSIGNED_CONTEXT ( ( #268 ) ) GLOBAL_UNIT_ASSIGNED_CONTEXT ( ( #301, #216, #38 ) ) REPRESENTATION_CONTEXT ( 'NONE', 'WORKASPACE' ) );
#166 = FACE_OUTER_BOUND ( 'NONE', #348, .T. ) ;
#167 = EDGE_CURVE ( 'NONE', #269, #156, #115, .T. ) ;
#168 = DIMENSIONAL_EXPONENTS ( 1.000000000000000000, 0.000000000000000000, 0.000000000000000000, 0.000000000000000000, 0.000000000000000000, 0.000000000000000000, 0.000000000000000000 ) ;
#169 = PRODUCT_DEFINITION_SHAPE ( 'NONE', 'NONE',  #82 ) ;
#170 = DIRECTION ( 'NONE',  ( -0.000000000000000000, -1.000000000000000000, -0.000000000000000000 ) ) ;
#171 =( GEOMETRIC_REPRESENTATION_CONTEXT ( 3 ) GLOBAL_UNCERTAINTY_ASSIGNED_CONTEXT ( ( #24 ) ) GLOBAL_UNIT_ASSIGNED_CONTEXT ( ( #4, #217, #90 ) ) REPRESENTATION_CONTEXT ( 'NONE', 'WORKASPACE' ) );
#172 = AXIS2_PLACEMENT_3D ( 'NONE', #328, #121, #246 ) ;
#173 = DIMENSIONAL_EXPONENTS ( 1.000000000000000000, 0.000000000000000000, 0.000000000000000000, 0.000000000000000000, 0.000000000000000000, 0.000000000000000000, 0.000000000000000000 ) ;
#174 = CARTESIAN_POINT ( 'NONE',  ( -0.09374999999999943101, 0.3125000000000000000, 0.000000000000000000 ) ) ;
#175 = DIRECTION ( 'NONE',  ( -0.000000000000000000, -1.000000000000000000, -0.000000000000000000 ) ) ;
#176 = ORIENTED_EDGE ( 'NONE', *, *, #247, .F. ) ;
#177 = MECHANICAL_DESIGN_GEOMETRIC_PRESENTATION_REPRESENTATION (  '', ( #234 ), #80 ) ;
#178 = ORIENTED_EDGE ( 'NONE', *, *, #108, .T. ) ;
#179 = DIRECTION ( 'NONE',  ( 0.000000000000000000, 0.000000000000000000, -1.000000000000000000 ) ) ;
#180 = CARTESIAN_POINT ( 'NONE',  ( 2.690672696741111573E-16, 0.3125000000000000000, 0.000000000000000000 ) ) ;
#181 = CARTESIAN_POINT ( 'NONE',  ( 1.148106374200643401E-17, 0.09375000000000004163, 0.09374999999999998612 ) ) ;
#182 = ADVANCED_FACE ( 'NONE', ( #200 ), #29, .F. ) ;
#183 =( CONVERSION_BASED_UNIT ( 'INCH', #299 ) LENGTH_UNIT ( ) NAMED_UNIT ( #319 ) );
#184 = FILL_AREA_STYLE ('',( #253 ) ) ;
#185 = SPHERICAL_SURFACE ( 'NONE', #172, 0.09375000000000002776 ) ;
#186 = CARTESIAN_POINT ( 'NONE',  ( 6.123233995736766036E-17, 2.000000000000000000, 0.000000000000000000 ) ) ;
#187 = PRESENTATION_LAYER_ASSIGNMENT (  '', '', ( #234 ) ) ;
#188 = CIRCLE ( 'NONE', #286, 0.09374999999999969469 ) ;
#189 = ORIENTED_EDGE ( 'NONE', *, *, #138, .F. ) ;
#190 = DIRECTION ( 'NONE',  ( -1.231614398321443036E-16, 1.000000000000000000, -0.000000000000000000 ) ) ;
#191 = PLANE ( 'NONE',  #318 ) ;
#192 = CARTESIAN_POINT ( 'NONE',  ( 6.123233995736766036E-17, 2.000000000000000000, 0.000000000000000000 ) ) ;
#193 = ORIENTED_EDGE ( 'NONE', *, *, #5, .T. ) ;
#194 =( NAMED_UNIT ( * ) PLANE_ANGLE_UNIT ( ) SI_UNIT ( $, .RADIAN. ) );
#195 = VERTEX_POINT ( 'NONE', #3 ) ;
#196 = FILL_AREA_STYLE ('',( #23 ) ) ;
#197 = ADVANCED_FACE ( 'NONE', ( #166 ), #84, .T. ) ;
#198 = AXIS2_PLACEMENT_3D ( 'NONE', #244, #97, #179 ) ;
#199 = DIMENSIONAL_EXPONENTS ( 1.000000000000000000, 0.000000000000000000, 0.000000000000000000, 0.000000000000000000, 0.000000000000000000, 0.000000000000000000, 0.000000000000000000 ) ;
#200 = FACE_OUTER_BOUND ( 'NONE', #71, .T. ) ;
#201 = CARTESIAN_POINT ( 'NONE',  ( -0.09374999999999973632, 2.000000000000000000, 0.000000000000000000 ) ) ;
#202 = APPLICATION_CONTEXT ( 'automotive_design' ) ;
#203 = CIRCLE ( 'NONE', #304, 0.09374999999999969469 ) ;
#204 = DIRECTION ( 'NONE',  ( -0.000000000000000000, -1.000000000000000000, -0.000000000000000000 ) ) ;
#205 = VECTOR ( 'NONE', #303, 39.37007874015748143 ) ;
#206 = DIRECTION ( 'NONE',  ( -1.000000000000000000, 0.000000000000000000, 0.000000000000000000 ) ) ;
#207 = CARTESIAN_POINT ( 'NONE',  ( 0.000000000000000000, 0.3125000000000000000, -0.09374999999999997224 ) ) ;
#208 = SURFACE_STYLE_USAGE ( .BOTH. , #245 ) ;
#209 = UNCERTAINTY_MEASURE_WITH_UNIT (LENGTH_MEASURE( 1.000000000000000082E-05 ), #19, 'distance_accuracy_value', 'NONE');
#210 = PRODUCT_CONTEXT ( 'NONE', #117, 'mechanical' ) ;
#211 = FILL_AREA_STYLE ('',( #122 ) ) ;
#212 = DIRECTION ( 'NONE',  ( -1.231614398321443036E-16, 1.000000000000000000, -0.000000000000000000 ) ) ;
#213 = PRESENTATION_LAYER_ASSIGNMENT (  '', '', ( #285 ) ) ;
#214 =( GEOMETRIC_REPRESENTATION_CONTEXT ( 3 ) GLOBAL_UNCERTAINTY_ASSIGNED_CONTEXT ( ( #63 ) ) GLOBAL_UNIT_ASSIGNED_CONTEXT ( ( #237, #1, #265 ) ) REPRESENTATION_CONTEXT ( 'NONE', 'WORKASPACE' ) );
#215 = ORIENTED_EDGE ( 'NONE', *, *, #13, .F. ) ;
#216 =( NAMED_UNIT ( * ) PLANE_ANGLE_UNIT ( ) SI_UNIT ( $, .RADIAN. ) );
#217 =( NAMED_UNIT ( * ) PLANE_ANGLE_UNIT ( ) SI_UNIT ( $, .RADIAN. ) );
#218 = CARTESIAN_POINT ( 'NONE',  ( 0.000000000000000000, 0.000000000000000000, 0.000000000000000000 ) ) ;
#219 =( NAMED_UNIT ( * ) SI_UNIT ( $, .STERADIAN. ) SOLID_ANGLE_UNIT ( ) );
#220 = FACE_OUTER_BOUND ( 'NONE', #227, .T. ) ;
#221 = VERTEX_POINT ( 'NONE', #55 ) ;
#222 = LENGTH_MEASURE_WITH_UNIT ( LENGTH_MEASURE( 0.02539999999999999897 ), #272 );
#223 = SURFACE_STYLE_FILL_AREA ( #196 ) ;
#224 = VERTEX_POINT ( 'NONE', #207 ) ;
#225 =( CONVERSION_BASED_UNIT ( 'INCH', #330 ) LENGTH_UNIT ( ) NAMED_UNIT ( #199 ) );
#226 = CARTESIAN_POINT ( 'NONE',  ( 6.123233995736766036E-17, 2.000000000000000000, 0.000000000000000000 ) ) ;
#227 = EDGE_LOOP ( 'NONE', ( #264, #134 ) ) ;
#228 = LINE ( 'NONE', #102, #266 ) ;
#229 = AXIS2_PLACEMENT_3D ( 'NONE', #130, #277, #335 ) ;
#230 = PRESENTATION_STYLE_ASSIGNMENT (( #133 ) ) ;
#231 = EDGE_CURVE ( 'NONE', #294, #62, #141, .T. ) ;
#232 = DIRECTION ( 'NONE',  ( 0.000000000000000000, 1.000000000000000000, 0.000000000000000000 ) ) ;
#233 = AXIS2_PLACEMENT_3D ( 'NONE', #162, #355, #70 ) ;
#234 = STYLED_ITEM ( 'NONE', ( #324 ), #99 ) ;
#235 = LENGTH_MEASURE_WITH_UNIT ( LENGTH_MEASURE( 0.02539999999999999897 ), #340 );
#236 = DIRECTION ( 'NONE',  ( 0.000000000000000000, 0.000000000000000000, -1.000000000000000000 ) ) ;
#237 =( CONVERSION_BASED_UNIT ( 'INCH', #235 ) LENGTH_UNIT ( ) NAMED_UNIT ( #168 ) );
#238 = EDGE_CURVE ( 'NONE', #221, #62, #261, .T. ) ;
#239 = CARTESIAN_POINT ( 'NONE',  ( -1.148106374200644017E-17, 0.09375000000000002776, 0.000000000000000000 ) ) ;
#240 = FILL_AREA_STYLE ('',( #101 ) ) ;
#241 = DIRECTION ( 'NONE',  ( 0.000000000000000000, 0.000000000000000000, -1.000000000000000000 ) ) ;
#242 = AXIS2_PLACEMENT_3D ( 'NONE', #186, #212, #206 ) ;
#243 = MECHANICAL_DESIGN_GEOMETRIC_PRESENTATION_REPRESENTATION (  '', ( #327 ), #49 ) ;
#244 = CARTESIAN_POINT ( 'NONE',  ( 0.000000000000000000, 0.000000000000000000, 0.000000000000000000 ) ) ;
#245 = SURFACE_SIDE_STYLE ('',( #123 ) ) ;
#246 = DIRECTION ( 'NONE',  ( 1.000000000000000000, 0.000000000000000000, 0.000000000000000000 ) ) ;
#247 = EDGE_CURVE ( 'NONE', #224, #294, #322, .T. ) ;
#248 = EDGE_LOOP ( 'NONE', ( #189, #126, #300, #11 ) ) ;
#249 = PRESENTATION_LAYER_ASSIGNMENT (  '', '', ( #352 ) ) ;
#250 = PRESENTATION_STYLE_ASSIGNMENT (( #361 ) ) ;
#251 = ORIENTED_EDGE ( 'NONE', *, *, #288, .F. ) ;
#252 = PRODUCT_DEFINITION_CONTEXT ( 'detailed design', #202, 'design' ) ;
#253 = FILL_AREA_STYLE_COLOUR ( '', #161 ) ;
#254 = ORIENTED_EDGE ( 'NONE', *, *, #238, .F. ) ;
#255 =( NAMED_UNIT ( * ) SI_UNIT ( $, .STERADIAN. ) SOLID_ANGLE_UNIT ( ) );
#256 = COLOUR_RGB ( '',1.000000000000000000, 0.000000000000000000, 0.000000000000000000 ) ;
#257 = CARTESIAN_POINT ( 'NONE',  ( 0.000000000000000000, 0.09375000000000004163, 0.000000000000000000 ) ) ;
#258 = DIMENSIONAL_EXPONENTS ( 1.000000000000000000, 0.000000000000000000, 0.000000000000000000, 0.000000000000000000, 0.000000000000000000, 0.000000000000000000, 0.000000000000000000 ) ;
#259 = PRODUCT_RELATED_PRODUCT_CATEGORY ( 'part', '', ( #290 ) ) ;
#260 = CLOSED_SHELL ( 'NONE', ( #197, #60, #140, #317, #338 ) ) ;
#261 = CIRCLE ( 'NONE', #281, 0.09374999999999998612 ) ;
#262 = CARTESIAN_POINT ( 'NONE',  ( -0.09375000000000002776, 0.09375000000000004163, 1.148106374200643555E-17 ) ) ;
#263 = ORIENTED_EDGE ( 'NONE', *, *, #13, .T. ) ;
#264 = ORIENTED_EDGE ( 'NONE', *, *, #69, .F. ) ;
#265 =( NAMED_UNIT ( * ) SI_UNIT ( $, .STERADIAN. ) SOLID_ANGLE_UNIT ( ) );
#266 = VECTOR ( 'NONE', #157, 39.37007874015748143 ) ;
#267 = DIRECTION ( 'NONE',  ( -1.000000000000000000, 0.000000000000000000, 0.000000000000000000 ) ) ;
#268 = UNCERTAINTY_MEASURE_WITH_UNIT (LENGTH_MEASURE( 1.000000000000000082E-05 ), #301, 'distance_accuracy_value', 'NONE');
#269 = VERTEX_POINT ( 'NONE', #262 ) ;
#270 = FACE_OUTER_BOUND ( 'NONE', #248, .T. ) ;
#271 = ORIENTED_EDGE ( 'NONE', *, *, #231, .T. ) ;
#272 =( LENGTH_UNIT ( ) NAMED_UNIT ( * ) SI_UNIT ( $, .METRE. ) );
#273 =( NAMED_UNIT ( * ) PLANE_ANGLE_UNIT ( ) SI_UNIT ( $, .RADIAN. ) );
#274 =( CONVERSION_BASED_UNIT ( 'INCH', #152 ) LENGTH_UNIT ( ) NAMED_UNIT ( #373 ) );
#275 = PRESENTATION_LAYER_ASSIGNMENT (  '', '', ( #327 ) ) ;
#276 = SURFACE_STYLE_FILL_AREA ( #211 ) ;
#277 = DIRECTION ( 'NONE',  ( -0.000000000000000000, -1.000000000000000000, -0.000000000000000000 ) ) ;
#278 = ORIENTED_EDGE ( 'NONE', *, *, #103, .F. ) ;
#279 = CARTESIAN_POINT ( 'NONE',  ( 0.09374999999999995837, 2.000000000000000000, 1.148106374200641706E-17 ) ) ;
#280 = FACE_OUTER_BOUND ( 'NONE', #7, .T. ) ;
#281 = AXIS2_PLACEMENT_3D ( 'NONE', #257, #8, #31 ) ;
#282 = LENGTH_MEASURE_WITH_UNIT ( LENGTH_MEASURE( 0.02539999999999999897 ), #312 );
#283 = EDGE_CURVE ( 'NONE', #156, #221, #91, .T. ) ;
#284 = VERTEX_POINT ( 'NONE', #174 ) ;
#285 = STYLED_ITEM ( 'NONE', ( #250 ), #60 ) ;
#286 = AXIS2_PLACEMENT_3D ( 'NONE', #180, #190, #309 ) ;
#287 = CARTESIAN_POINT ( 'NONE',  ( -1.148106374200644017E-17, 0.09375000000000002776, 0.000000000000000000 ) ) ;
#288 = EDGE_CURVE ( 'NONE', #284, #362, #341, .T. ) ;
#289 = FILL_AREA_STYLE_COLOUR ( '', #41 ) ;
#290 = PRODUCT ( '17092', '17092', '', ( #210 ) ) ;
#291 = CIRCLE ( 'NONE', #296, 0.09374999999999990286 ) ;
#292 = CIRCLE ( 'NONE', #306, 0.09375000000000002776 ) ;
#293 = DIRECTION ( 'NONE',  ( -1.000000000000000000, 0.000000000000000000, 0.000000000000000000 ) ) ;
#294 = VERTEX_POINT ( 'NONE', #155 ) ;
#295 = LENGTH_MEASURE_WITH_UNIT ( LENGTH_MEASURE( 0.02539999999999999897 ), #104 );
#296 = AXIS2_PLACEMENT_3D ( 'NONE', #148, #116, #293 ) ;
#297 = PRESENTATION_LAYER_ASSIGNMENT (  '', '', ( #142 ) ) ;
#298 =( NAMED_UNIT ( * ) SI_UNIT ( $, .STERADIAN. ) SOLID_ANGLE_UNIT ( ) );
#299 = LENGTH_MEASURE_WITH_UNIT ( LENGTH_MEASURE( 0.02539999999999999897 ), #311 );
#300 = ORIENTED_EDGE ( 'NONE', *, *, #288, .T. ) ;
#301 =( CONVERSION_BASED_UNIT ( 'INCH', #222 ) LENGTH_UNIT ( ) NAMED_UNIT ( #258 ) );
#302 = FILL_AREA_STYLE ('',( #326 ) ) ;
#303 = DIRECTION ( 'NONE',  ( -1.231614398321443036E-16, 1.000000000000000000, -0.000000000000000000 ) ) ;
#304 = AXIS2_PLACEMENT_3D ( 'NONE', #86, #93, #267 ) ;
#305 = SURFACE_STYLE_USAGE ( .BOTH. , #353 ) ;
#306 = AXIS2_PLACEMENT_3D ( 'NONE', #109, #369, #110 ) ;
#307 = CYLINDRICAL_SURFACE ( 'NONE', #40, 0.09374999999999998612 ) ;
#308 = ORIENTED_EDGE ( 'NONE', *, *, #283, .F. ) ;
#309 = DIRECTION ( 'NONE',  ( -1.000000000000000000, 0.000000000000000000, 0.000000000000000000 ) ) ;
#310 = EDGE_LOOP ( 'NONE', ( #334, #271, #254, #308, #215 ) ) ;
#311 =( LENGTH_UNIT ( ) NAMED_UNIT ( * ) SI_UNIT ( $, .METRE. ) );
#312 =( LENGTH_UNIT ( ) NAMED_UNIT ( * ) SI_UNIT ( $, .METRE. ) );
#313 = AXIS2_PLACEMENT_3D ( 'NONE', #226, #151, #124 ) ;
#314 =( GEOMETRIC_REPRESENTATION_CONTEXT ( 3 ) GLOBAL_UNCERTAINTY_ASSIGNED_CONTEXT ( ( #209 ) ) GLOBAL_UNIT_ASSIGNED_CONTEXT ( ( #19, #336, #17 ) ) REPRESENTATION_CONTEXT ( 'NONE', 'WORKASPACE' ) );
#315 = ORIENTED_EDGE ( 'NONE', *, *, #231, .F. ) ;
#316 = CARTESIAN_POINT ( 'NONE',  ( 0.000000000000000000, 0.09375000000000004163, -0.09374999999999998612 ) ) ;
#317 = ADVANCED_FACE ( 'NONE', ( #36 ), #360, .T. ) ;
#318 = AXIS2_PLACEMENT_3D ( 'NONE', #76, #232, #79 ) ;
#319 = DIMENSIONAL_EXPONENTS ( 1.000000000000000000, 0.000000000000000000, 0.000000000000000000, 0.000000000000000000, 0.000000000000000000, 0.000000000000000000, 0.000000000000000000 ) ;
#320 = SURFACE_STYLE_FILL_AREA ( #343 ) ;
#321 = CARTESIAN_POINT ( 'NONE',  ( 0.09374999999999997224, 2.000000000000000000, 0.000000000000000000 ) ) ;
#322 = CIRCLE ( 'NONE', #48, 0.09374999999999997224 ) ;
#323 = DIRECTION ( 'NONE',  ( 1.231614398321443036E-16, -1.000000000000000000, 0.000000000000000000 ) ) ;
#324 = PRESENTATION_STYLE_ASSIGNMENT (( #208 ) ) ;
#325 =( NAMED_UNIT ( * ) PLANE_ANGLE_UNIT ( ) SI_UNIT ( $, .RADIAN. ) );
#326 = FILL_AREA_STYLE_COLOUR ( '', #81 ) ;
#327 = STYLED_ITEM ( 'NONE', ( #72 ), #338 ) ;
#328 = CARTESIAN_POINT ( 'NONE',  ( -1.148106374200644017E-17, 0.09375000000000002776, 0.000000000000000000 ) ) ;
#329 = DIRECTION ( 'NONE',  ( -1.000000000000000000, 0.000000000000000000, 0.000000000000000000 ) ) ;
#330 = LENGTH_MEASURE_WITH_UNIT ( LENGTH_MEASURE( 0.02539999999999999897 ), #356 );
#331 = PRESENTATION_STYLE_ASSIGNMENT (( #42 ) ) ;
#332 = COLOUR_RGB ( '',1.000000000000000000, 0.000000000000000000, 0.000000000000000000 ) ;
#333 = LINE ( 'NONE', #358, #27 ) ;
#334 = ORIENTED_EDGE ( 'NONE', *, *, #247, .T. ) ;
#335 = DIRECTION ( 'NONE',  ( 0.000000000000000000, 0.000000000000000000, -1.000000000000000000 ) ) ;
#336 =( NAMED_UNIT ( * ) PLANE_ANGLE_UNIT ( ) SI_UNIT ( $, .RADIAN. ) );
#337 = STYLED_ITEM ( 'NONE', ( #230 ), #140 ) ;
#338 = ADVANCED_FACE ( 'NONE', ( #125 ), #185, .T. ) ;
#339 = CIRCLE ( 'NONE', #52, 0.09375000000000002776 ) ;
#340 =( LENGTH_UNIT ( ) NAMED_UNIT ( * ) SI_UNIT ( $, .METRE. ) );
#341 = LINE ( 'NONE', #201, #205 ) ;
#342 = EDGE_LOOP ( 'NONE', ( #315, #144, #263, #106, #129 ) ) ;
#343 = FILL_AREA_STYLE ('',( #289 ) ) ;
#344 = MECHANICAL_DESIGN_GEOMETRIC_PRESENTATION_REPRESENTATION (  '', ( #85 ), #165 ) ;
#345 = EDGE_LOOP ( 'NONE', ( #21, #105, #100, #78 ) ) ;
#346 = DIRECTION ( 'NONE',  ( 1.000000000000000000, 1.231614398321443036E-16, 0.000000000000000000 ) ) ;
#347 = DIRECTION ( 'NONE',  ( -0.000000000000000000, -1.000000000000000000, -0.000000000000000000 ) ) ;
#348 = EDGE_LOOP ( 'NONE', ( #178, #35, #278, #367 ) ) ;
#349 = UNCERTAINTY_MEASURE_WITH_UNIT (LENGTH_MEASURE( 1.000000000000000082E-05 ), #351, 'distance_accuracy_value', 'NONE');
#350 = EDGE_CURVE ( 'NONE', #195, #284, #188, .T. ) ;
#351 =( CONVERSION_BASED_UNIT ( 'INCH', #10 ) LENGTH_UNIT ( ) NAMED_UNIT ( #173 ) );
#352 = STYLED_ITEM ( 'NONE', ( #30 ), #197 ) ;
#353 = SURFACE_SIDE_STYLE ('',( #89 ) ) ;
#354 = AXIS2_PLACEMENT_3D ( 'NONE', #46, #75, #160 ) ;
#355 = DIRECTION ( 'NONE',  ( -1.231614398321443036E-16, 1.000000000000000000, 0.000000000000000000 ) ) ;
#356 =( LENGTH_UNIT ( ) NAMED_UNIT ( * ) SI_UNIT ( $, .METRE. ) );
#357 = SHAPE_DEFINITION_REPRESENTATION ( #169, #135 ) ;
#358 = CARTESIAN_POINT ( 'NONE',  ( 0.000000000000000000, 0.000000000000000000, -0.09374999999999998612 ) ) ;
#359 = VERTEX_POINT ( 'NONE', #279 ) ;
#360 = CYLINDRICAL_SURFACE ( 'NONE', #198, 0.09374999999999998612 ) ;
#361 = SURFACE_STYLE_USAGE ( .BOTH. , #368 ) ;
#362 = VERTEX_POINT ( 'NONE', #67 ) ;
#363 = SURFACE_STYLE_USAGE ( .BOTH. , #14 ) ;
#364 = SURFACE_SIDE_STYLE ('',( #223 ) ) ;
#365 = COLOUR_RGB ( '',1.000000000000000000, 0.000000000000000000, 0.000000000000000000 ) ;
#366 = PRODUCT_DEFINITION_FORMATION_WITH_SPECIFIED_SOURCE ( 'ANY', '', #290, .NOT_KNOWN. ) ;
#367 = ORIENTED_EDGE ( 'NONE', *, *, #238, .T. ) ;
#368 = SURFACE_SIDE_STYLE ('',( #44 ) ) ;
#369 = DIRECTION ( 'NONE',  ( 1.224646799147353207E-16, -0.000000000000000000, 1.000000000000000000 ) ) ;
#370 = DIRECTION ( 'NONE',  ( 0.000000000000000000, 0.000000000000000000, -1.000000000000000000 ) ) ;
#371 = MECHANICAL_DESIGN_GEOMETRIC_PRESENTATION_REPRESENTATION (  '', ( #337 ), #314 ) ;
#372 = EDGE_CURVE ( 'NONE', #294, #224, #25, .T. ) ;
#373 = DIMENSIONAL_EXPONENTS ( 1.000000000000000000, 0.000000000000000000, 0.000000000000000000, 0.000000000000000000, 0.000000000000000000, 0.000000000000000000, 0.000000000000000000 ) ;
ENDSEC;
END-ISO-10303-21;
